  0
SECTION
  2
HEADER
  9
$ACADVER
  1
AC1006
  9
$EXTMIN
 10
2.453000
 20
0.583880
  9
$EXTMAX
 10
6.581080
 20
4.342360
  9
$LTSCALE
 40
0.044000
  9
$PDMODE
 70
    35
  9
$PDSIZE
 40
0.035200
  0
ENDSEC
  0
SECTION
  2
TABLES
  0
TABLE
  2
LTYPE
 70
     9
  0
LTYPE
  2
CONTINUOUS
 70
    64
  3
Solid line
 72
    65
 73
     0
 40
0.000000
  0
LTYPE
  2
DASHED
 70
    64
  3
__ __ __ __ __ __ __ __ __ __ __ __ __ __ __
 72
    65
 73
     2
 40
0.000330
 49
0.000220
 49
-0.000110
  0
LTYPE
  2
HIDDEN
 70
    64
  3
 _ _ _ _ _ _ _ _ _ _ _ _ _ _ _ _ _ _ _ _ _ _
 72
    65
 73
     2
 40
0.000165
 49
0.000110
 49
-0.000055
  0
LTYPE
  2
CENTER
 70
    64
  3
____ _ ____ _ ____ _ ____ _ ____ _ ____ _ ____
 72
    65
 73
     4
 40
0.000880
 49
0.000550
 49
-0.000110
 49
0.000110
 49
-0.000110
  0
LTYPE
  2
PHANTOM
 70
    64
  3
_____ _ _ _____ _ _ _____ _ _ _____ _ _ ____
 72
    65
 73
     6
 40
0.001100
 49
0.000550
 49
-0.000110
 49
0.000110
 49
-0.000110
 49
0.000110
 49
-0.000110
  0
LTYPE
  2
DOT
 70
    64
  3
...............................................
 72
    65
 73
     2
 40
0.000110
 49
0.000000
 49
-0.000110
  0
LTYPE
  2
DASHDOT
 70
    64
  3
__ . __ . __ . __ . __ . __ . __ . __ . __ . __
 72
    65
 73
     4
 40
0.000440
 49
0.000220
 49
-0.000110
 49
0.000000
 49
-0.000110
  0
LTYPE
  2
BORDER
 70
    64
  3
__ __ . __ __ . __ __ . __ __ . __ __ . __ __
 72
    65
 73
     6
 40
0.000770
 49
0.000220
 49
-0.000110
 49
0.000220
 49
-0.000110
 49
0.000000
 49
-0.000110
  0
LTYPE
  2
DIVIDE
 70
    64
  3
__ . . __ . . __ . . __ . . __ . . __ . . __
 72
    65
 73
     6
 40
0.000550
 49
0.000220
 49
-0.000110
 49
0.000000
 49
-0.000110
 49
0.000000
 49
-0.000110
  0
LTYPE
  2
DOTDOT
 70
    64
  3
 . .  . .  . .  . .  . .  . . 
 72
    65
 73
     5
 40
0.000242
 49
-0.000110
 49
0.000000
 49
-0.000110
 49
0.000000
 49
-0.000110
  0
ENDTAB
  0
TABLE
  2
STYLE
 70
     2
  0
STYLE
 70
     0
  2
SN0
 40
0.000000
 41
0.000440
 50
0.000000
 71
     0
 42
0.000000
  3
ROMAND
  0
STYLE
 70
    68
  2
SV0
 40
0.000000
 41
0.000440
 50
0.000000
 71
     0
 42
0.000000
  3
ROMAND
  0
ENDTAB
  0
TABLE
  2
LAYER
 70
     3
  0
LAYER
  2
FOREGROUND
 70
    64
 62
     7
  6
CONTINUOUS
  0
LAYER
  2
BACKGROUND
 70
    65
 62
    -7
  6
CONTINUOUS
  0
LAYER
  2
0
 70
    64
 62
     7
  6
CONTINUOUS
  0
ENDTAB
  0
ENDSEC
  0
SECTION
  2
ENTITIES
  0
POLYLINE
  8
FOREGROUND
  6
CONTINUOUS
 66
     1
 40
0.000000
 41
0.000000
  0
VERTEX
  8
FOREGROUND
  6
CONTINUOUS
 10
0.000000
 20
4.926240
  0
VERTEX
  8
FOREGROUND
  6
CONTINUOUS
 10
8.499920
 20
4.926240
  0
VERTEX
  8
FOREGROUND
  6
CONTINUOUS
 10
8.499920
 20
-6.073760
  0
VERTEX
  8
FOREGROUND
  6
CONTINUOUS
 10
0.000000
 20
-6.073760
  0
VERTEX
  8
FOREGROUND
  6
CONTINUOUS
 10
0.000000
 20
4.926240
  0
SEQEND
  8
0
  0
POLYLINE
  8
FOREGROUND
  6
CONTINUOUS
 66
     1
 40
0.000000
 41
0.000000
  0
VERTEX
  8
FOREGROUND
  6
CONTINUOUS
 10
0.000000
 20
4.926240
  0
VERTEX
  8
FOREGROUND
  6
CONTINUOUS
 10
8.499920
 20
4.926240
  0
VERTEX
  8
FOREGROUND
  6
CONTINUOUS
 10
8.499920
 20
-6.073760
  0
VERTEX
  8
FOREGROUND
  6
CONTINUOUS
 10
0.000000
 20
-6.073760
  0
VERTEX
  8
FOREGROUND
  6
CONTINUOUS
 10
0.000000
 20
4.926240
  0
SEQEND
  8
0
  0
SOLID
  8
0
 62
    15
 10
4.078800
 20
1.737560
 11
4.079240
 21
2.480720
 12
4.089360
 22
1.703680
 13
4.089800
 23
2.447280
  0
POLYLINE
  8
0
  6
CONTINUOUS
 66
     1
 40
0.000000
 41
0.000000
  0
VERTEX
  8
0
  6
CONTINUOUS
 10
4.078800
 20
1.737560
  0
VERTEX
  8
0
  6
CONTINUOUS
 10
4.079240
 20
2.480720
  0
VERTEX
  8
0
  6
CONTINUOUS
 10
4.089800
 20
2.447280
  0
VERTEX
  8
0
  6
CONTINUOUS
 10
4.089360
 20
1.703680
  0
VERTEX
  8
0
  6
CONTINUOUS
 10
4.078800
 20
1.737560
  0
SEQEND
  8
0
  0
SOLID
  8
0
 62
    15
 10
2.924680
 20
2.083840
 11
2.924680
 21
2.827440
 12
2.924680
 22
2.083840
 13
2.925120
 23
2.827440
  0
POLYLINE
  8
0
  6
CONTINUOUS
 66
     1
 40
0.000000
 41
0.000000
  0
VERTEX
  8
0
  6
CONTINUOUS
 10
2.924680
 20
2.083840
  0
VERTEX
  8
0
  6
CONTINUOUS
 10
2.924680
 20
2.827440
  0
VERTEX
  8
0
  6
CONTINUOUS
 10
2.925120
 20
2.827440
  0
VERTEX
  8
0
  6
CONTINUOUS
 10
2.924680
 20
2.083840
  0
SEQEND
  8
0
  0
SOLID
  8
0
 62
    15
 10
2.914120
 20
2.083840
 11
2.914120
 21
2.827440
 12
2.925120
 22
2.083840
 13
2.925120
 23
2.827440
  0
POLYLINE
  8
0
  6
CONTINUOUS
 66
     1
 40
0.000000
 41
0.000000
  0
VERTEX
  8
0
  6
CONTINUOUS
 10
2.914120
 20
2.083840
  0
VERTEX
  8
0
  6
CONTINUOUS
 10
2.914120
 20
2.827440
  0
VERTEX
  8
0
  6
CONTINUOUS
 10
2.925120
 20
2.827440
  0
VERTEX
  8
0
  6
CONTINUOUS
 10
2.925120
 20
2.083840
  0
VERTEX
  8
0
  6
CONTINUOUS
 10
2.914120
 20
2.083840
  0
SEQEND
  8
0
  0
SOLID
  8
0
 62
    15
 10
2.953280
 20
2.112880
 11
2.953280
 21
2.856040
 12
2.994200
 22
2.134000
 13
2.994200
 23
2.877600
  0
POLYLINE
  8
0
  6
CONTINUOUS
 66
     1
 40
0.000000
 41
0.000000
  0
VERTEX
  8
0
  6
CONTINUOUS
 10
2.953280
 20
2.112880
  0
VERTEX
  8
0
  6
CONTINUOUS
 10
2.953280
 20
2.856040
  0
VERTEX
  8
0
  6
CONTINUOUS
 10
2.994200
 20
2.877600
  0
VERTEX
  8
0
  6
CONTINUOUS
 10
2.994200
 20
2.134000
  0
VERTEX
  8
0
  6
CONTINUOUS
 10
2.953280
 20
2.112880
  0
SEQEND
  8
0
  0
SOLID
  8
0
 62
    15
 10
2.994200
 20
2.134000
 11
2.994200
 21
2.877600
 12
3.045240
 22
2.146760
 13
3.045240
 23
2.889920
  0
POLYLINE
  8
0
  6
CONTINUOUS
 66
     1
 40
0.000000
 41
0.000000
  0
VERTEX
  8
0
  6
CONTINUOUS
 10
2.994200
 20
2.134000
  0
VERTEX
  8
0
  6
CONTINUOUS
 10
2.994200
 20
2.877600
  0
VERTEX
  8
0
  6
CONTINUOUS
 10
3.045240
 20
2.889920
  0
VERTEX
  8
0
  6
CONTINUOUS
 10
3.045240
 20
2.146760
  0
VERTEX
  8
0
  6
CONTINUOUS
 10
2.994200
 20
2.134000
  0
SEQEND
  8
0
  0
SOLID
  8
0
 62
    15
 10
3.045240
 20
2.146760
 11
3.045240
 21
2.889920
 12
3.102880
 22
2.149400
 13
3.103320
 23
2.892560
  0
POLYLINE
  8
0
  6
CONTINUOUS
 66
     1
 40
0.000000
 41
0.000000
  0
VERTEX
  8
0
  6
CONTINUOUS
 10
3.045240
 20
2.146760
  0
VERTEX
  8
0
  6
CONTINUOUS
 10
3.045240
 20
2.889920
  0
VERTEX
  8
0
  6
CONTINUOUS
 10
3.103320
 20
2.892560
  0
VERTEX
  8
0
  6
CONTINUOUS
 10
3.102880
 20
2.149400
  0
VERTEX
  8
0
  6
CONTINUOUS
 10
3.045240
 20
2.146760
  0
SEQEND
  8
0
  0
SOLID
  8
0
 62
    15
 10
3.102880
 20
2.149400
 11
3.103320
 21
2.892560
 12
3.164920
 22
2.141480
 13
3.165360
 23
2.884640
  0
POLYLINE
  8
0
  6
CONTINUOUS
 66
     1
 40
0.000000
 41
0.000000
  0
VERTEX
  8
0
  6
CONTINUOUS
 10
3.102880
 20
2.149400
  0
VERTEX
  8
0
  6
CONTINUOUS
 10
3.103320
 20
2.892560
  0
VERTEX
  8
0
  6
CONTINUOUS
 10
3.165360
 20
2.884640
  0
VERTEX
  8
0
  6
CONTINUOUS
 10
3.164920
 20
2.141480
  0
VERTEX
  8
0
  6
CONTINUOUS
 10
3.102880
 20
2.149400
  0
SEQEND
  8
0
  0
SOLID
  8
0
 62
    15
 10
3.164920
 20
2.141480
 11
3.165360
 21
2.884640
 12
3.228720
 22
2.120800
 13
3.229160
 23
2.864400
  0
POLYLINE
  8
0
  6
CONTINUOUS
 66
     1
 40
0.000000
 41
0.000000
  0
VERTEX
  8
0
  6
CONTINUOUS
 10
3.164920
 20
2.141480
  0
VERTEX
  8
0
  6
CONTINUOUS
 10
3.165360
 20
2.884640
  0
VERTEX
  8
0
  6
CONTINUOUS
 10
3.229160
 20
2.864400
  0
VERTEX
  8
0
  6
CONTINUOUS
 10
3.228720
 20
2.120800
  0
VERTEX
  8
0
  6
CONTINUOUS
 10
3.164920
 20
2.141480
  0
SEQEND
  8
0
  0
SOLID
  8
0
 62
    15
 10
3.228720
 20
2.120800
 11
3.229160
 21
2.864400
 12
3.291200
 22
2.087360
 13
3.291200
 23
2.830520
  0
POLYLINE
  8
0
  6
CONTINUOUS
 66
     1
 40
0.000000
 41
0.000000
  0
VERTEX
  8
0
  6
CONTINUOUS
 10
3.228720
 20
2.120800
  0
VERTEX
  8
0
  6
CONTINUOUS
 10
3.229160
 20
2.864400
  0
VERTEX
  8
0
  6
CONTINUOUS
 10
3.291200
 20
2.830520
  0
VERTEX
  8
0
  6
CONTINUOUS
 10
3.291200
 20
2.087360
  0
VERTEX
  8
0
  6
CONTINUOUS
 10
3.228720
 20
2.120800
  0
SEQEND
  8
0
  0
SOLID
  8
0
 62
    15
 10
3.291200
 20
2.087360
 11
3.291200
 21
2.830520
 12
3.349720
 22
2.039400
 13
3.349720
 23
2.782560
  0
POLYLINE
  8
0
  6
CONTINUOUS
 66
     1
 40
0.000000
 41
0.000000
  0
VERTEX
  8
0
  6
CONTINUOUS
 10
3.291200
 20
2.087360
  0
VERTEX
  8
0
  6
CONTINUOUS
 10
3.291200
 20
2.830520
  0
VERTEX
  8
0
  6
CONTINUOUS
 10
3.349720
 20
2.782560
  0
VERTEX
  8
0
  6
CONTINUOUS
 10
3.349720
 20
2.039400
  0
VERTEX
  8
0
  6
CONTINUOUS
 10
3.291200
 20
2.087360
  0
SEQEND
  8
0
  0
SOLID
  8
0
 62
    15
 10
3.349720
 20
2.039400
 11
3.349720
 21
2.782560
 12
3.402080
 22
1.984840
 13
3.402520
 23
2.728000
  0
POLYLINE
  8
0
  6
CONTINUOUS
 66
     1
 40
0.000000
 41
0.000000
  0
VERTEX
  8
0
  6
CONTINUOUS
 10
3.349720
 20
2.039400
  0
VERTEX
  8
0
  6
CONTINUOUS
 10
3.349720
 20
2.782560
  0
VERTEX
  8
0
  6
CONTINUOUS
 10
3.402520
 20
2.728000
  0
VERTEX
  8
0
  6
CONTINUOUS
 10
3.402080
 20
1.984840
  0
VERTEX
  8
0
  6
CONTINUOUS
 10
3.349720
 20
2.039400
  0
SEQEND
  8
0
  0
SOLID
  8
0
 62
    15
 10
3.402080
 20
1.984840
 11
3.402520
 21
2.728000
 12
3.426720
 22
1.958440
 13
3.426720
 23
2.701600
  0
POLYLINE
  8
0
  6
CONTINUOUS
 66
     1
 40
0.000000
 41
0.000000
  0
VERTEX
  8
0
  6
CONTINUOUS
 10
3.402080
 20
1.984840
  0
VERTEX
  8
0
  6
CONTINUOUS
 10
3.402520
 20
2.728000
  0
VERTEX
  8
0
  6
CONTINUOUS
 10
3.426720
 20
2.701600
  0
VERTEX
  8
0
  6
CONTINUOUS
 10
3.426720
 20
1.958440
  0
VERTEX
  8
0
  6
CONTINUOUS
 10
3.402080
 20
1.984840
  0
SEQEND
  8
0
  0
SOLID
  8
0
 62
    15
 10
3.426720
 20
1.958440
 11
3.426720
 21
2.701600
 12
3.438600
 22
1.945240
 13
3.439040
 23
2.688840
  0
POLYLINE
  8
0
  6
CONTINUOUS
 66
     1
 40
0.000000
 41
0.000000
  0
VERTEX
  8
0
  6
CONTINUOUS
 10
3.426720
 20
1.958440
  0
VERTEX
  8
0
  6
CONTINUOUS
 10
3.426720
 20
2.701600
  0
VERTEX
  8
0
  6
CONTINUOUS
 10
3.439040
 20
2.688840
  0
VERTEX
  8
0
  6
CONTINUOUS
 10
3.438600
 20
1.945240
  0
VERTEX
  8
0
  6
CONTINUOUS
 10
3.426720
 20
1.958440
  0
SEQEND
  8
0
  0
SOLID
  8
0
 62
    15
 10
3.438600
 20
1.945240
 11
3.439040
 21
2.688840
 12
3.450480
 22
1.932920
 13
3.450920
 23
2.676080
  0
POLYLINE
  8
0
  6
CONTINUOUS
 66
     1
 40
0.000000
 41
0.000000
  0
VERTEX
  8
0
  6
CONTINUOUS
 10
3.438600
 20
1.945240
  0
VERTEX
  8
0
  6
CONTINUOUS
 10
3.439040
 20
2.688840
  0
VERTEX
  8
0
  6
CONTINUOUS
 10
3.450920
 20
2.676080
  0
VERTEX
  8
0
  6
CONTINUOUS
 10
3.450480
 20
1.932920
  0
VERTEX
  8
0
  6
CONTINUOUS
 10
3.438600
 20
1.945240
  0
SEQEND
  8
0
  0
SOLID
  8
0
 62
    15
 10
3.450480
 20
1.932920
 11
3.450920
 21
2.676080
 12
3.498440
 22
1.885400
 13
3.498440
 23
2.628560
  0
POLYLINE
  8
0
  6
CONTINUOUS
 66
     1
 40
0.000000
 41
0.000000
  0
VERTEX
  8
0
  6
CONTINUOUS
 10
3.450480
 20
1.932920
  0
VERTEX
  8
0
  6
CONTINUOUS
 10
3.450920
 20
2.676080
  0
VERTEX
  8
0
  6
CONTINUOUS
 10
3.498440
 20
2.628560
  0
VERTEX
  8
0
  6
CONTINUOUS
 10
3.498440
 20
1.885400
  0
VERTEX
  8
0
  6
CONTINUOUS
 10
3.450480
 20
1.932920
  0
SEQEND
  8
0
  0
SOLID
  8
0
 62
    15
 10
3.498440
 20
1.885400
 11
3.498440
 21
2.628560
 12
3.548600
 22
1.843160
 13
3.548600
 23
2.586760
  0
POLYLINE
  8
0
  6
CONTINUOUS
 66
     1
 40
0.000000
 41
0.000000
  0
VERTEX
  8
0
  6
CONTINUOUS
 10
3.498440
 20
1.885400
  0
VERTEX
  8
0
  6
CONTINUOUS
 10
3.498440
 20
2.628560
  0
VERTEX
  8
0
  6
CONTINUOUS
 10
3.548600
 20
2.586760
  0
VERTEX
  8
0
  6
CONTINUOUS
 10
3.548600
 20
1.843160
  0
VERTEX
  8
0
  6
CONTINUOUS
 10
3.498440
 20
1.885400
  0
SEQEND
  8
0
  0
SOLID
  8
0
 62
    15
 10
3.548600
 20
1.843160
 11
3.548600
 21
2.586760
 12
3.604040
 22
1.808400
 13
3.604040
 23
2.551560
  0
POLYLINE
  8
0
  6
CONTINUOUS
 66
     1
 40
0.000000
 41
0.000000
  0
VERTEX
  8
0
  6
CONTINUOUS
 10
3.548600
 20
1.843160
  0
VERTEX
  8
0
  6
CONTINUOUS
 10
3.548600
 20
2.586760
  0
VERTEX
  8
0
  6
CONTINUOUS
 10
3.604040
 20
2.551560
  0
VERTEX
  8
0
  6
CONTINUOUS
 10
3.604040
 20
1.808400
  0
VERTEX
  8
0
  6
CONTINUOUS
 10
3.548600
 20
1.843160
  0
SEQEND
  8
0
  0
SOLID
  8
0
 62
    15
 10
3.604040
 20
1.808400
 11
3.604040
 21
2.551560
 12
3.668280
 22
1.781560
 13
3.668280
 23
2.525160
  0
POLYLINE
  8
0
  6
CONTINUOUS
 66
     1
 40
0.000000
 41
0.000000
  0
VERTEX
  8
0
  6
CONTINUOUS
 10
3.604040
 20
1.808400
  0
VERTEX
  8
0
  6
CONTINUOUS
 10
3.604040
 20
2.551560
  0
VERTEX
  8
0
  6
CONTINUOUS
 10
3.668280
 20
2.525160
  0
VERTEX
  8
0
  6
CONTINUOUS
 10
3.668280
 20
1.781560
  0
VERTEX
  8
0
  6
CONTINUOUS
 10
3.604040
 20
1.808400
  0
SEQEND
  8
0
  0
SOLID
  8
0
 62
    15
 10
3.668280
 20
1.781560
 11
3.668280
 21
2.525160
 12
3.743960
 22
1.764840
 13
3.744400
 23
2.508000
  0
POLYLINE
  8
0
  6
CONTINUOUS
 66
     1
 40
0.000000
 41
0.000000
  0
VERTEX
  8
0
  6
CONTINUOUS
 10
3.668280
 20
1.781560
  0
VERTEX
  8
0
  6
CONTINUOUS
 10
3.668280
 20
2.525160
  0
VERTEX
  8
0
  6
CONTINUOUS
 10
3.744400
 20
2.508000
  0
VERTEX
  8
0
  6
CONTINUOUS
 10
3.743960
 20
1.764840
  0
VERTEX
  8
0
  6
CONTINUOUS
 10
3.668280
 20
1.781560
  0
SEQEND
  8
0
  0
SOLID
  8
0
 62
    15
 10
3.743960
 20
1.764840
 11
3.744400
 21
2.508000
 12
3.835040
 22
1.758680
 13
3.835040
 23
2.502280
  0
POLYLINE
  8
0
  6
CONTINUOUS
 66
     1
 40
0.000000
 41
0.000000
  0
VERTEX
  8
0
  6
CONTINUOUS
 10
3.743960
 20
1.764840
  0
VERTEX
  8
0
  6
CONTINUOUS
 10
3.744400
 20
2.508000
  0
VERTEX
  8
0
  6
CONTINUOUS
 10
3.835040
 20
2.502280
  0
VERTEX
  8
0
  6
CONTINUOUS
 10
3.835040
 20
1.758680
  0
VERTEX
  8
0
  6
CONTINUOUS
 10
3.743960
 20
1.764840
  0
SEQEND
  8
0
  0
SOLID
  8
0
 62
    15
 10
3.835040
 20
1.758680
 11
3.835040
 21
2.502280
 12
3.851320
 22
1.791680
 13
3.851320
 23
2.534840
  0
POLYLINE
  8
0
  6
CONTINUOUS
 66
     1
 40
0.000000
 41
0.000000
  0
VERTEX
  8
0
  6
CONTINUOUS
 10
3.835040
 20
1.758680
  0
VERTEX
  8
0
  6
CONTINUOUS
 10
3.835040
 20
2.502280
  0
VERTEX
  8
0
  6
CONTINUOUS
 10
3.851320
 20
2.534840
  0
VERTEX
  8
0
  6
CONTINUOUS
 10
3.851320
 20
1.791680
  0
VERTEX
  8
0
  6
CONTINUOUS
 10
3.835040
 20
1.758680
  0
SEQEND
  8
0
  0
SOLID
  8
0
 62
    15
 10
3.851320
 20
1.791680
 11
3.851320
 21
2.534840
 12
3.878600
 22
1.817640
 13
3.878600
 23
2.561240
  0
POLYLINE
  8
0
  6
CONTINUOUS
 66
     1
 40
0.000000
 41
0.000000
  0
VERTEX
  8
0
  6
CONTINUOUS
 10
3.851320
 20
1.791680
  0
VERTEX
  8
0
  6
CONTINUOUS
 10
3.851320
 20
2.534840
  0
VERTEX
  8
0
  6
CONTINUOUS
 10
3.878600
 20
2.561240
  0
VERTEX
  8
0
  6
CONTINUOUS
 10
3.878600
 20
1.817640
  0
VERTEX
  8
0
  6
CONTINUOUS
 10
3.851320
 20
1.791680
  0
SEQEND
  8
0
  0
SOLID
  8
0
 62
    15
 10
3.878600
 20
1.817640
 11
3.878600
 21
2.561240
 12
3.913800
 22
1.834800
 13
3.913800
 23
2.577960
  0
POLYLINE
  8
0
  6
CONTINUOUS
 66
     1
 40
0.000000
 41
0.000000
  0
VERTEX
  8
0
  6
CONTINUOUS
 10
3.878600
 20
1.817640
  0
VERTEX
  8
0
  6
CONTINUOUS
 10
3.878600
 20
2.561240
  0
VERTEX
  8
0
  6
CONTINUOUS
 10
3.913800
 20
2.577960
  0
VERTEX
  8
0
  6
CONTINUOUS
 10
3.913800
 20
1.834800
  0
VERTEX
  8
0
  6
CONTINUOUS
 10
3.878600
 20
1.817640
  0
SEQEND
  8
0
  0
SOLID
  8
0
 62
    15
 10
3.913800
 20
1.834800
 11
3.913800
 21
2.577960
 12
3.953400
 22
1.840080
 13
3.953400
 23
2.583240
  0
POLYLINE
  8
0
  6
CONTINUOUS
 66
     1
 40
0.000000
 41
0.000000
  0
VERTEX
  8
0
  6
CONTINUOUS
 10
3.913800
 20
1.834800
  0
VERTEX
  8
0
  6
CONTINUOUS
 10
3.913800
 20
2.577960
  0
VERTEX
  8
0
  6
CONTINUOUS
 10
3.953400
 20
2.583240
  0
VERTEX
  8
0
  6
CONTINUOUS
 10
3.953400
 20
1.840080
  0
VERTEX
  8
0
  6
CONTINUOUS
 10
3.913800
 20
1.834800
  0
SEQEND
  8
0
  0
SOLID
  8
0
 62
    15
 10
3.953400
 20
1.840080
 11
3.953400
 21
2.583240
 12
3.993880
 22
1.831720
 13
3.994320
 23
2.575320
  0
POLYLINE
  8
0
  6
CONTINUOUS
 66
     1
 40
0.000000
 41
0.000000
  0
VERTEX
  8
0
  6
CONTINUOUS
 10
3.953400
 20
1.840080
  0
VERTEX
  8
0
  6
CONTINUOUS
 10
3.953400
 20
2.583240
  0
VERTEX
  8
0
  6
CONTINUOUS
 10
3.994320
 20
2.575320
  0
VERTEX
  8
0
  6
CONTINUOUS
 10
3.993880
 20
1.831720
  0
VERTEX
  8
0
  6
CONTINUOUS
 10
3.953400
 20
1.840080
  0
SEQEND
  8
0
  0
SOLID
  8
0
 62
    15
 10
3.993880
 20
1.831720
 11
3.994320
 21
2.575320
 12
4.032600
 22
1.807960
 13
4.033040
 23
2.551120
  0
POLYLINE
  8
0
  6
CONTINUOUS
 66
     1
 40
0.000000
 41
0.000000
  0
VERTEX
  8
0
  6
CONTINUOUS
 10
3.993880
 20
1.831720
  0
VERTEX
  8
0
  6
CONTINUOUS
 10
3.994320
 20
2.575320
  0
VERTEX
  8
0
  6
CONTINUOUS
 10
4.033040
 20
2.551120
  0
VERTEX
  8
0
  6
CONTINUOUS
 10
4.032600
 20
1.807960
  0
VERTEX
  8
0
  6
CONTINUOUS
 10
3.993880
 20
1.831720
  0
SEQEND
  8
0
  0
SOLID
  8
0
 62
    15
 10
4.032600
 20
1.807960
 11
4.033040
 21
2.551120
 12
4.065600
 22
1.766160
 13
4.065600
 23
2.509320
  0
POLYLINE
  8
0
  6
CONTINUOUS
 66
     1
 40
0.000000
 41
0.000000
  0
VERTEX
  8
0
  6
CONTINUOUS
 10
4.032600
 20
1.807960
  0
VERTEX
  8
0
  6
CONTINUOUS
 10
4.033040
 20
2.551120
  0
VERTEX
  8
0
  6
CONTINUOUS
 10
4.065600
 20
2.509320
  0
VERTEX
  8
0
  6
CONTINUOUS
 10
4.065600
 20
1.766160
  0
VERTEX
  8
0
  6
CONTINUOUS
 10
4.032600
 20
1.807960
  0
SEQEND
  8
0
  0
SOLID
  8
0
 62
    15
 10
4.065600
 20
1.766160
 11
4.065600
 21
2.509320
 12
4.078800
 22
1.737560
 13
4.079240
 23
2.480720
  0
POLYLINE
  8
0
  6
CONTINUOUS
 66
     1
 40
0.000000
 41
0.000000
  0
VERTEX
  8
0
  6
CONTINUOUS
 10
4.065600
 20
1.766160
  0
VERTEX
  8
0
  6
CONTINUOUS
 10
4.065600
 20
2.509320
  0
VERTEX
  8
0
  6
CONTINUOUS
 10
4.079240
 20
2.480720
  0
VERTEX
  8
0
  6
CONTINUOUS
 10
4.078800
 20
1.737560
  0
VERTEX
  8
0
  6
CONTINUOUS
 10
4.065600
 20
1.766160
  0
SEQEND
  8
0
  0
SOLID
  8
0
 62
    15
 10
2.925120
 20
2.827440
 11
2.953280
 21
2.856040
 12
2.924680
 22
2.083840
 13
2.953280
 23
2.112880
  0
POLYLINE
  8
0
  6
CONTINUOUS
 66
     1
 40
0.000000
 41
0.000000
  0
VERTEX
  8
0
  6
CONTINUOUS
 10
2.925120
 20
2.827440
  0
VERTEX
  8
0
  6
CONTINUOUS
 10
2.953280
 20
2.856040
  0
VERTEX
  8
0
  6
CONTINUOUS
 10
2.953280
 20
2.112880
  0
VERTEX
  8
0
  6
CONTINUOUS
 10
2.924680
 20
2.083840
  0
VERTEX
  8
0
  6
CONTINUOUS
 10
2.925120
 20
2.827440
  0
SEQEND
  8
0
  0
SOLID
  8
0
 62
    15
 10
4.089360
 20
1.703680
 11
4.089800
 21
2.447280
 12
4.194520
 22
1.703680
 13
4.194520
 23
2.447280
  0
POLYLINE
  8
0
  6
CONTINUOUS
 66
     1
 40
0.000000
 41
0.000000
  0
VERTEX
  8
0
  6
CONTINUOUS
 10
4.089360
 20
1.703680
  0
VERTEX
  8
0
  6
CONTINUOUS
 10
4.089800
 20
2.447280
  0
VERTEX
  8
0
  6
CONTINUOUS
 10
4.194520
 20
2.447280
  0
VERTEX
  8
0
  6
CONTINUOUS
 10
4.194520
 20
1.703680
  0
VERTEX
  8
0
  6
CONTINUOUS
 10
4.089360
 20
1.703680
  0
SEQEND
  8
0
  0
SOLID
  8
0
 62
    15
 10
4.194520
 20
1.703680
 11
4.194520
 21
2.447280
 12
4.210360
 22
1.595000
 13
4.210360
 23
2.338160
  0
POLYLINE
  8
0
  6
CONTINUOUS
 66
     1
 40
0.000000
 41
0.000000
  0
VERTEX
  8
0
  6
CONTINUOUS
 10
4.194520
 20
1.703680
  0
VERTEX
  8
0
  6
CONTINUOUS
 10
4.194520
 20
2.447280
  0
VERTEX
  8
0
  6
CONTINUOUS
 10
4.210360
 20
2.338160
  0
VERTEX
  8
0
  6
CONTINUOUS
 10
4.210360
 20
1.595000
  0
VERTEX
  8
0
  6
CONTINUOUS
 10
4.194520
 20
1.703680
  0
SEQEND
  8
0
  0
SOLID
  8
0
 62
    15
 10
4.210360
 20
1.595000
 11
4.210360
 21
2.338160
 12
5.980480
 22
1.595000
 13
5.980920
 23
2.338160
  0
POLYLINE
  8
0
  6
CONTINUOUS
 66
     1
 40
0.000000
 41
0.000000
  0
VERTEX
  8
0
  6
CONTINUOUS
 10
4.210360
 20
1.595000
  0
VERTEX
  8
0
  6
CONTINUOUS
 10
4.210360
 20
2.338160
  0
VERTEX
  8
0
  6
CONTINUOUS
 10
5.980920
 20
2.338160
  0
VERTEX
  8
0
  6
CONTINUOUS
 10
5.980480
 20
1.595000
  0
VERTEX
  8
0
  6
CONTINUOUS
 10
4.210360
 20
1.595000
  0
SEQEND
  8
0
  0
SOLID
  8
0
 62
    15
 10
5.980480
 20
1.595000
 11
5.980920
 21
2.338160
 12
6.003800
 22
1.587960
 13
6.003800
 23
2.331120
  0
POLYLINE
  8
0
  6
CONTINUOUS
 66
     1
 40
0.000000
 41
0.000000
  0
VERTEX
  8
0
  6
CONTINUOUS
 10
5.980480
 20
1.595000
  0
VERTEX
  8
0
  6
CONTINUOUS
 10
5.980920
 20
2.338160
  0
VERTEX
  8
0
  6
CONTINUOUS
 10
6.003800
 20
2.331120
  0
VERTEX
  8
0
  6
CONTINUOUS
 10
6.003800
 20
1.587960
  0
VERTEX
  8
0
  6
CONTINUOUS
 10
5.980480
 20
1.595000
  0
SEQEND
  8
0
  0
SOLID
  8
0
 62
    15
 10
6.003800
 20
1.587960
 11
6.003800
 21
2.331120
 12
6.020520
 22
1.570360
 13
6.020520
 23
2.313520
  0
POLYLINE
  8
0
  6
CONTINUOUS
 66
     1
 40
0.000000
 41
0.000000
  0
VERTEX
  8
0
  6
CONTINUOUS
 10
6.003800
 20
1.587960
  0
VERTEX
  8
0
  6
CONTINUOUS
 10
6.003800
 20
2.331120
  0
VERTEX
  8
0
  6
CONTINUOUS
 10
6.020520
 20
2.313520
  0
VERTEX
  8
0
  6
CONTINUOUS
 10
6.020520
 20
1.570360
  0
VERTEX
  8
0
  6
CONTINUOUS
 10
6.003800
 20
1.587960
  0
SEQEND
  8
0
  0
SOLID
  8
0
 62
    15
 10
6.033280
 20
1.521080
 11
6.033720
 21
2.264240
 12
6.054400
 22
1.521080
 13
6.054840
 23
2.264240
  0
POLYLINE
  8
0
  6
CONTINUOUS
 66
     1
 40
0.000000
 41
0.000000
  0
VERTEX
  8
0
  6
CONTINUOUS
 10
6.033280
 20
1.521080
  0
VERTEX
  8
0
  6
CONTINUOUS
 10
6.033720
 20
2.264240
  0
VERTEX
  8
0
  6
CONTINUOUS
 10
6.054840
 20
2.264240
  0
VERTEX
  8
0
  6
CONTINUOUS
 10
6.054400
 20
1.521080
  0
VERTEX
  8
0
  6
CONTINUOUS
 10
6.033280
 20
1.521080
  0
SEQEND
  8
0
  0
SOLID
  8
0
 62
    15
 10
6.030200
 20
1.546160
 11
6.030200
 21
2.289760
 12
6.033280
 22
1.521080
 13
6.033720
 23
2.264240
  0
POLYLINE
  8
0
  6
CONTINUOUS
 66
     1
 40
0.000000
 41
0.000000
  0
VERTEX
  8
0
  6
CONTINUOUS
 10
6.030200
 20
1.546160
  0
VERTEX
  8
0
  6
CONTINUOUS
 10
6.030200
 20
2.289760
  0
VERTEX
  8
0
  6
CONTINUOUS
 10
6.033720
 20
2.264240
  0
VERTEX
  8
0
  6
CONTINUOUS
 10
6.033280
 20
1.521080
  0
VERTEX
  8
0
  6
CONTINUOUS
 10
6.030200
 20
1.546160
  0
SEQEND
  8
0
  0
SOLID
  8
0
 62
    15
 10
6.020520
 20
1.570360
 11
6.020520
 21
2.313520
 12
6.030200
 22
1.546160
 13
6.030200
 23
2.289760
  0
POLYLINE
  8
0
  6
CONTINUOUS
 66
     1
 40
0.000000
 41
0.000000
  0
VERTEX
  8
0
  6
CONTINUOUS
 10
6.020520
 20
1.570360
  0
VERTEX
  8
0
  6
CONTINUOUS
 10
6.020520
 20
2.313520
  0
VERTEX
  8
0
  6
CONTINUOUS
 10
6.030200
 20
2.289760
  0
VERTEX
  8
0
  6
CONTINUOUS
 10
6.030200
 20
1.546160
  0
VERTEX
  8
0
  6
CONTINUOUS
 10
6.020520
 20
1.570360
  0
SEQEND
  8
0
  0
SOLID
  8
0
 62
    15
 10
6.054400
 20
1.521080
 11
6.054840
 21
2.264240
 12
6.058800
 22
1.519320
 13
6.058800
 23
2.262480
  0
POLYLINE
  8
0
  6
CONTINUOUS
 66
     1
 40
0.000000
 41
0.000000
  0
VERTEX
  8
0
  6
CONTINUOUS
 10
6.054400
 20
1.521080
  0
VERTEX
  8
0
  6
CONTINUOUS
 10
6.054840
 20
2.264240
  0
VERTEX
  8
0
  6
CONTINUOUS
 10
6.058800
 20
2.262480
  0
VERTEX
  8
0
  6
CONTINUOUS
 10
6.058800
 20
1.519320
  0
VERTEX
  8
0
  6
CONTINUOUS
 10
6.054400
 20
1.521080
  0
SEQEND
  8
0
  0
SOLID
  8
0
 62
    15
 10
6.058800
 20
1.519320
 11
6.058800
 21
2.262480
 12
6.068920
 22
1.528560
 13
6.069360
 23
2.272160
  0
POLYLINE
  8
0
  6
CONTINUOUS
 66
     1
 40
0.000000
 41
0.000000
  0
VERTEX
  8
0
  6
CONTINUOUS
 10
6.058800
 20
1.519320
  0
VERTEX
  8
0
  6
CONTINUOUS
 10
6.058800
 20
2.262480
  0
VERTEX
  8
0
  6
CONTINUOUS
 10
6.069360
 20
2.272160
  0
VERTEX
  8
0
  6
CONTINUOUS
 10
6.068920
 20
1.528560
  0
VERTEX
  8
0
  6
CONTINUOUS
 10
6.058800
 20
1.519320
  0
SEQEND
  8
0
  0
SOLID
  8
0
 62
    15
 10
6.068920
 20
1.528560
 11
6.069360
 21
2.272160
 12
6.085200
 22
1.537800
 13
6.085640
 23
2.281400
  0
POLYLINE
  8
0
  6
CONTINUOUS
 66
     1
 40
0.000000
 41
0.000000
  0
VERTEX
  8
0
  6
CONTINUOUS
 10
6.068920
 20
1.528560
  0
VERTEX
  8
0
  6
CONTINUOUS
 10
6.069360
 20
2.272160
  0
VERTEX
  8
0
  6
CONTINUOUS
 10
6.085640
 20
2.281400
  0
VERTEX
  8
0
  6
CONTINUOUS
 10
6.085200
 20
1.537800
  0
VERTEX
  8
0
  6
CONTINUOUS
 10
6.068920
 20
1.528560
  0
SEQEND
  8
0
  0
SOLID
  8
0
 62
    15
 10
6.085200
 20
1.537800
 11
6.085640
 21
2.281400
 12
6.106760
 22
1.545720
 13
6.107200
 23
2.288880
  0
POLYLINE
  8
0
  6
CONTINUOUS
 66
     1
 40
0.000000
 41
0.000000
  0
VERTEX
  8
0
  6
CONTINUOUS
 10
6.085200
 20
1.537800
  0
VERTEX
  8
0
  6
CONTINUOUS
 10
6.085640
 20
2.281400
  0
VERTEX
  8
0
  6
CONTINUOUS
 10
6.107200
 20
2.288880
  0
VERTEX
  8
0
  6
CONTINUOUS
 10
6.106760
 20
1.545720
  0
VERTEX
  8
0
  6
CONTINUOUS
 10
6.085200
 20
1.537800
  0
SEQEND
  8
0
  0
SOLID
  8
0
 62
    15
 10
6.106760
 20
1.545720
 11
6.107200
 21
2.288880
 12
6.132720
 22
1.549680
 13
6.132720
 23
2.292840
  0
POLYLINE
  8
0
  6
CONTINUOUS
 66
     1
 40
0.000000
 41
0.000000
  0
VERTEX
  8
0
  6
CONTINUOUS
 10
6.106760
 20
1.545720
  0
VERTEX
  8
0
  6
CONTINUOUS
 10
6.107200
 20
2.288880
  0
VERTEX
  8
0
  6
CONTINUOUS
 10
6.132720
 20
2.292840
  0
VERTEX
  8
0
  6
CONTINUOUS
 10
6.132720
 20
1.549680
  0
VERTEX
  8
0
  6
CONTINUOUS
 10
6.106760
 20
1.545720
  0
SEQEND
  8
0
  0
SOLID
  8
0
 62
    15
 10
6.132720
 20
1.549680
 11
6.132720
 21
2.292840
 12
6.162200
 22
1.548800
 13
6.162200
 23
2.291960
  0
POLYLINE
  8
0
  6
CONTINUOUS
 66
     1
 40
0.000000
 41
0.000000
  0
VERTEX
  8
0
  6
CONTINUOUS
 10
6.132720
 20
1.549680
  0
VERTEX
  8
0
  6
CONTINUOUS
 10
6.132720
 20
2.292840
  0
VERTEX
  8
0
  6
CONTINUOUS
 10
6.162200
 20
2.291960
  0
VERTEX
  8
0
  6
CONTINUOUS
 10
6.162200
 20
1.548800
  0
VERTEX
  8
0
  6
CONTINUOUS
 10
6.132720
 20
1.549680
  0
SEQEND
  8
0
  0
SOLID
  8
0
 62
    15
 10
6.162200
 20
1.548800
 11
6.162200
 21
2.291960
 12
6.194320
 22
1.540880
 13
6.194320
 23
2.284040
  0
POLYLINE
  8
0
  6
CONTINUOUS
 66
     1
 40
0.000000
 41
0.000000
  0
VERTEX
  8
0
  6
CONTINUOUS
 10
6.162200
 20
1.548800
  0
VERTEX
  8
0
  6
CONTINUOUS
 10
6.162200
 20
2.291960
  0
VERTEX
  8
0
  6
CONTINUOUS
 10
6.194320
 20
2.284040
  0
VERTEX
  8
0
  6
CONTINUOUS
 10
6.194320
 20
1.540880
  0
VERTEX
  8
0
  6
CONTINUOUS
 10
6.162200
 20
1.548800
  0
SEQEND
  8
0
  0
SOLID
  8
0
 62
    15
 10
6.194320
 20
1.540880
 11
6.194320
 21
2.284040
 12
6.228200
 22
1.524160
 13
6.228640
 23
2.267760
  0
POLYLINE
  8
0
  6
CONTINUOUS
 66
     1
 40
0.000000
 41
0.000000
  0
VERTEX
  8
0
  6
CONTINUOUS
 10
6.194320
 20
1.540880
  0
VERTEX
  8
0
  6
CONTINUOUS
 10
6.194320
 20
2.284040
  0
VERTEX
  8
0
  6
CONTINUOUS
 10
6.228640
 20
2.267760
  0
VERTEX
  8
0
  6
CONTINUOUS
 10
6.228200
 20
1.524160
  0
VERTEX
  8
0
  6
CONTINUOUS
 10
6.194320
 20
1.540880
  0
SEQEND
  8
0
  0
SOLID
  8
0
 62
    15
 10
6.228200
 20
1.524160
 11
6.228640
 21
2.267760
 12
6.263840
 22
1.497320
 13
6.264280
 23
2.240920
  0
POLYLINE
  8
0
  6
CONTINUOUS
 66
     1
 40
0.000000
 41
0.000000
  0
VERTEX
  8
0
  6
CONTINUOUS
 10
6.228200
 20
1.524160
  0
VERTEX
  8
0
  6
CONTINUOUS
 10
6.228640
 20
2.267760
  0
VERTEX
  8
0
  6
CONTINUOUS
 10
6.264280
 20
2.240920
  0
VERTEX
  8
0
  6
CONTINUOUS
 10
6.263840
 20
1.497320
  0
VERTEX
  8
0
  6
CONTINUOUS
 10
6.228200
 20
1.524160
  0
SEQEND
  8
0
  0
SOLID
  8
0
 62
    15
 10
6.263840
 20
1.497320
 11
6.264280
 21
2.240920
 12
6.336000
 22
1.440120
 13
6.336000
 23
2.183280
  0
POLYLINE
  8
0
  6
CONTINUOUS
 66
     1
 40
0.000000
 41
0.000000
  0
VERTEX
  8
0
  6
CONTINUOUS
 10
6.263840
 20
1.497320
  0
VERTEX
  8
0
  6
CONTINUOUS
 10
6.264280
 20
2.240920
  0
VERTEX
  8
0
  6
CONTINUOUS
 10
6.336000
 20
2.183280
  0
VERTEX
  8
0
  6
CONTINUOUS
 10
6.336000
 20
1.440120
  0
VERTEX
  8
0
  6
CONTINUOUS
 10
6.263840
 20
1.497320
  0
SEQEND
  8
0
  0
SOLID
  8
0
 62
    15
 10
6.336000
 20
1.440120
 11
6.336000
 21
2.183280
 12
6.408600
 22
1.397880
 13
6.409040
 23
2.141040
  0
POLYLINE
  8
0
  6
CONTINUOUS
 66
     1
 40
0.000000
 41
0.000000
  0
VERTEX
  8
0
  6
CONTINUOUS
 10
6.336000
 20
1.440120
  0
VERTEX
  8
0
  6
CONTINUOUS
 10
6.336000
 20
2.183280
  0
VERTEX
  8
0
  6
CONTINUOUS
 10
6.409040
 20
2.141040
  0
VERTEX
  8
0
  6
CONTINUOUS
 10
6.408600
 20
1.397880
  0
VERTEX
  8
0
  6
CONTINUOUS
 10
6.336000
 20
1.440120
  0
SEQEND
  8
0
  0
SOLID
  8
0
 62
    15
 10
6.408600
 20
1.397880
 11
6.409040
 21
2.141040
 12
6.481640
 22
1.371920
 13
6.482080
 23
2.115520
  0
POLYLINE
  8
0
  6
CONTINUOUS
 66
     1
 40
0.000000
 41
0.000000
  0
VERTEX
  8
0
  6
CONTINUOUS
 10
6.408600
 20
1.397880
  0
VERTEX
  8
0
  6
CONTINUOUS
 10
6.409040
 20
2.141040
  0
VERTEX
  8
0
  6
CONTINUOUS
 10
6.482080
 20
2.115520
  0
VERTEX
  8
0
  6
CONTINUOUS
 10
6.481640
 20
1.371920
  0
VERTEX
  8
0
  6
CONTINUOUS
 10
6.408600
 20
1.397880
  0
SEQEND
  8
0
  0
SOLID
  8
0
 62
    15
 10
6.555120
 20
1.363120
 11
6.555120
 21
2.106720
 12
6.555120
 22
1.037520
 13
6.555120
 23
1.780680
  0
POLYLINE
  8
0
  6
CONTINUOUS
 66
     1
 40
0.000000
 41
0.000000
  0
VERTEX
  8
0
  6
CONTINUOUS
 10
6.555120
 20
1.363120
  0
VERTEX
  8
0
  6
CONTINUOUS
 10
6.555120
 20
2.106720
  0
VERTEX
  8
0
  6
CONTINUOUS
 10
6.555120
 20
1.780680
  0
VERTEX
  8
0
  6
CONTINUOUS
 10
6.555120
 20
1.037520
  0
VERTEX
  8
0
  6
CONTINUOUS
 10
6.555120
 20
1.363120
  0
SEQEND
  8
0
  0
SOLID
  8
0
 62
    15
 10
6.481640
 20
1.371920
 11
6.482080
 21
2.115520
 12
6.555120
 22
1.363120
 13
6.555120
 23
2.106720
  0
POLYLINE
  8
0
  6
CONTINUOUS
 66
     1
 40
0.000000
 41
0.000000
  0
VERTEX
  8
0
  6
CONTINUOUS
 10
6.481640
 20
1.371920
  0
VERTEX
  8
0
  6
CONTINUOUS
 10
6.482080
 20
2.115520
  0
VERTEX
  8
0
  6
CONTINUOUS
 10
6.555120
 20
2.106720
  0
VERTEX
  8
0
  6
CONTINUOUS
 10
6.555120
 20
1.363120
  0
VERTEX
  8
0
  6
CONTINUOUS
 10
6.481640
 20
1.371920
  0
SEQEND
  8
0
  0
SOLID
  8
0
 62
    15
 10
2.453440
 20
2.215400
 11
2.453880
 21
2.959000
 12
2.894320
 22
2.190760
 13
2.894320
 23
2.933920
  0
POLYLINE
  8
0
  6
CONTINUOUS
 66
     1
 40
0.000000
 41
0.000000
  0
VERTEX
  8
0
  6
CONTINUOUS
 10
2.453440
 20
2.215400
  0
VERTEX
  8
0
  6
CONTINUOUS
 10
2.453880
 20
2.959000
  0
VERTEX
  8
0
  6
CONTINUOUS
 10
2.894320
 20
2.933920
  0
VERTEX
  8
0
  6
CONTINUOUS
 10
2.894320
 20
2.190760
  0
VERTEX
  8
0
  6
CONTINUOUS
 10
2.453440
 20
2.215400
  0
SEQEND
  8
0
  0
SOLID
  8
0
 62
    15
 10
2.894320
 20
2.190760
 11
2.894320
 21
2.933920
 12
2.908400
 22
2.181080
 13
2.908400
 23
2.924240
  0
POLYLINE
  8
0
  6
CONTINUOUS
 66
     1
 40
0.000000
 41
0.000000
  0
VERTEX
  8
0
  6
CONTINUOUS
 10
2.894320
 20
2.190760
  0
VERTEX
  8
0
  6
CONTINUOUS
 10
2.894320
 20
2.933920
  0
VERTEX
  8
0
  6
CONTINUOUS
 10
2.908400
 20
2.924240
  0
VERTEX
  8
0
  6
CONTINUOUS
 10
2.908400
 20
2.181080
  0
VERTEX
  8
0
  6
CONTINUOUS
 10
2.894320
 20
2.190760
  0
SEQEND
  8
0
  0
SOLID
  8
0
 62
    15
 10
2.908400
 20
2.181080
 11
2.908400
 21
2.924240
 12
2.912360
 22
2.156880
 13
2.912360
 23
2.900040
  0
POLYLINE
  8
0
  6
CONTINUOUS
 66
     1
 40
0.000000
 41
0.000000
  0
VERTEX
  8
0
  6
CONTINUOUS
 10
2.908400
 20
2.181080
  0
VERTEX
  8
0
  6
CONTINUOUS
 10
2.908400
 20
2.924240
  0
VERTEX
  8
0
  6
CONTINUOUS
 10
2.912360
 20
2.900040
  0
VERTEX
  8
0
  6
CONTINUOUS
 10
2.912360
 20
2.156880
  0
VERTEX
  8
0
  6
CONTINUOUS
 10
2.908400
 20
2.181080
  0
SEQEND
  8
0
  0
SOLID
  8
0
 62
    15
 10
2.912360
 20
2.156880
 11
2.912360
 21
2.900040
 12
2.915000
 22
2.149400
 13
2.915440
 23
2.892560
  0
POLYLINE
  8
0
  6
CONTINUOUS
 66
     1
 40
0.000000
 41
0.000000
  0
VERTEX
  8
0
  6
CONTINUOUS
 10
2.912360
 20
2.156880
  0
VERTEX
  8
0
  6
CONTINUOUS
 10
2.912360
 20
2.900040
  0
VERTEX
  8
0
  6
CONTINUOUS
 10
2.915440
 20
2.892560
  0
VERTEX
  8
0
  6
CONTINUOUS
 10
2.915000
 20
2.149400
  0
VERTEX
  8
0
  6
CONTINUOUS
 10
2.912360
 20
2.156880
  0
SEQEND
  8
0
  0
POLYLINE
  8
0
  6
CONTINUOUS
 66
     1
 40
0.000000
 41
0.000000
  0
VERTEX
  8
0
  6
CONTINUOUS
 10
2.915000
 20
2.149400
  0
VERTEX
  8
0
  6
CONTINUOUS
 10
2.914120
 20
2.083840
  0
VERTEX
  8
0
  6
CONTINUOUS
 10
2.925120
 20
2.083840
  0
VERTEX
  8
0
  6
CONTINUOUS
 10
2.924680
 20
2.083840
  0
VERTEX
  8
0
  6
CONTINUOUS
 10
2.953280
 20
2.112880
  0
VERTEX
  8
0
  6
CONTINUOUS
 10
2.994200
 20
2.134000
  0
VERTEX
  8
0
  6
CONTINUOUS
 10
3.045240
 20
2.146760
  0
VERTEX
  8
0
  6
CONTINUOUS
 10
3.102880
 20
2.149400
  0
VERTEX
  8
0
  6
CONTINUOUS
 10
3.164920
 20
2.141480
  0
VERTEX
  8
0
  6
CONTINUOUS
 10
3.228720
 20
2.120800
  0
VERTEX
  8
0
  6
CONTINUOUS
 10
3.291200
 20
2.087360
  0
VERTEX
  8
0
  6
CONTINUOUS
 10
3.349720
 20
2.039400
  0
VERTEX
  8
0
  6
CONTINUOUS
 10
3.450480
 20
1.932920
  0
VERTEX
  8
0
  6
CONTINUOUS
 10
3.498440
 20
1.885400
  0
VERTEX
  8
0
  6
CONTINUOUS
 10
3.548600
 20
1.843160
  0
VERTEX
  8
0
  6
CONTINUOUS
 10
3.604040
 20
1.808400
  0
VERTEX
  8
0
  6
CONTINUOUS
 10
3.668280
 20
1.781560
  0
VERTEX
  8
0
  6
CONTINUOUS
 10
3.743960
 20
1.764840
  0
VERTEX
  8
0
  6
CONTINUOUS
 10
3.835040
 20
1.758680
  0
VERTEX
  8
0
  6
CONTINUOUS
 10
3.851320
 20
1.791680
  0
VERTEX
  8
0
  6
CONTINUOUS
 10
3.878600
 20
1.817640
  0
VERTEX
  8
0
  6
CONTINUOUS
 10
3.913800
 20
1.834800
  0
VERTEX
  8
0
  6
CONTINUOUS
 10
3.953400
 20
1.840080
  0
VERTEX
  8
0
  6
CONTINUOUS
 10
3.993880
 20
1.831720
  0
VERTEX
  8
0
  6
CONTINUOUS
 10
4.032600
 20
1.807960
  0
VERTEX
  8
0
  6
CONTINUOUS
 10
4.065600
 20
1.766160
  0
VERTEX
  8
0
  6
CONTINUOUS
 10
4.078800
 20
1.737560
  0
VERTEX
  8
0
  6
CONTINUOUS
 10
4.089360
 20
1.703680
  0
VERTEX
  8
0
  6
CONTINUOUS
 10
4.194520
 20
1.703680
  0
VERTEX
  8
0
  6
CONTINUOUS
 10
4.210360
 20
1.595000
  0
VERTEX
  8
0
  6
CONTINUOUS
 10
5.980480
 20
1.595000
  0
VERTEX
  8
0
  6
CONTINUOUS
 10
6.003800
 20
1.587960
  0
VERTEX
  8
0
  6
CONTINUOUS
 10
6.020520
 20
1.570360
  0
VERTEX
  8
0
  6
CONTINUOUS
 10
6.030200
 20
1.546160
  0
VERTEX
  8
0
  6
CONTINUOUS
 10
6.033280
 20
1.521080
  0
VERTEX
  8
0
  6
CONTINUOUS
 10
6.054400
 20
1.521080
  0
VERTEX
  8
0
  6
CONTINUOUS
 10
6.058800
 20
1.519320
  0
VERTEX
  8
0
  6
CONTINUOUS
 10
6.068920
 20
1.528560
  0
VERTEX
  8
0
  6
CONTINUOUS
 10
6.085200
 20
1.537800
  0
VERTEX
  8
0
  6
CONTINUOUS
 10
6.106760
 20
1.545720
  0
VERTEX
  8
0
  6
CONTINUOUS
 10
6.132720
 20
1.549680
  0
VERTEX
  8
0
  6
CONTINUOUS
 10
6.162200
 20
1.548800
  0
VERTEX
  8
0
  6
CONTINUOUS
 10
6.194320
 20
1.540880
  0
VERTEX
  8
0
  6
CONTINUOUS
 10
6.228200
 20
1.524160
  0
VERTEX
  8
0
  6
CONTINUOUS
 10
6.336000
 20
1.440120
  0
VERTEX
  8
0
  6
CONTINUOUS
 10
6.408600
 20
1.397880
  0
VERTEX
  8
0
  6
CONTINUOUS
 10
6.481640
 20
1.371920
  0
VERTEX
  8
0
  6
CONTINUOUS
 10
6.555120
 20
1.363120
  0
VERTEX
  8
0
  6
CONTINUOUS
 10
6.555120
 20
1.037520
  0
VERTEX
  8
0
  6
CONTINUOUS
 10
2.453440
 20
1.037520
  0
VERTEX
  8
0
  6
CONTINUOUS
 10
2.453440
 20
2.215400
  0
VERTEX
  8
0
  6
CONTINUOUS
 10
2.894320
 20
2.190760
  0
VERTEX
  8
0
  6
CONTINUOUS
 10
2.908400
 20
2.181080
  0
VERTEX
  8
0
  6
CONTINUOUS
 10
2.912360
 20
2.156880
  0
VERTEX
  8
0
  6
CONTINUOUS
 10
2.915000
 20
2.149400
  0
SEQEND
  8
0
  0
TEXT
  8
0
 10
4.209920
 20
0.822800
 40
0.138124
  1
BA  973
 41
1.000000
  7
SN0
 71
     0
 72
     5
 11
4.799410
 21
0.822800
  0
TEXT
  8
0
 10
3.980240
 20
0.630960
 40
0.138124
  1
1-1/8" x 4-1/8"
 41
1.000000
  7
SN0
 71
     0
 72
     5
 11
5.026089
 21
0.630960
  0
POLYLINE
  8
0
  6
CONTINUOUS
 66
     1
 40
0.014080
 41
0.014080
  0
VERTEX
  8
0
  6
CONTINUOUS
 10
2.933920
 20
4.268000
  0
VERTEX
  8
0
  6
CONTINUOUS
 10
2.933040
 20
4.202880
  0
VERTEX
  8
0
  6
CONTINUOUS
 10
2.943600
 20
4.202880
  0
VERTEX
  8
0
  6
CONTINUOUS
 10
2.955920
 20
4.218280
  0
VERTEX
  8
0
  6
CONTINUOUS
 10
2.981440
 20
4.237640
  0
VERTEX
  8
0
  6
CONTINUOUS
 10
3.001680
 20
4.248200
  0
VERTEX
  8
0
  6
CONTINUOUS
 10
3.037320
 20
4.260520
  0
VERTEX
  8
0
  6
CONTINUOUS
 10
3.077800
 20
4.267120
  0
VERTEX
  8
0
  6
CONTINUOUS
 10
3.106840
 20
4.268440
  0
VERTEX
  8
0
  6
CONTINUOUS
 10
3.137200
 20
4.267120
  0
VERTEX
  8
0
  6
CONTINUOUS
 10
3.183840
 20
4.260080
  0
VERTEX
  8
0
  6
CONTINUOUS
 10
3.231800
 20
4.246000
  0
VERTEX
  8
0
  6
CONTINUOUS
 10
3.263480
 20
4.232360
  0
VERTEX
  8
0
  6
CONTINUOUS
 10
3.294720
 20
4.215640
  0
VERTEX
  8
0
  6
CONTINUOUS
 10
3.340040
 20
4.183960
  0
VERTEX
  8
0
  6
CONTINUOUS
 10
3.368640
 20
4.158000
  0
VERTEX
  8
0
  6
CONTINUOUS
 10
3.493160
 20
4.027320
  0
VERTEX
  8
0
  6
CONTINUOUS
 10
3.541560
 20
3.982440
  0
VERTEX
  8
0
  6
CONTINUOUS
 10
3.567080
 20
3.962200
  0
VERTEX
  8
0
  6
CONTINUOUS
 10
3.608000
 20
3.935360
  0
VERTEX
  8
0
  6
CONTINUOUS
 10
3.653760
 20
3.912920
  0
VERTEX
  8
0
  6
CONTINUOUS
 10
3.687200
 20
3.900600
  0
VERTEX
  8
0
  6
CONTINUOUS
 10
3.723280
 20
3.890920
  0
VERTEX
  8
0
  6
CONTINUOUS
 10
3.762880
 20
3.883880
  0
VERTEX
  8
0
  6
CONTINUOUS
 10
3.806440
 20
3.879040
  0
VERTEX
  8
0
  6
CONTINUOUS
 10
3.853960
 20
3.877720
  0
VERTEX
  8
0
  6
CONTINUOUS
 10
3.860560
 20
3.894880
  0
VERTEX
  8
0
  6
CONTINUOUS
 10
3.869800
 20
3.910720
  0
VERTEX
  8
0
  6
CONTINUOUS
 10
3.889600
 20
3.930960
  0
VERTEX
  8
0
  6
CONTINUOUS
 10
3.914240
 20
3.946360
  0
VERTEX
  8
0
  6
CONTINUOUS
 10
3.941960
 20
3.956040
  0
VERTEX
  8
0
  6
CONTINUOUS
 10
3.961760
 20
3.958680
  0
VERTEX
  8
0
  6
CONTINUOUS
 10
3.982440
 20
3.958240
  0
VERTEX
  8
0
  6
CONTINUOUS
 10
4.002680
 20
3.954280
  0
VERTEX
  8
0
  6
CONTINUOUS
 10
4.022920
 20
3.946360
  0
VERTEX
  8
0
  6
CONTINUOUS
 10
4.042280
 20
3.934480
  0
VERTEX
  8
0
  6
CONTINUOUS
 10
4.060320
 20
3.918200
  0
VERTEX
  8
0
  6
CONTINUOUS
 10
4.084520
 20
3.884760
  0
VERTEX
  8
0
  6
CONTINUOUS
 10
4.097720
 20
3.856600
  0
VERTEX
  8
0
  6
CONTINUOUS
 10
4.108280
 20
3.822720
  0
VERTEX
  8
0
  6
CONTINUOUS
 10
4.213000
 20
3.822720
  0
VERTEX
  8
0
  6
CONTINUOUS
 10
4.228840
 20
3.713600
  0
VERTEX
  8
0
  6
CONTINUOUS
 10
6.006000
 20
3.713160
  0
VERTEX
  8
0
  6
CONTINUOUS
 10
6.017440
 20
3.709640
  0
VERTEX
  8
0
  6
CONTINUOUS
 10
6.031960
 20
3.699080
  0
VERTEX
  8
0
  6
CONTINUOUS
 10
6.039000
 20
3.688960
  0
VERTEX
  8
0
  6
CONTINUOUS
 10
6.049120
 20
3.665200
  0
VERTEX
  8
0
  6
CONTINUOUS
 10
6.052200
 20
3.639680
  0
VERTEX
  8
0
  6
CONTINUOUS
 10
6.073320
 20
3.639680
  0
VERTEX
  8
0
  6
CONTINUOUS
 10
6.077280
 20
3.637920
  0
VERTEX
  8
0
  6
CONTINUOUS
 10
6.087840
 20
3.647160
  0
VERTEX
  8
0
  6
CONTINUOUS
 10
6.104120
 20
3.656840
  0
VERTEX
  8
0
  6
CONTINUOUS
 10
6.125680
 20
3.664320
  0
VERTEX
  8
0
  6
CONTINUOUS
 10
6.138000
 20
3.666960
  0
VERTEX
  8
0
  6
CONTINUOUS
 10
6.165720
 20
3.668720
  0
VERTEX
  8
0
  6
CONTINUOUS
 10
6.180680
 20
3.667400
  0
VERTEX
  8
0
  6
CONTINUOUS
 10
6.213240
 20
3.659480
  0
VERTEX
  8
0
  6
CONTINUOUS
 10
6.229960
 20
3.652440
  0
VERTEX
  8
0
  6
CONTINUOUS
 10
6.255920
 20
3.637480
  0
VERTEX
  8
0
  6
CONTINUOUS
 10
6.282760
 20
3.616360
  0
VERTEX
  8
0
  6
CONTINUOUS
 10
6.336880
 20
3.571920
  0
VERTEX
  8
0
  6
CONTINUOUS
 10
6.372960
 20
3.546840
  0
VERTEX
  8
0
  6
CONTINUOUS
 10
6.409480
 20
3.525720
  0
VERTEX
  8
0
  6
CONTINUOUS
 10
6.446000
 20
3.508560
  0
VERTEX
  8
0
  6
CONTINUOUS
 10
6.482520
 20
3.495800
  0
VERTEX
  8
0
  6
CONTINUOUS
 10
6.519040
 20
3.487000
  0
VERTEX
  8
0
  6
CONTINUOUS
 10
6.555560
 20
3.482600
  0
VERTEX
  8
0
  6
CONTINUOUS
 10
6.574040
 20
3.482160
  0
VERTEX
  8
0
  6
CONTINUOUS
 10
6.574040
 20
3.156120
  0
VERTEX
  8
0
  6
CONTINUOUS
 10
2.472360
 20
3.156120
  0
VERTEX
  8
0
  6
CONTINUOUS
 10
2.472360
 20
4.334440
  0
VERTEX
  8
0
  6
CONTINUOUS
 10
2.918080
 20
4.308480
  0
VERTEX
  8
0
  6
CONTINUOUS
 10
2.924680
 20
4.303640
  0
VERTEX
  8
0
  6
CONTINUOUS
 10
2.929960
 20
4.289120
  0
VERTEX
  8
0
  6
CONTINUOUS
 10
2.931280
 20
4.275480
  0
VERTEX
  8
0
  6
CONTINUOUS
 10
2.933920
 20
4.268000
  0
SEQEND
  8
0
  0
TEXT
  8
0
 10
3.193960
 20
3.506360
 40
0.138124
  1
BA  973
 41
1.000000
  7
SN0
 71
     0
 72
     5
 11
3.783450
 21
3.506360
  0
TEXT
  8
0
 10
2.964720
 20
3.314960
 40
0.138124
  1
1-1/8" x 4-1/8"
 41
1.000000
  7
SN0
 71
     0
 72
     5
 11
4.010569
 21
3.314960
  0
ENDSEC
  0
EOF
