  0
SECTION
  2
HEADER
  9
$ACADVER
  1
AC1006
  9
$EXTMIN
 10
3.102000
 20
0.601040
  9
$EXTMAX
 10
7.812200
 20
2.736800
  9
$LTSCALE
 40
0.044000
  9
$PDMODE
 70
    35
  9
$PDSIZE
 40
0.035200
  0
ENDSEC
  0
SECTION
  2
TABLES
  0
TABLE
  2
LTYPE
 70
     9
  0
LTYPE
  2
CONTINUOUS
 70
    64
  3
Solid line
 72
    65
 73
     0
 40
0.000000
  0
LTYPE
  2
DASHED
 70
    64
  3
__ __ __ __ __ __ __ __ __ __ __ __ __ __ __
 72
    65
 73
     2
 40
0.000330
 49
0.000220
 49
-0.000110
  0
LTYPE
  2
HIDDEN
 70
    64
  3
 _ _ _ _ _ _ _ _ _ _ _ _ _ _ _ _ _ _ _ _ _ _
 72
    65
 73
     2
 40
0.000165
 49
0.000110
 49
-0.000055
  0
LTYPE
  2
CENTER
 70
    64
  3
____ _ ____ _ ____ _ ____ _ ____ _ ____ _ ____
 72
    65
 73
     4
 40
0.000880
 49
0.000550
 49
-0.000110
 49
0.000110
 49
-0.000110
  0
LTYPE
  2
PHANTOM
 70
    64
  3
_____ _ _ _____ _ _ _____ _ _ _____ _ _ ____
 72
    65
 73
     6
 40
0.001100
 49
0.000550
 49
-0.000110
 49
0.000110
 49
-0.000110
 49
0.000110
 49
-0.000110
  0
LTYPE
  2
DOT
 70
    64
  3
...............................................
 72
    65
 73
     2
 40
0.000110
 49
0.000000
 49
-0.000110
  0
LTYPE
  2
DASHDOT
 70
    64
  3
__ . __ . __ . __ . __ . __ . __ . __ . __ . __
 72
    65
 73
     4
 40
0.000440
 49
0.000220
 49
-0.000110
 49
0.000000
 49
-0.000110
  0
LTYPE
  2
BORDER
 70
    64
  3
__ __ . __ __ . __ __ . __ __ . __ __ . __ __
 72
    65
 73
     6
 40
0.000770
 49
0.000220
 49
-0.000110
 49
0.000220
 49
-0.000110
 49
0.000000
 49
-0.000110
  0
LTYPE
  2
DIVIDE
 70
    64
  3
__ . . __ . . __ . . __ . . __ . . __ . . __
 72
    65
 73
     6
 40
0.000550
 49
0.000220
 49
-0.000110
 49
0.000000
 49
-0.000110
 49
0.000000
 49
-0.000110
  0
LTYPE
  2
DOTDOT
 70
    64
  3
 . .  . .  . .  . .  . .  . . 
 72
    65
 73
     5
 40
0.000242
 49
-0.000110
 49
0.000000
 49
-0.000110
 49
0.000000
 49
-0.000110
  0
ENDTAB
  0
TABLE
  2
STYLE
 70
     2
  0
STYLE
 70
     0
  2
SN0
 40
0.000000
 41
0.000440
 50
0.000000
 71
     0
 42
0.000000
  3
ROMAND
  0
STYLE
 70
    68
  2
SV0
 40
0.000000
 41
0.000440
 50
0.000000
 71
     0
 42
0.000000
  3
ROMAND
  0
ENDTAB
  0
TABLE
  2
LAYER
 70
     3
  0
LAYER
  2
FOREGROUND
 70
    64
 62
     7
  6
CONTINUOUS
  0
LAYER
  2
BACKGROUND
 70
    65
 62
    -7
  6
CONTINUOUS
  0
LAYER
  2
0
 70
    64
 62
     7
  6
CONTINUOUS
  0
ENDTAB
  0
ENDSEC
  0
SECTION
  2
ENTITIES
  0
POLYLINE
  8
FOREGROUND
  6
CONTINUOUS
 66
     1
 40
0.000000
 41
0.000000
  0
VERTEX
  8
FOREGROUND
  6
CONTINUOUS
 10
0.000000
 20
3.337840
  0
VERTEX
  8
FOREGROUND
  6
CONTINUOUS
 10
8.499920
 20
3.337840
  0
VERTEX
  8
FOREGROUND
  6
CONTINUOUS
 10
8.499920
 20
-7.662160
  0
VERTEX
  8
FOREGROUND
  6
CONTINUOUS
 10
0.000000
 20
-7.662160
  0
VERTEX
  8
FOREGROUND
  6
CONTINUOUS
 10
0.000000
 20
3.337840
  0
SEQEND
  8
0
  0
POLYLINE
  8
FOREGROUND
  6
CONTINUOUS
 66
     1
 40
0.000000
 41
0.000000
  0
VERTEX
  8
FOREGROUND
  6
CONTINUOUS
 10
0.000000
 20
3.337840
  0
VERTEX
  8
FOREGROUND
  6
CONTINUOUS
 10
8.499920
 20
3.337840
  0
VERTEX
  8
FOREGROUND
  6
CONTINUOUS
 10
8.499920
 20
-7.662160
  0
VERTEX
  8
FOREGROUND
  6
CONTINUOUS
 10
0.000000
 20
-7.662160
  0
VERTEX
  8
FOREGROUND
  6
CONTINUOUS
 10
0.000000
 20
3.337840
  0
SEQEND
  8
0
  0
POLYLINE
  8
0
  6
CONTINUOUS
 66
     1
 40
0.014080
 41
0.014080
  0
VERTEX
  8
0
  6
CONTINUOUS
 10
6.314880
 20
2.588080
  0
VERTEX
  8
0
  6
CONTINUOUS
 10
6.085200
 20
2.588080
  0
VERTEX
  8
0
  6
CONTINUOUS
 10
6.085200
 20
1.378960
  0
VERTEX
  8
0
  6
CONTINUOUS
 10
7.803840
 20
1.378960
  0
VERTEX
  8
0
  6
CONTINUOUS
 10
7.803840
 20
1.383800
  0
VERTEX
  8
0
  6
CONTINUOUS
 10
7.803840
 20
1.382480
  0
VERTEX
  8
0
  6
CONTINUOUS
 10
7.803840
 20
1.501280
  0
VERTEX
  8
0
  6
CONTINUOUS
 10
7.797680
 20
1.525920
  0
VERTEX
  8
0
  6
CONTINUOUS
 10
7.788440
 20
1.543080
  0
VERTEX
  8
0
  6
CONTINUOUS
 10
7.776120
 20
1.554520
  0
VERTEX
  8
0
  6
CONTINUOUS
 10
7.760720
 20
1.561560
  0
VERTEX
  8
0
  6
CONTINUOUS
 10
7.685040
 20
1.575200
  0
VERTEX
  8
0
  6
CONTINUOUS
 10
7.657760
 20
1.582240
  0
VERTEX
  8
0
  6
CONTINUOUS
 10
7.609800
 20
1.602480
  0
VERTEX
  8
0
  6
CONTINUOUS
 10
7.556120
 20
1.634160
  0
VERTEX
  8
0
  6
CONTINUOUS
 10
7.518280
 20
1.661440
  0
VERTEX
  8
0
  6
CONTINUOUS
 10
7.460200
 20
1.712480
  0
VERTEX
  8
0
  6
CONTINUOUS
 10
7.422360
 20
1.752960
  0
VERTEX
  8
0
  6
CONTINUOUS
 10
7.367800
 20
1.820720
  0
VERTEX
  8
0
  6
CONTINUOUS
 10
7.340080
 20
1.847120
  0
VERTEX
  8
0
  6
CONTINUOUS
 10
7.311480
 20
1.866040
  0
VERTEX
  8
0
  6
CONTINUOUS
 10
7.292120
 20
1.875280
  0
VERTEX
  8
0
  6
CONTINUOUS
 10
7.273640
 20
1.881440
  0
VERTEX
  8
0
  6
CONTINUOUS
 10
7.254720
 20
1.885840
  0
VERTEX
  8
0
  6
CONTINUOUS
 10
7.219520
 20
1.888040
  0
VERTEX
  8
0
  6
CONTINUOUS
 10
7.187400
 20
1.884960
  0
VERTEX
  8
0
  6
CONTINUOUS
 10
7.147800
 20
1.874400
  0
VERTEX
  8
0
  6
CONTINUOUS
 10
7.129760
 20
1.866920
  0
VERTEX
  8
0
  6
CONTINUOUS
 10
7.119200
 20
1.866920
  0
VERTEX
  8
0
  6
CONTINUOUS
 10
7.117880
 20
1.995840
  0
VERTEX
  8
0
  6
CONTINUOUS
 10
7.114360
 20
2.014760
  0
VERTEX
  8
0
  6
CONTINUOUS
 10
7.107760
 20
2.023120
  0
VERTEX
  8
0
  6
CONTINUOUS
 10
7.102920
 20
2.026200
  0
VERTEX
  8
0
  6
CONTINUOUS
 10
7.088400
 20
2.028400
  0
VERTEX
  8
0
  6
CONTINUOUS
 10
6.968280
 20
2.028400
  0
VERTEX
  8
0
  6
CONTINUOUS
 10
6.968280
 20
2.077240
  0
VERTEX
  8
0
  6
CONTINUOUS
 10
6.964320
 20
2.094400
  0
VERTEX
  8
0
  6
CONTINUOUS
 10
6.956840
 20
2.106720
  0
VERTEX
  8
0
  6
CONTINUOUS
 10
6.945400
 20
2.114640
  0
VERTEX
  8
0
  6
CONTINUOUS
 10
6.930440
 20
2.119920
  0
VERTEX
  8
0
  6
CONTINUOUS
 10
6.891280
 20
2.125200
  0
VERTEX
  8
0
  6
CONTINUOUS
 10
6.842000
 20
2.129160
  0
VERTEX
  8
0
  6
CONTINUOUS
 10
6.787000
 20
2.138400
  0
VERTEX
  8
0
  6
CONTINUOUS
 10
6.754440
 20
2.147200
  0
VERTEX
  8
0
  6
CONTINUOUS
 10
6.712640
 20
2.163480
  0
VERTEX
  8
0
  6
CONTINUOUS
 10
6.677000
 20
2.183280
  0
VERTEX
  8
0
  6
CONTINUOUS
 10
6.647080
 20
2.205280
  0
VERTEX
  8
0
  6
CONTINUOUS
 10
6.614520
 20
2.236960
  0
VERTEX
  8
0
  6
CONTINUOUS
 10
6.587680
 20
2.269520
  0
VERTEX
  8
0
  6
CONTINUOUS
 10
6.544560
 20
2.328480
  0
VERTEX
  8
0
  6
CONTINUOUS
 10
6.507600
 20
2.374240
  0
VERTEX
  8
0
  6
CONTINUOUS
 10
6.477240
 20
2.415160
  0
VERTEX
  8
0
  6
CONTINUOUS
 10
6.458320
 20
2.431880
  0
VERTEX
  8
0
  6
CONTINUOUS
 10
6.446880
 20
2.439360
  0
VERTEX
  8
0
  6
CONTINUOUS
 10
6.417840
 20
2.451240
  0
VERTEX
  8
0
  6
CONTINUOUS
 10
6.378240
 20
2.459160
  0
VERTEX
  8
0
  6
CONTINUOUS
 10
6.340840
 20
2.461800
  0
VERTEX
  8
0
  6
CONTINUOUS
 10
6.326320
 20
2.462240
  0
VERTEX
  8
0
  6
CONTINUOUS
 10
6.323240
 20
2.588080
  0
VERTEX
  8
0
  6
CONTINUOUS
 10
6.314880
 20
2.588080
  0
SEQEND
  8
0
  0
SOLID
  8
0
 62
    15
 10
3.743080
 20
1.709840
 11
4.388120
 21
1.332760
 12
3.719760
 22
1.703240
 13
4.364360
 23
1.326160
  0
POLYLINE
  8
0
  6
CONTINUOUS
 66
     1
 40
0.000000
 41
0.000000
  0
VERTEX
  8
0
  6
CONTINUOUS
 10
3.743080
 20
1.709840
  0
VERTEX
  8
0
  6
CONTINUOUS
 10
4.388120
 20
1.332760
  0
VERTEX
  8
0
  6
CONTINUOUS
 10
4.364360
 20
1.326160
  0
VERTEX
  8
0
  6
CONTINUOUS
 10
3.719760
 20
1.703240
  0
VERTEX
  8
0
  6
CONTINUOUS
 10
3.743080
 20
1.709840
  0
SEQEND
  8
0
  0
SOLID
  8
0
 62
    15
 10
4.186160
 20
2.494800
 11
4.830760
 21
2.117720
 12
4.183080
 22
2.442880
 13
4.827680
 23
2.065800
  0
POLYLINE
  8
0
  6
CONTINUOUS
 66
     1
 40
0.000000
 41
0.000000
  0
VERTEX
  8
0
  6
CONTINUOUS
 10
4.186160
 20
2.494800
  0
VERTEX
  8
0
  6
CONTINUOUS
 10
4.830760
 20
2.117720
  0
VERTEX
  8
0
  6
CONTINUOUS
 10
4.827680
 20
2.065800
  0
VERTEX
  8
0
  6
CONTINUOUS
 10
4.183080
 20
2.442880
  0
VERTEX
  8
0
  6
CONTINUOUS
 10
4.186160
 20
2.494800
  0
SEQEND
  8
0
  0
SOLID
  8
0
 62
    15
 10
4.183080
 20
2.442880
 11
4.827680
 21
2.065800
 12
4.175160
 22
2.403280
 13
4.819760
 23
2.026200
  0
POLYLINE
  8
0
  6
CONTINUOUS
 66
     1
 40
0.000000
 41
0.000000
  0
VERTEX
  8
0
  6
CONTINUOUS
 10
4.183080
 20
2.442880
  0
VERTEX
  8
0
  6
CONTINUOUS
 10
4.827680
 20
2.065800
  0
VERTEX
  8
0
  6
CONTINUOUS
 10
4.819760
 20
2.026200
  0
VERTEX
  8
0
  6
CONTINUOUS
 10
4.175160
 20
2.403280
  0
VERTEX
  8
0
  6
CONTINUOUS
 10
4.183080
 20
2.442880
  0
SEQEND
  8
0
  0
SOLID
  8
0
 62
    15
 10
4.175160
 20
2.403280
 11
4.819760
 21
2.026200
 12
4.163280
 22
2.374240
 13
4.807880
 23
1.997160
  0
POLYLINE
  8
0
  6
CONTINUOUS
 66
     1
 40
0.000000
 41
0.000000
  0
VERTEX
  8
0
  6
CONTINUOUS
 10
4.175160
 20
2.403280
  0
VERTEX
  8
0
  6
CONTINUOUS
 10
4.819760
 20
2.026200
  0
VERTEX
  8
0
  6
CONTINUOUS
 10
4.807880
 20
1.997160
  0
VERTEX
  8
0
  6
CONTINUOUS
 10
4.163280
 20
2.374240
  0
VERTEX
  8
0
  6
CONTINUOUS
 10
4.175160
 20
2.403280
  0
SEQEND
  8
0
  0
SOLID
  8
0
 62
    15
 10
4.163280
 20
2.374240
 11
4.807880
 21
1.997160
 12
4.147880
 22
2.352680
 13
4.792480
 23
1.975600
  0
POLYLINE
  8
0
  6
CONTINUOUS
 66
     1
 40
0.000000
 41
0.000000
  0
VERTEX
  8
0
  6
CONTINUOUS
 10
4.163280
 20
2.374240
  0
VERTEX
  8
0
  6
CONTINUOUS
 10
4.807880
 20
1.997160
  0
VERTEX
  8
0
  6
CONTINUOUS
 10
4.792480
 20
1.975600
  0
VERTEX
  8
0
  6
CONTINUOUS
 10
4.147880
 20
2.352680
  0
VERTEX
  8
0
  6
CONTINUOUS
 10
4.163280
 20
2.374240
  0
SEQEND
  8
0
  0
SOLID
  8
0
 62
    15
 10
4.147880
 20
2.352680
 11
4.792480
 21
1.975600
 12
4.109160
 22
2.321440
 13
4.753760
 23
1.944360
  0
POLYLINE
  8
0
  6
CONTINUOUS
 66
     1
 40
0.000000
 41
0.000000
  0
VERTEX
  8
0
  6
CONTINUOUS
 10
4.147880
 20
2.352680
  0
VERTEX
  8
0
  6
CONTINUOUS
 10
4.792480
 20
1.975600
  0
VERTEX
  8
0
  6
CONTINUOUS
 10
4.753760
 20
1.944360
  0
VERTEX
  8
0
  6
CONTINUOUS
 10
4.109160
 20
2.321440
  0
VERTEX
  8
0
  6
CONTINUOUS
 10
4.147880
 20
2.352680
  0
SEQEND
  8
0
  0
SOLID
  8
0
 62
    15
 10
4.109160
 20
2.321440
 11
4.753760
 21
1.944360
 12
4.098160
 22
2.313960
 13
4.743200
 23
1.936880
  0
POLYLINE
  8
0
  6
CONTINUOUS
 66
     1
 40
0.000000
 41
0.000000
  0
VERTEX
  8
0
  6
CONTINUOUS
 10
4.109160
 20
2.321440
  0
VERTEX
  8
0
  6
CONTINUOUS
 10
4.753760
 20
1.944360
  0
VERTEX
  8
0
  6
CONTINUOUS
 10
4.743200
 20
1.936880
  0
VERTEX
  8
0
  6
CONTINUOUS
 10
4.098160
 20
2.313960
  0
VERTEX
  8
0
  6
CONTINUOUS
 10
4.109160
 20
2.321440
  0
SEQEND
  8
0
  0
SOLID
  8
0
 62
    15
 10
4.098160
 20
2.313960
 11
4.743200
 21
1.936880
 12
4.087160
 22
2.306040
 13
4.732200
 23
1.928960
  0
POLYLINE
  8
0
  6
CONTINUOUS
 66
     1
 40
0.000000
 41
0.000000
  0
VERTEX
  8
0
  6
CONTINUOUS
 10
4.098160
 20
2.313960
  0
VERTEX
  8
0
  6
CONTINUOUS
 10
4.743200
 20
1.936880
  0
VERTEX
  8
0
  6
CONTINUOUS
 10
4.732200
 20
1.928960
  0
VERTEX
  8
0
  6
CONTINUOUS
 10
4.087160
 20
2.306040
  0
VERTEX
  8
0
  6
CONTINUOUS
 10
4.098160
 20
2.313960
  0
SEQEND
  8
0
  0
SOLID
  8
0
 62
    15
 10
4.087160
 20
2.306040
 11
4.732200
 21
1.928960
 12
4.064720
 22
2.287560
 13
4.709320
 23
1.910480
  0
POLYLINE
  8
0
  6
CONTINUOUS
 66
     1
 40
0.000000
 41
0.000000
  0
VERTEX
  8
0
  6
CONTINUOUS
 10
4.087160
 20
2.306040
  0
VERTEX
  8
0
  6
CONTINUOUS
 10
4.732200
 20
1.928960
  0
VERTEX
  8
0
  6
CONTINUOUS
 10
4.709320
 20
1.910480
  0
VERTEX
  8
0
  6
CONTINUOUS
 10
4.064720
 20
2.287560
  0
VERTEX
  8
0
  6
CONTINUOUS
 10
4.087160
 20
2.306040
  0
SEQEND
  8
0
  0
SOLID
  8
0
 62
    15
 10
4.064720
 20
2.287560
 11
4.709320
 21
1.910480
 12
4.039200
 22
2.266880
 13
4.683800
 23
1.889360
  0
POLYLINE
  8
0
  6
CONTINUOUS
 66
     1
 40
0.000000
 41
0.000000
  0
VERTEX
  8
0
  6
CONTINUOUS
 10
4.064720
 20
2.287560
  0
VERTEX
  8
0
  6
CONTINUOUS
 10
4.709320
 20
1.910480
  0
VERTEX
  8
0
  6
CONTINUOUS
 10
4.683800
 20
1.889360
  0
VERTEX
  8
0
  6
CONTINUOUS
 10
4.039200
 20
2.266880
  0
VERTEX
  8
0
  6
CONTINUOUS
 10
4.064720
 20
2.287560
  0
SEQEND
  8
0
  0
SOLID
  8
0
 62
    15
 10
4.039200
 20
2.266880
 11
4.683800
 21
1.889360
 12
4.024680
 22
2.256320
 13
4.669280
 23
1.879240
  0
POLYLINE
  8
0
  6
CONTINUOUS
 66
     1
 40
0.000000
 41
0.000000
  0
VERTEX
  8
0
  6
CONTINUOUS
 10
4.039200
 20
2.266880
  0
VERTEX
  8
0
  6
CONTINUOUS
 10
4.683800
 20
1.889360
  0
VERTEX
  8
0
  6
CONTINUOUS
 10
4.669280
 20
1.879240
  0
VERTEX
  8
0
  6
CONTINUOUS
 10
4.024680
 20
2.256320
  0
VERTEX
  8
0
  6
CONTINUOUS
 10
4.039200
 20
2.266880
  0
SEQEND
  8
0
  0
SOLID
  8
0
 62
    15
 10
4.024680
 20
2.256320
 11
4.669280
 21
1.879240
 12
4.009280
 22
2.245320
 13
4.653880
 23
1.868240
  0
POLYLINE
  8
0
  6
CONTINUOUS
 66
     1
 40
0.000000
 41
0.000000
  0
VERTEX
  8
0
  6
CONTINUOUS
 10
4.024680
 20
2.256320
  0
VERTEX
  8
0
  6
CONTINUOUS
 10
4.669280
 20
1.879240
  0
VERTEX
  8
0
  6
CONTINUOUS
 10
4.653880
 20
1.868240
  0
VERTEX
  8
0
  6
CONTINUOUS
 10
4.009280
 20
2.245320
  0
VERTEX
  8
0
  6
CONTINUOUS
 10
4.024680
 20
2.256320
  0
SEQEND
  8
0
  0
SOLID
  8
0
 62
    15
 10
4.009280
 20
2.245320
 11
4.653880
 21
1.868240
 12
3.945040
 22
2.191640
 13
4.589640
 23
1.814560
  0
POLYLINE
  8
0
  6
CONTINUOUS
 66
     1
 40
0.000000
 41
0.000000
  0
VERTEX
  8
0
  6
CONTINUOUS
 10
4.009280
 20
2.245320
  0
VERTEX
  8
0
  6
CONTINUOUS
 10
4.653880
 20
1.868240
  0
VERTEX
  8
0
  6
CONTINUOUS
 10
4.589640
 20
1.814560
  0
VERTEX
  8
0
  6
CONTINUOUS
 10
3.945040
 20
2.191640
  0
VERTEX
  8
0
  6
CONTINUOUS
 10
4.009280
 20
2.245320
  0
SEQEND
  8
0
  0
SOLID
  8
0
 62
    15
 10
3.945040
 20
2.191640
 11
4.589640
 21
1.814560
 12
3.914240
 22
2.155120
 13
4.558840
 23
1.777600
  0
POLYLINE
  8
0
  6
CONTINUOUS
 66
     1
 40
0.000000
 41
0.000000
  0
VERTEX
  8
0
  6
CONTINUOUS
 10
3.945040
 20
2.191640
  0
VERTEX
  8
0
  6
CONTINUOUS
 10
4.589640
 20
1.814560
  0
VERTEX
  8
0
  6
CONTINUOUS
 10
4.558840
 20
1.777600
  0
VERTEX
  8
0
  6
CONTINUOUS
 10
3.914240
 20
2.155120
  0
VERTEX
  8
0
  6
CONTINUOUS
 10
3.945040
 20
2.191640
  0
SEQEND
  8
0
  0
SOLID
  8
0
 62
    15
 10
3.914240
 20
2.155120
 11
4.558840
 21
1.777600
 12
3.887400
 22
2.108920
 13
4.532000
 23
1.731840
  0
POLYLINE
  8
0
  6
CONTINUOUS
 66
     1
 40
0.000000
 41
0.000000
  0
VERTEX
  8
0
  6
CONTINUOUS
 10
3.914240
 20
2.155120
  0
VERTEX
  8
0
  6
CONTINUOUS
 10
4.558840
 20
1.777600
  0
VERTEX
  8
0
  6
CONTINUOUS
 10
4.532000
 20
1.731840
  0
VERTEX
  8
0
  6
CONTINUOUS
 10
3.887400
 20
2.108920
  0
VERTEX
  8
0
  6
CONTINUOUS
 10
3.914240
 20
2.155120
  0
SEQEND
  8
0
  0
SOLID
  8
0
 62
    15
 10
3.887400
 20
2.108920
 11
4.532000
 21
1.731840
 12
3.866280
 22
2.050840
 13
4.510880
 23
1.673760
  0
POLYLINE
  8
0
  6
CONTINUOUS
 66
     1
 40
0.000000
 41
0.000000
  0
VERTEX
  8
0
  6
CONTINUOUS
 10
3.887400
 20
2.108920
  0
VERTEX
  8
0
  6
CONTINUOUS
 10
4.532000
 20
1.731840
  0
VERTEX
  8
0
  6
CONTINUOUS
 10
4.510880
 20
1.673760
  0
VERTEX
  8
0
  6
CONTINUOUS
 10
3.866280
 20
2.050840
  0
VERTEX
  8
0
  6
CONTINUOUS
 10
3.887400
 20
2.108920
  0
SEQEND
  8
0
  0
SOLID
  8
0
 62
    15
 10
3.866280
 20
2.050840
 11
4.510880
 21
1.673760
 12
3.853080
 22
1.979560
 13
4.497680
 23
1.602040
  0
POLYLINE
  8
0
  6
CONTINUOUS
 66
     1
 40
0.000000
 41
0.000000
  0
VERTEX
  8
0
  6
CONTINUOUS
 10
3.866280
 20
2.050840
  0
VERTEX
  8
0
  6
CONTINUOUS
 10
4.510880
 20
1.673760
  0
VERTEX
  8
0
  6
CONTINUOUS
 10
4.497680
 20
1.602040
  0
VERTEX
  8
0
  6
CONTINUOUS
 10
3.853080
 20
1.979560
  0
VERTEX
  8
0
  6
CONTINUOUS
 10
3.866280
 20
2.050840
  0
SEQEND
  8
0
  0
SOLID
  8
0
 62
    15
 10
3.853080
 20
1.979560
 11
4.497680
 21
1.602040
 12
3.850440
 22
1.953600
 13
4.495480
 23
1.576520
  0
POLYLINE
  8
0
  6
CONTINUOUS
 66
     1
 40
0.000000
 41
0.000000
  0
VERTEX
  8
0
  6
CONTINUOUS
 10
3.853080
 20
1.979560
  0
VERTEX
  8
0
  6
CONTINUOUS
 10
4.497680
 20
1.602040
  0
VERTEX
  8
0
  6
CONTINUOUS
 10
4.495480
 20
1.576520
  0
VERTEX
  8
0
  6
CONTINUOUS
 10
3.850440
 20
1.953600
  0
VERTEX
  8
0
  6
CONTINUOUS
 10
3.853080
 20
1.979560
  0
SEQEND
  8
0
  0
SOLID
  8
0
 62
    15
 10
3.850440
 20
1.953600
 11
4.495480
 21
1.576520
 12
3.848680
 22
1.929840
 13
4.493720
 23
1.552760
  0
POLYLINE
  8
0
  6
CONTINUOUS
 66
     1
 40
0.000000
 41
0.000000
  0
VERTEX
  8
0
  6
CONTINUOUS
 10
3.850440
 20
1.953600
  0
VERTEX
  8
0
  6
CONTINUOUS
 10
4.495480
 20
1.576520
  0
VERTEX
  8
0
  6
CONTINUOUS
 10
4.493720
 20
1.552760
  0
VERTEX
  8
0
  6
CONTINUOUS
 10
3.848680
 20
1.929840
  0
VERTEX
  8
0
  6
CONTINUOUS
 10
3.850440
 20
1.953600
  0
SEQEND
  8
0
  0
SOLID
  8
0
 62
    15
 10
3.848680
 20
1.929840
 11
4.493720
 21
1.552760
 12
3.843840
 22
1.891120
 13
4.488880
 23
1.514040
  0
POLYLINE
  8
0
  6
CONTINUOUS
 66
     1
 40
0.000000
 41
0.000000
  0
VERTEX
  8
0
  6
CONTINUOUS
 10
3.848680
 20
1.929840
  0
VERTEX
  8
0
  6
CONTINUOUS
 10
4.493720
 20
1.552760
  0
VERTEX
  8
0
  6
CONTINUOUS
 10
4.488880
 20
1.514040
  0
VERTEX
  8
0
  6
CONTINUOUS
 10
3.843840
 20
1.891120
  0
VERTEX
  8
0
  6
CONTINUOUS
 10
3.848680
 20
1.929840
  0
SEQEND
  8
0
  0
SOLID
  8
0
 62
    15
 10
3.843840
 20
1.891120
 11
4.488880
 21
1.514040
 12
3.830640
 22
1.864720
 13
4.475240
 23
1.487640
  0
POLYLINE
  8
0
  6
CONTINUOUS
 66
     1
 40
0.000000
 41
0.000000
  0
VERTEX
  8
0
  6
CONTINUOUS
 10
3.843840
 20
1.891120
  0
VERTEX
  8
0
  6
CONTINUOUS
 10
4.488880
 20
1.514040
  0
VERTEX
  8
0
  6
CONTINUOUS
 10
4.475240
 20
1.487640
  0
VERTEX
  8
0
  6
CONTINUOUS
 10
3.830640
 20
1.864720
  0
VERTEX
  8
0
  6
CONTINUOUS
 10
3.843840
 20
1.891120
  0
SEQEND
  8
0
  0
SOLID
  8
0
 62
    15
 10
3.830640
 20
1.864720
 11
4.475240
 21
1.487640
 12
3.818320
 22
1.856800
 13
4.462920
 23
1.479720
  0
POLYLINE
  8
0
  6
CONTINUOUS
 66
     1
 40
0.000000
 41
0.000000
  0
VERTEX
  8
0
  6
CONTINUOUS
 10
3.830640
 20
1.864720
  0
VERTEX
  8
0
  6
CONTINUOUS
 10
4.475240
 20
1.487640
  0
VERTEX
  8
0
  6
CONTINUOUS
 10
4.462920
 20
1.479720
  0
VERTEX
  8
0
  6
CONTINUOUS
 10
3.818320
 20
1.856800
  0
VERTEX
  8
0
  6
CONTINUOUS
 10
3.830640
 20
1.864720
  0
SEQEND
  8
0
  0
SOLID
  8
0
 62
    15
 10
3.818320
 20
1.856800
 11
4.462920
 21
1.479720
 12
3.801160
 22
1.852840
 13
4.445760
 23
1.475760
  0
POLYLINE
  8
0
  6
CONTINUOUS
 66
     1
 40
0.000000
 41
0.000000
  0
VERTEX
  8
0
  6
CONTINUOUS
 10
3.818320
 20
1.856800
  0
VERTEX
  8
0
  6
CONTINUOUS
 10
4.462920
 20
1.479720
  0
VERTEX
  8
0
  6
CONTINUOUS
 10
4.445760
 20
1.475760
  0
VERTEX
  8
0
  6
CONTINUOUS
 10
3.801160
 20
1.852840
  0
VERTEX
  8
0
  6
CONTINUOUS
 10
3.818320
 20
1.856800
  0
SEQEND
  8
0
  0
SOLID
  8
0
 62
    15
 10
3.801160
 20
1.852840
 11
4.445760
 21
1.475760
 12
3.752320
 22
1.852840
 13
4.396920
 23
1.475760
  0
POLYLINE
  8
0
  6
CONTINUOUS
 66
     1
 40
0.000000
 41
0.000000
  0
VERTEX
  8
0
  6
CONTINUOUS
 10
3.801160
 20
1.852840
  0
VERTEX
  8
0
  6
CONTINUOUS
 10
4.445760
 20
1.475760
  0
VERTEX
  8
0
  6
CONTINUOUS
 10
4.396920
 20
1.475760
  0
VERTEX
  8
0
  6
CONTINUOUS
 10
3.752320
 20
1.852840
  0
VERTEX
  8
0
  6
CONTINUOUS
 10
3.801160
 20
1.852840
  0
SEQEND
  8
0
  0
SOLID
  8
0
 62
    15
 10
3.752320
 20
1.852840
 11
4.396920
 21
1.475760
 12
3.752320
 22
1.733160
 13
4.396920
 23
1.355640
  0
POLYLINE
  8
0
  6
CONTINUOUS
 66
     1
 40
0.000000
 41
0.000000
  0
VERTEX
  8
0
  6
CONTINUOUS
 10
3.752320
 20
1.852840
  0
VERTEX
  8
0
  6
CONTINUOUS
 10
4.396920
 20
1.475760
  0
VERTEX
  8
0
  6
CONTINUOUS
 10
4.396920
 20
1.355640
  0
VERTEX
  8
0
  6
CONTINUOUS
 10
3.752320
 20
1.733160
  0
VERTEX
  8
0
  6
CONTINUOUS
 10
3.752320
 20
1.852840
  0
SEQEND
  8
0
  0
SOLID
  8
0
 62
    15
 10
3.752320
 20
1.733160
 11
4.396920
 21
1.355640
 12
3.750120
 22
1.718640
 13
4.394720
 23
1.341560
  0
POLYLINE
  8
0
  6
CONTINUOUS
 66
     1
 40
0.000000
 41
0.000000
  0
VERTEX
  8
0
  6
CONTINUOUS
 10
3.752320
 20
1.733160
  0
VERTEX
  8
0
  6
CONTINUOUS
 10
4.396920
 20
1.355640
  0
VERTEX
  8
0
  6
CONTINUOUS
 10
4.394720
 20
1.341560
  0
VERTEX
  8
0
  6
CONTINUOUS
 10
3.750120
 20
1.718640
  0
VERTEX
  8
0
  6
CONTINUOUS
 10
3.752320
 20
1.733160
  0
SEQEND
  8
0
  0
SOLID
  8
0
 62
    15
 10
3.750120
 20
1.718640
 11
4.394720
 21
1.341560
 12
3.743080
 22
1.709840
 13
4.388120
 23
1.332760
  0
POLYLINE
  8
0
  6
CONTINUOUS
 66
     1
 40
0.000000
 41
0.000000
  0
VERTEX
  8
0
  6
CONTINUOUS
 10
3.750120
 20
1.718640
  0
VERTEX
  8
0
  6
CONTINUOUS
 10
4.394720
 20
1.341560
  0
VERTEX
  8
0
  6
CONTINUOUS
 10
4.388120
 20
1.332760
  0
VERTEX
  8
0
  6
CONTINUOUS
 10
3.743080
 20
1.709840
  0
VERTEX
  8
0
  6
CONTINUOUS
 10
3.750120
 20
1.718640
  0
SEQEND
  8
0
  0
SOLID
  8
0
 62
    15
 10
4.312000
 20
2.497880
 11
4.956600
 21
2.120800
 12
4.186160
 22
2.494800
 13
4.830760
 23
2.117720
  0
POLYLINE
  8
0
  6
CONTINUOUS
 66
     1
 40
0.000000
 41
0.000000
  0
VERTEX
  8
0
  6
CONTINUOUS
 10
4.312000
 20
2.497880
  0
VERTEX
  8
0
  6
CONTINUOUS
 10
4.956600
 20
2.120800
  0
VERTEX
  8
0
  6
CONTINUOUS
 10
4.830760
 20
2.117720
  0
VERTEX
  8
0
  6
CONTINUOUS
 10
4.186160
 20
2.494800
  0
VERTEX
  8
0
  6
CONTINUOUS
 10
4.312000
 20
2.497880
  0
SEQEND
  8
0
  0
SOLID
  8
0
 62
    15
 10
3.719760
 20
1.703240
 11
4.364360
 21
1.326160
 12
3.590840
 22
1.701920
 13
4.235440
 23
1.324840
  0
POLYLINE
  8
0
  6
CONTINUOUS
 66
     1
 40
0.000000
 41
0.000000
  0
VERTEX
  8
0
  6
CONTINUOUS
 10
3.719760
 20
1.703240
  0
VERTEX
  8
0
  6
CONTINUOUS
 10
4.364360
 20
1.326160
  0
VERTEX
  8
0
  6
CONTINUOUS
 10
4.235440
 20
1.324840
  0
VERTEX
  8
0
  6
CONTINUOUS
 10
3.590840
 20
1.701920
  0
VERTEX
  8
0
  6
CONTINUOUS
 10
3.719760
 20
1.703240
  0
SEQEND
  8
0
  0
SOLID
  8
0
 62
    15
 10
3.590840
 20
1.701920
 11
4.235440
 21
1.324840
 12
3.590840
 22
1.691360
 13
4.235440
 23
1.314280
  0
POLYLINE
  8
0
  6
CONTINUOUS
 66
     1
 40
0.000000
 41
0.000000
  0
VERTEX
  8
0
  6
CONTINUOUS
 10
3.590840
 20
1.701920
  0
VERTEX
  8
0
  6
CONTINUOUS
 10
4.235440
 20
1.324840
  0
VERTEX
  8
0
  6
CONTINUOUS
 10
4.235440
 20
1.314280
  0
VERTEX
  8
0
  6
CONTINUOUS
 10
3.590840
 20
1.691360
  0
VERTEX
  8
0
  6
CONTINUOUS
 10
3.590840
 20
1.701920
  0
SEQEND
  8
0
  0
SOLID
  8
0
 62
    15
 10
3.590840
 20
1.691360
 11
4.235440
 21
1.314280
 12
3.598320
 22
1.673320
 13
4.242920
 23
1.296240
  0
POLYLINE
  8
0
  6
CONTINUOUS
 66
     1
 40
0.000000
 41
0.000000
  0
VERTEX
  8
0
  6
CONTINUOUS
 10
3.590840
 20
1.691360
  0
VERTEX
  8
0
  6
CONTINUOUS
 10
4.235440
 20
1.314280
  0
VERTEX
  8
0
  6
CONTINUOUS
 10
4.242920
 20
1.296240
  0
VERTEX
  8
0
  6
CONTINUOUS
 10
3.598320
 20
1.673320
  0
VERTEX
  8
0
  6
CONTINUOUS
 10
3.590840
 20
1.691360
  0
SEQEND
  8
0
  0
SOLID
  8
0
 62
    15
 10
3.598320
 20
1.673320
 11
4.242920
 21
1.296240
 12
3.605800
 22
1.648680
 13
4.250400
 23
1.271600
  0
POLYLINE
  8
0
  6
CONTINUOUS
 66
     1
 40
0.000000
 41
0.000000
  0
VERTEX
  8
0
  6
CONTINUOUS
 10
3.598320
 20
1.673320
  0
VERTEX
  8
0
  6
CONTINUOUS
 10
4.242920
 20
1.296240
  0
VERTEX
  8
0
  6
CONTINUOUS
 10
4.250400
 20
1.271600
  0
VERTEX
  8
0
  6
CONTINUOUS
 10
3.605800
 20
1.648680
  0
VERTEX
  8
0
  6
CONTINUOUS
 10
3.598320
 20
1.673320
  0
SEQEND
  8
0
  0
SOLID
  8
0
 62
    15
 10
3.605800
 20
1.648680
 11
4.250400
 21
1.271600
 12
3.611080
 22
1.618320
 13
4.255680
 23
1.241240
  0
POLYLINE
  8
0
  6
CONTINUOUS
 66
     1
 40
0.000000
 41
0.000000
  0
VERTEX
  8
0
  6
CONTINUOUS
 10
3.605800
 20
1.648680
  0
VERTEX
  8
0
  6
CONTINUOUS
 10
4.250400
 20
1.271600
  0
VERTEX
  8
0
  6
CONTINUOUS
 10
4.255680
 20
1.241240
  0
VERTEX
  8
0
  6
CONTINUOUS
 10
3.611080
 20
1.618320
  0
VERTEX
  8
0
  6
CONTINUOUS
 10
3.605800
 20
1.648680
  0
SEQEND
  8
0
  0
SOLID
  8
0
 62
    15
 10
3.611080
 20
1.618320
 11
4.255680
 21
1.241240
 12
3.611960
 22
1.584440
 13
4.256560
 23
1.207360
  0
POLYLINE
  8
0
  6
CONTINUOUS
 66
     1
 40
0.000000
 41
0.000000
  0
VERTEX
  8
0
  6
CONTINUOUS
 10
3.611080
 20
1.618320
  0
VERTEX
  8
0
  6
CONTINUOUS
 10
4.255680
 20
1.241240
  0
VERTEX
  8
0
  6
CONTINUOUS
 10
4.256560
 20
1.207360
  0
VERTEX
  8
0
  6
CONTINUOUS
 10
3.611960
 20
1.584440
  0
VERTEX
  8
0
  6
CONTINUOUS
 10
3.611080
 20
1.618320
  0
SEQEND
  8
0
  0
SOLID
  8
0
 62
    15
 10
3.611960
 20
1.584440
 11
4.256560
 21
1.207360
 12
3.605800
 22
1.547920
 13
4.250400
 23
1.170840
  0
POLYLINE
  8
0
  6
CONTINUOUS
 66
     1
 40
0.000000
 41
0.000000
  0
VERTEX
  8
0
  6
CONTINUOUS
 10
3.611960
 20
1.584440
  0
VERTEX
  8
0
  6
CONTINUOUS
 10
4.256560
 20
1.207360
  0
VERTEX
  8
0
  6
CONTINUOUS
 10
4.250400
 20
1.170840
  0
VERTEX
  8
0
  6
CONTINUOUS
 10
3.605800
 20
1.547920
  0
VERTEX
  8
0
  6
CONTINUOUS
 10
3.611960
 20
1.584440
  0
SEQEND
  8
0
  0
SOLID
  8
0
 62
    15
 10
3.605800
 20
1.547920
 11
4.250400
 21
1.170840
 12
3.590400
 22
1.509640
 13
4.235000
 23
1.132560
  0
POLYLINE
  8
0
  6
CONTINUOUS
 66
     1
 40
0.000000
 41
0.000000
  0
VERTEX
  8
0
  6
CONTINUOUS
 10
3.605800
 20
1.547920
  0
VERTEX
  8
0
  6
CONTINUOUS
 10
4.250400
 20
1.170840
  0
VERTEX
  8
0
  6
CONTINUOUS
 10
4.235000
 20
1.132560
  0
VERTEX
  8
0
  6
CONTINUOUS
 10
3.590400
 20
1.509640
  0
VERTEX
  8
0
  6
CONTINUOUS
 10
3.605800
 20
1.547920
  0
SEQEND
  8
0
  0
SOLID
  8
0
 62
    15
 10
3.590400
 20
1.509640
 11
4.235000
 21
1.132560
 12
3.563560
 22
1.471800
 13
4.208160
 23
1.094720
  0
POLYLINE
  8
0
  6
CONTINUOUS
 66
     1
 40
0.000000
 41
0.000000
  0
VERTEX
  8
0
  6
CONTINUOUS
 10
3.590400
 20
1.509640
  0
VERTEX
  8
0
  6
CONTINUOUS
 10
4.235000
 20
1.132560
  0
VERTEX
  8
0
  6
CONTINUOUS
 10
4.208160
 20
1.094720
  0
VERTEX
  8
0
  6
CONTINUOUS
 10
3.563560
 20
1.471800
  0
VERTEX
  8
0
  6
CONTINUOUS
 10
3.590400
 20
1.509640
  0
SEQEND
  8
0
  0
SOLID
  8
0
 62
    15
 10
3.563560
 20
1.471800
 11
4.208160
 21
1.094720
 12
3.522640
 22
1.435280
 13
4.167680
 23
1.058200
  0
POLYLINE
  8
0
  6
CONTINUOUS
 66
     1
 40
0.000000
 41
0.000000
  0
VERTEX
  8
0
  6
CONTINUOUS
 10
3.563560
 20
1.471800
  0
VERTEX
  8
0
  6
CONTINUOUS
 10
4.208160
 20
1.094720
  0
VERTEX
  8
0
  6
CONTINUOUS
 10
4.167680
 20
1.058200
  0
VERTEX
  8
0
  6
CONTINUOUS
 10
3.522640
 20
1.435280
  0
VERTEX
  8
0
  6
CONTINUOUS
 10
3.563560
 20
1.471800
  0
SEQEND
  8
0
  0
SOLID
  8
0
 62
    15
 10
3.522640
 20
1.435280
 11
4.167680
 21
1.058200
 12
3.436400
 22
1.360920
 13
4.081440
 23
0.983840
  0
POLYLINE
  8
0
  6
CONTINUOUS
 66
     1
 40
0.000000
 41
0.000000
  0
VERTEX
  8
0
  6
CONTINUOUS
 10
3.522640
 20
1.435280
  0
VERTEX
  8
0
  6
CONTINUOUS
 10
4.167680
 20
1.058200
  0
VERTEX
  8
0
  6
CONTINUOUS
 10
4.081440
 20
0.983840
  0
VERTEX
  8
0
  6
CONTINUOUS
 10
3.436400
 20
1.360920
  0
VERTEX
  8
0
  6
CONTINUOUS
 10
3.522640
 20
1.435280
  0
SEQEND
  8
0
  0
SOLID
  8
0
 62
    15
 10
3.436400
 20
1.360920
 11
4.081440
 21
0.983840
 12
3.371280
 22
1.283920
 13
4.015880
 23
0.906840
  0
POLYLINE
  8
0
  6
CONTINUOUS
 66
     1
 40
0.000000
 41
0.000000
  0
VERTEX
  8
0
  6
CONTINUOUS
 10
3.436400
 20
1.360920
  0
VERTEX
  8
0
  6
CONTINUOUS
 10
4.081440
 20
0.983840
  0
VERTEX
  8
0
  6
CONTINUOUS
 10
4.015880
 20
0.906840
  0
VERTEX
  8
0
  6
CONTINUOUS
 10
3.371280
 20
1.283920
  0
VERTEX
  8
0
  6
CONTINUOUS
 10
3.436400
 20
1.360920
  0
SEQEND
  8
0
  0
SOLID
  8
0
 62
    15
 10
3.371280
 20
1.283920
 11
4.015880
 21
0.906840
 12
3.326400
 22
1.211320
 13
3.971440
 23
0.834240
  0
POLYLINE
  8
0
  6
CONTINUOUS
 66
     1
 40
0.000000
 41
0.000000
  0
VERTEX
  8
0
  6
CONTINUOUS
 10
3.371280
 20
1.283920
  0
VERTEX
  8
0
  6
CONTINUOUS
 10
4.015880
 20
0.906840
  0
VERTEX
  8
0
  6
CONTINUOUS
 10
3.971440
 20
0.834240
  0
VERTEX
  8
0
  6
CONTINUOUS
 10
3.326400
 20
1.211320
  0
VERTEX
  8
0
  6
CONTINUOUS
 10
3.371280
 20
1.283920
  0
SEQEND
  8
0
  0
SOLID
  8
0
 62
    15
 10
3.326400
 20
1.211320
 11
3.971440
 21
0.834240
 12
3.311880
 22
1.178760
 13
3.956480
 23
0.801680
  0
POLYLINE
  8
0
  6
CONTINUOUS
 66
     1
 40
0.000000
 41
0.000000
  0
VERTEX
  8
0
  6
CONTINUOUS
 10
3.326400
 20
1.211320
  0
VERTEX
  8
0
  6
CONTINUOUS
 10
3.971440
 20
0.834240
  0
VERTEX
  8
0
  6
CONTINUOUS
 10
3.956480
 20
0.801680
  0
VERTEX
  8
0
  6
CONTINUOUS
 10
3.311880
 20
1.178760
  0
VERTEX
  8
0
  6
CONTINUOUS
 10
3.326400
 20
1.211320
  0
SEQEND
  8
0
  0
SOLID
  8
0
 62
    15
 10
3.311880
 20
1.178760
 11
3.956480
 21
0.801680
 12
3.302200
 22
1.149280
 13
3.946800
 23
0.772200
  0
POLYLINE
  8
0
  6
CONTINUOUS
 66
     1
 40
0.000000
 41
0.000000
  0
VERTEX
  8
0
  6
CONTINUOUS
 10
3.311880
 20
1.178760
  0
VERTEX
  8
0
  6
CONTINUOUS
 10
3.956480
 20
0.801680
  0
VERTEX
  8
0
  6
CONTINUOUS
 10
3.946800
 20
0.772200
  0
VERTEX
  8
0
  6
CONTINUOUS
 10
3.302200
 20
1.149280
  0
VERTEX
  8
0
  6
CONTINUOUS
 10
3.311880
 20
1.178760
  0
SEQEND
  8
0
  0
SOLID
  8
0
 62
    15
 10
3.302200
 20
1.149280
 11
3.946800
 21
0.772200
 12
3.292520
 22
1.100000
 13
3.937560
 23
0.722920
  0
POLYLINE
  8
0
  6
CONTINUOUS
 66
     1
 40
0.000000
 41
0.000000
  0
VERTEX
  8
0
  6
CONTINUOUS
 10
3.302200
 20
1.149280
  0
VERTEX
  8
0
  6
CONTINUOUS
 10
3.946800
 20
0.772200
  0
VERTEX
  8
0
  6
CONTINUOUS
 10
3.937560
 20
0.722920
  0
VERTEX
  8
0
  6
CONTINUOUS
 10
3.292520
 20
1.100000
  0
VERTEX
  8
0
  6
CONTINUOUS
 10
3.302200
 20
1.149280
  0
SEQEND
  8
0
  0
SOLID
  8
0
 62
    15
 10
3.292520
 20
1.100000
 11
3.937560
 21
0.722920
 12
3.291200
 22
1.089000
 13
3.935800
 23
0.711920
  0
POLYLINE
  8
0
  6
CONTINUOUS
 66
     1
 40
0.000000
 41
0.000000
  0
VERTEX
  8
0
  6
CONTINUOUS
 10
3.292520
 20
1.100000
  0
VERTEX
  8
0
  6
CONTINUOUS
 10
3.937560
 20
0.722920
  0
VERTEX
  8
0
  6
CONTINUOUS
 10
3.935800
 20
0.711920
  0
VERTEX
  8
0
  6
CONTINUOUS
 10
3.291200
 20
1.089000
  0
VERTEX
  8
0
  6
CONTINUOUS
 10
3.292520
 20
1.100000
  0
SEQEND
  8
0
  0
SOLID
  8
0
 62
    15
 10
3.291200
 20
1.089000
 11
3.935800
 21
0.711920
 12
3.289440
 22
1.078880
 13
3.934480
 23
0.701800
  0
POLYLINE
  8
0
  6
CONTINUOUS
 66
     1
 40
0.000000
 41
0.000000
  0
VERTEX
  8
0
  6
CONTINUOUS
 10
3.291200
 20
1.089000
  0
VERTEX
  8
0
  6
CONTINUOUS
 10
3.935800
 20
0.711920
  0
VERTEX
  8
0
  6
CONTINUOUS
 10
3.934480
 20
0.701800
  0
VERTEX
  8
0
  6
CONTINUOUS
 10
3.289440
 20
1.078880
  0
VERTEX
  8
0
  6
CONTINUOUS
 10
3.291200
 20
1.089000
  0
SEQEND
  8
0
  0
SOLID
  8
0
 62
    15
 10
3.289440
 20
1.078880
 11
3.934480
 21
0.701800
 12
3.285040
 22
1.060840
 13
3.930080
 23
0.683760
  0
POLYLINE
  8
0
  6
CONTINUOUS
 66
     1
 40
0.000000
 41
0.000000
  0
VERTEX
  8
0
  6
CONTINUOUS
 10
3.289440
 20
1.078880
  0
VERTEX
  8
0
  6
CONTINUOUS
 10
3.934480
 20
0.701800
  0
VERTEX
  8
0
  6
CONTINUOUS
 10
3.930080
 20
0.683760
  0
VERTEX
  8
0
  6
CONTINUOUS
 10
3.285040
 20
1.060840
  0
VERTEX
  8
0
  6
CONTINUOUS
 10
3.289440
 20
1.078880
  0
SEQEND
  8
0
  0
SOLID
  8
0
 62
    15
 10
3.285040
 20
1.060840
 11
3.930080
 21
0.683760
 12
3.267000
 22
1.033120
 13
3.911600
 23
0.655600
  0
POLYLINE
  8
0
  6
CONTINUOUS
 66
     1
 40
0.000000
 41
0.000000
  0
VERTEX
  8
0
  6
CONTINUOUS
 10
3.285040
 20
1.060840
  0
VERTEX
  8
0
  6
CONTINUOUS
 10
3.930080
 20
0.683760
  0
VERTEX
  8
0
  6
CONTINUOUS
 10
3.911600
 20
0.655600
  0
VERTEX
  8
0
  6
CONTINUOUS
 10
3.267000
 20
1.033120
  0
VERTEX
  8
0
  6
CONTINUOUS
 10
3.285040
 20
1.060840
  0
SEQEND
  8
0
  0
SOLID
  8
0
 62
    15
 10
3.267000
 20
1.033120
 11
3.911600
 21
0.655600
 12
3.249840
 22
1.023440
 13
3.894440
 23
0.646360
  0
POLYLINE
  8
0
  6
CONTINUOUS
 66
     1
 40
0.000000
 41
0.000000
  0
VERTEX
  8
0
  6
CONTINUOUS
 10
3.267000
 20
1.033120
  0
VERTEX
  8
0
  6
CONTINUOUS
 10
3.911600
 20
0.655600
  0
VERTEX
  8
0
  6
CONTINUOUS
 10
3.894440
 20
0.646360
  0
VERTEX
  8
0
  6
CONTINUOUS
 10
3.249840
 20
1.023440
  0
VERTEX
  8
0
  6
CONTINUOUS
 10
3.267000
 20
1.033120
  0
SEQEND
  8
0
  0
SOLID
  8
0
 62
    15
 10
3.249840
 20
1.023440
 11
3.894440
 21
0.646360
 12
3.225200
 22
1.017720
 13
3.869800
 23
0.640200
  0
POLYLINE
  8
0
  6
CONTINUOUS
 66
     1
 40
0.000000
 41
0.000000
  0
VERTEX
  8
0
  6
CONTINUOUS
 10
3.249840
 20
1.023440
  0
VERTEX
  8
0
  6
CONTINUOUS
 10
3.894440
 20
0.646360
  0
VERTEX
  8
0
  6
CONTINUOUS
 10
3.869800
 20
0.640200
  0
VERTEX
  8
0
  6
CONTINUOUS
 10
3.225200
 20
1.017720
  0
VERTEX
  8
0
  6
CONTINUOUS
 10
3.249840
 20
1.023440
  0
SEQEND
  8
0
  0
SOLID
  8
0
 62
    15
 10
3.107720
 20
1.017720
 11
3.752320
 21
0.640640
 12
3.102880
 22
1.017720
 13
3.747480
 23
0.640640
  0
POLYLINE
  8
0
  6
CONTINUOUS
 66
     1
 40
0.000000
 41
0.000000
  0
VERTEX
  8
0
  6
CONTINUOUS
 10
3.107720
 20
1.017720
  0
VERTEX
  8
0
  6
CONTINUOUS
 10
3.752320
 20
0.640640
  0
VERTEX
  8
0
  6
CONTINUOUS
 10
3.747480
 20
0.640640
  0
VERTEX
  8
0
  6
CONTINUOUS
 10
3.102880
 20
1.017720
  0
VERTEX
  8
0
  6
CONTINUOUS
 10
3.107720
 20
1.017720
  0
SEQEND
  8
0
  0
SOLID
  8
0
 62
    15
 10
3.225200
 20
1.017720
 11
3.869800
 21
0.640200
 12
3.106400
 22
1.017720
 13
3.751440
 23
0.640200
  0
POLYLINE
  8
0
  6
CONTINUOUS
 66
     1
 40
0.000000
 41
0.000000
  0
VERTEX
  8
0
  6
CONTINUOUS
 10
3.225200
 20
1.017720
  0
VERTEX
  8
0
  6
CONTINUOUS
 10
3.869800
 20
0.640200
  0
VERTEX
  8
0
  6
CONTINUOUS
 10
3.751440
 20
0.640200
  0
VERTEX
  8
0
  6
CONTINUOUS
 10
3.106400
 20
1.017720
  0
VERTEX
  8
0
  6
CONTINUOUS
 10
3.225200
 20
1.017720
  0
SEQEND
  8
0
  0
SOLID
  8
0
 62
    15
 10
4.312000
 20
2.735920
 11
4.956600
 21
2.358840
 12
4.312000
 22
2.506680
 13
4.956600
 23
2.129160
  0
POLYLINE
  8
0
  6
CONTINUOUS
 66
     1
 40
0.000000
 41
0.000000
  0
VERTEX
  8
0
  6
CONTINUOUS
 10
4.312000
 20
2.735920
  0
VERTEX
  8
0
  6
CONTINUOUS
 10
4.956600
 20
2.358840
  0
VERTEX
  8
0
  6
CONTINUOUS
 10
4.956600
 20
2.129160
  0
VERTEX
  8
0
  6
CONTINUOUS
 10
4.312000
 20
2.506680
  0
VERTEX
  8
0
  6
CONTINUOUS
 10
4.312000
 20
2.735920
  0
SEQEND
  8
0
  0
SOLID
  8
0
 62
    15
 10
4.312000
 20
2.506680
 11
4.956600
 21
2.129160
 12
4.312000
 22
2.497880
 13
4.956600
 23
2.120800
  0
POLYLINE
  8
0
  6
CONTINUOUS
 66
     1
 40
0.000000
 41
0.000000
  0
VERTEX
  8
0
  6
CONTINUOUS
 10
4.312000
 20
2.506680
  0
VERTEX
  8
0
  6
CONTINUOUS
 10
4.956600
 20
2.129160
  0
VERTEX
  8
0
  6
CONTINUOUS
 10
4.956600
 20
2.120800
  0
VERTEX
  8
0
  6
CONTINUOUS
 10
4.312000
 20
2.497880
  0
VERTEX
  8
0
  6
CONTINUOUS
 10
4.312000
 20
2.506680
  0
SEQEND
  8
0
  0
POLYLINE
  8
0
  6
CONTINUOUS
 66
     1
 40
0.000000
 41
0.000000
  0
VERTEX
  8
0
  6
CONTINUOUS
 10
4.312000
 20
2.497880
  0
VERTEX
  8
0
  6
CONTINUOUS
 10
4.186160
 20
2.494800
  0
VERTEX
  8
0
  6
CONTINUOUS
 10
4.183080
 20
2.442880
  0
VERTEX
  8
0
  6
CONTINUOUS
 10
4.175160
 20
2.403280
  0
VERTEX
  8
0
  6
CONTINUOUS
 10
4.163280
 20
2.374240
  0
VERTEX
  8
0
  6
CONTINUOUS
 10
4.147880
 20
2.352680
  0
VERTEX
  8
0
  6
CONTINUOUS
 10
4.024680
 20
2.256320
  0
VERTEX
  8
0
  6
CONTINUOUS
 10
4.009280
 20
2.245320
  0
VERTEX
  8
0
  6
CONTINUOUS
 10
3.945040
 20
2.191640
  0
VERTEX
  8
0
  6
CONTINUOUS
 10
3.914240
 20
2.155120
  0
VERTEX
  8
0
  6
CONTINUOUS
 10
3.887400
 20
2.108920
  0
VERTEX
  8
0
  6
CONTINUOUS
 10
3.866280
 20
2.050840
  0
VERTEX
  8
0
  6
CONTINUOUS
 10
3.853080
 20
1.979560
  0
VERTEX
  8
0
  6
CONTINUOUS
 10
3.848680
 20
1.929840
  0
VERTEX
  8
0
  6
CONTINUOUS
 10
3.843840
 20
1.891120
  0
VERTEX
  8
0
  6
CONTINUOUS
 10
3.830640
 20
1.864720
  0
VERTEX
  8
0
  6
CONTINUOUS
 10
3.818320
 20
1.856800
  0
VERTEX
  8
0
  6
CONTINUOUS
 10
3.801160
 20
1.852840
  0
VERTEX
  8
0
  6
CONTINUOUS
 10
3.752320
 20
1.852840
  0
VERTEX
  8
0
  6
CONTINUOUS
 10
3.752320
 20
1.733160
  0
VERTEX
  8
0
  6
CONTINUOUS
 10
3.750120
 20
1.718640
  0
VERTEX
  8
0
  6
CONTINUOUS
 10
3.743080
 20
1.709840
  0
VERTEX
  8
0
  6
CONTINUOUS
 10
3.719760
 20
1.703240
  0
VERTEX
  8
0
  6
CONTINUOUS
 10
3.590840
 20
1.701920
  0
VERTEX
  8
0
  6
CONTINUOUS
 10
3.590840
 20
1.691360
  0
VERTEX
  8
0
  6
CONTINUOUS
 10
3.598320
 20
1.673320
  0
VERTEX
  8
0
  6
CONTINUOUS
 10
3.605800
 20
1.648680
  0
VERTEX
  8
0
  6
CONTINUOUS
 10
3.611080
 20
1.618320
  0
VERTEX
  8
0
  6
CONTINUOUS
 10
3.611960
 20
1.584440
  0
VERTEX
  8
0
  6
CONTINUOUS
 10
3.605800
 20
1.547920
  0
VERTEX
  8
0
  6
CONTINUOUS
 10
3.590400
 20
1.509640
  0
VERTEX
  8
0
  6
CONTINUOUS
 10
3.563560
 20
1.471800
  0
VERTEX
  8
0
  6
CONTINUOUS
 10
3.436400
 20
1.360920
  0
VERTEX
  8
0
  6
CONTINUOUS
 10
3.371280
 20
1.283920
  0
VERTEX
  8
0
  6
CONTINUOUS
 10
3.326400
 20
1.211320
  0
VERTEX
  8
0
  6
CONTINUOUS
 10
3.311880
 20
1.178760
  0
VERTEX
  8
0
  6
CONTINUOUS
 10
3.302200
 20
1.149280
  0
VERTEX
  8
0
  6
CONTINUOUS
 10
3.289440
 20
1.078880
  0
VERTEX
  8
0
  6
CONTINUOUS
 10
3.285040
 20
1.060840
  0
VERTEX
  8
0
  6
CONTINUOUS
 10
3.267000
 20
1.033120
  0
VERTEX
  8
0
  6
CONTINUOUS
 10
3.249840
 20
1.023440
  0
VERTEX
  8
0
  6
CONTINUOUS
 10
3.225200
 20
1.017720
  0
VERTEX
  8
0
  6
CONTINUOUS
 10
3.106400
 20
1.017720
  0
VERTEX
  8
0
  6
CONTINUOUS
 10
3.107720
 20
1.017720
  0
VERTEX
  8
0
  6
CONTINUOUS
 10
3.102880
 20
1.017720
  0
VERTEX
  8
0
  6
CONTINUOUS
 10
3.102880
 20
2.735920
  0
VERTEX
  8
0
  6
CONTINUOUS
 10
4.312000
 20
2.735920
  0
VERTEX
  8
0
  6
CONTINUOUS
 10
4.312000
 20
2.497880
  0
SEQEND
  8
0
  0
TEXT
  8
0
 10
4.567200
 20
0.829400
 40
0.138171
  1
BA  972
 41
1.000000
  7
SN0
 71
     0
 72
     5
 11
5.158095
 21
0.829400
  0
TEXT
  8
0
 10
4.198920
 20
0.637560
 40
0.138171
  1
1-3/16" x 1-11/16"
 41
1.000000
  7
SN0
 71
     0
 72
     5
 11
5.524841
 21
0.637560
  0
TEXT
  8
0
 10
6.602200
 20
1.614800
 40
0.138171
  1
BA  972
 41
1.000000
  7
SN0
 71
     0
 72
     5
 11
7.193095
 21
1.614800
  0
TEXT
  8
0
 10
6.233920
 20
1.422960
 40
0.138171
  1
1-3/16" x 1-11/16"
 41
1.000000
  7
SN0
 71
     0
 72
     5
 11
7.559841
 21
1.422960
  0
ENDSEC
  0
EOF
