  0
SECTION
  2
HEADER
  9
$ACADVER
  1
AC1006
  9
$EXTMIN
 10
3.017080
 20
0.484440
  9
$EXTMAX
 10
8.054200
 20
5.087280
  9
$LTSCALE
 40
0.044000
  9
$PDMODE
 70
    35
  9
$PDSIZE
 40
0.035200
  0
ENDSEC
  0
SECTION
  2
TABLES
  0
TABLE
  2
LTYPE
 70
     9
  0
LTYPE
  2
CONTINUOUS
 70
    64
  3
Solid line
 72
    65
 73
     0
 40
0.000000
  0
LTYPE
  2
DASHED
 70
    64
  3
__ __ __ __ __ __ __ __ __ __ __ __ __ __ __
 72
    65
 73
     2
 40
0.000330
 49
0.000220
 49
-0.000110
  0
LTYPE
  2
HIDDEN
 70
    64
  3
 _ _ _ _ _ _ _ _ _ _ _ _ _ _ _ _ _ _ _ _ _ _
 72
    65
 73
     2
 40
0.000165
 49
0.000110
 49
-0.000055
  0
LTYPE
  2
CENTER
 70
    64
  3
____ _ ____ _ ____ _ ____ _ ____ _ ____ _ ____
 72
    65
 73
     4
 40
0.000880
 49
0.000550
 49
-0.000110
 49
0.000110
 49
-0.000110
  0
LTYPE
  2
PHANTOM
 70
    64
  3
_____ _ _ _____ _ _ _____ _ _ _____ _ _ ____
 72
    65
 73
     6
 40
0.001100
 49
0.000550
 49
-0.000110
 49
0.000110
 49
-0.000110
 49
0.000110
 49
-0.000110
  0
LTYPE
  2
DOT
 70
    64
  3
...............................................
 72
    65
 73
     2
 40
0.000110
 49
0.000000
 49
-0.000110
  0
LTYPE
  2
DASHDOT
 70
    64
  3
__ . __ . __ . __ . __ . __ . __ . __ . __ . __
 72
    65
 73
     4
 40
0.000440
 49
0.000220
 49
-0.000110
 49
0.000000
 49
-0.000110
  0
LTYPE
  2
BORDER
 70
    64
  3
__ __ . __ __ . __ __ . __ __ . __ __ . __ __
 72
    65
 73
     6
 40
0.000770
 49
0.000220
 49
-0.000110
 49
0.000220
 49
-0.000110
 49
0.000000
 49
-0.000110
  0
LTYPE
  2
DIVIDE
 70
    64
  3
__ . . __ . . __ . . __ . . __ . . __ . . __
 72
    65
 73
     6
 40
0.000550
 49
0.000220
 49
-0.000110
 49
0.000000
 49
-0.000110
 49
0.000000
 49
-0.000110
  0
LTYPE
  2
DOTDOT
 70
    64
  3
 . .  . .  . .  . .  . .  . . 
 72
    65
 73
     5
 40
0.000242
 49
-0.000110
 49
0.000000
 49
-0.000110
 49
0.000000
 49
-0.000110
  0
ENDTAB
  0
TABLE
  2
STYLE
 70
     2
  0
STYLE
 70
     0
  2
SN0
 40
0.000000
 41
0.000440
 50
0.000000
 71
     0
 42
0.000000
  3
ROMAND
  0
STYLE
 70
    68
  2
SV0
 40
0.000000
 41
0.000440
 50
0.000000
 71
     0
 42
0.000000
  3
ROMAND
  0
ENDTAB
  0
TABLE
  2
LAYER
 70
     3
  0
LAYER
  2
FOREGROUND
 70
    64
 62
     7
  6
CONTINUOUS
  0
LAYER
  2
BACKGROUND
 70
    65
 62
    -7
  6
CONTINUOUS
  0
LAYER
  2
0
 70
    64
 62
     7
  6
CONTINUOUS
  0
ENDTAB
  0
ENDSEC
  0
SECTION
  2
ENTITIES
  0
POLYLINE
  8
FOREGROUND
  6
CONTINUOUS
 66
     1
 40
0.000000
 41
0.000000
  0
VERTEX
  8
FOREGROUND
  6
CONTINUOUS
 10
0.000000
 20
5.571720
  0
VERTEX
  8
FOREGROUND
  6
CONTINUOUS
 10
8.499920
 20
5.571720
  0
VERTEX
  8
FOREGROUND
  6
CONTINUOUS
 10
8.499920
 20
-5.428280
  0
VERTEX
  8
FOREGROUND
  6
CONTINUOUS
 10
0.000000
 20
-5.428280
  0
VERTEX
  8
FOREGROUND
  6
CONTINUOUS
 10
0.000000
 20
5.571720
  0
SEQEND
  8
0
  0
POLYLINE
  8
FOREGROUND
  6
CONTINUOUS
 66
     1
 40
0.000000
 41
0.000000
  0
VERTEX
  8
FOREGROUND
  6
CONTINUOUS
 10
0.000000
 20
5.571720
  0
VERTEX
  8
FOREGROUND
  6
CONTINUOUS
 10
8.499920
 20
5.571720
  0
VERTEX
  8
FOREGROUND
  6
CONTINUOUS
 10
8.499920
 20
-5.428280
  0
VERTEX
  8
FOREGROUND
  6
CONTINUOUS
 10
0.000000
 20
-5.428280
  0
VERTEX
  8
FOREGROUND
  6
CONTINUOUS
 10
0.000000
 20
5.571720
  0
SEQEND
  8
0
  0
SOLID
  8
0
 62
    15
 10
6.327640
 20
1.226720
 11
6.329840
 21
1.964160
 12
6.354920
 22
1.241680
 13
6.357120
 23
1.979120
  0
POLYLINE
  8
0
  6
CONTINUOUS
 66
     1
 40
0.000000
 41
0.000000
  0
VERTEX
  8
0
  6
CONTINUOUS
 10
6.327640
 20
1.226720
  0
VERTEX
  8
0
  6
CONTINUOUS
 10
6.329840
 20
1.964160
  0
VERTEX
  8
0
  6
CONTINUOUS
 10
6.357120
 20
1.979120
  0
VERTEX
  8
0
  6
CONTINUOUS
 10
6.354920
 20
1.241680
  0
VERTEX
  8
0
  6
CONTINUOUS
 10
6.327640
 20
1.226720
  0
SEQEND
  8
0
  0
SOLID
  8
0
 62
    15
 10
4.856720
 20
1.757800
 11
4.858920
 21
2.494800
 12
4.876520
 22
1.698400
 13
4.878720
 23
2.435840
  0
POLYLINE
  8
0
  6
CONTINUOUS
 66
     1
 40
0.000000
 41
0.000000
  0
VERTEX
  8
0
  6
CONTINUOUS
 10
4.856720
 20
1.757800
  0
VERTEX
  8
0
  6
CONTINUOUS
 10
4.858920
 20
2.494800
  0
VERTEX
  8
0
  6
CONTINUOUS
 10
4.878720
 20
2.435840
  0
VERTEX
  8
0
  6
CONTINUOUS
 10
4.876520
 20
1.698400
  0
VERTEX
  8
0
  6
CONTINUOUS
 10
4.856720
 20
1.757800
  0
SEQEND
  8
0
  0
SOLID
  8
0
 62
    15
 10
4.876520
 20
1.698400
 11
4.878720
 21
2.435840
 12
4.902040
 22
1.641200
 13
4.904240
 23
2.378640
  0
POLYLINE
  8
0
  6
CONTINUOUS
 66
     1
 40
0.000000
 41
0.000000
  0
VERTEX
  8
0
  6
CONTINUOUS
 10
4.876520
 20
1.698400
  0
VERTEX
  8
0
  6
CONTINUOUS
 10
4.878720
 20
2.435840
  0
VERTEX
  8
0
  6
CONTINUOUS
 10
4.904240
 20
2.378640
  0
VERTEX
  8
0
  6
CONTINUOUS
 10
4.902040
 20
1.641200
  0
VERTEX
  8
0
  6
CONTINUOUS
 10
4.876520
 20
1.698400
  0
SEQEND
  8
0
  0
SOLID
  8
0
 62
    15
 10
4.902040
 20
1.641200
 11
4.904240
 21
2.378640
 12
4.931960
 22
1.587960
 13
4.933720
 23
2.325400
  0
POLYLINE
  8
0
  6
CONTINUOUS
 66
     1
 40
0.000000
 41
0.000000
  0
VERTEX
  8
0
  6
CONTINUOUS
 10
4.902040
 20
1.641200
  0
VERTEX
  8
0
  6
CONTINUOUS
 10
4.904240
 20
2.378640
  0
VERTEX
  8
0
  6
CONTINUOUS
 10
4.933720
 20
2.325400
  0
VERTEX
  8
0
  6
CONTINUOUS
 10
4.931960
 20
1.587960
  0
VERTEX
  8
0
  6
CONTINUOUS
 10
4.902040
 20
1.641200
  0
SEQEND
  8
0
  0
SOLID
  8
0
 62
    15
 10
4.931960
 20
1.587960
 11
4.933720
 21
2.325400
 12
4.963640
 22
1.540440
 13
4.965400
 23
2.277880
  0
POLYLINE
  8
0
  6
CONTINUOUS
 66
     1
 40
0.000000
 41
0.000000
  0
VERTEX
  8
0
  6
CONTINUOUS
 10
4.931960
 20
1.587960
  0
VERTEX
  8
0
  6
CONTINUOUS
 10
4.933720
 20
2.325400
  0
VERTEX
  8
0
  6
CONTINUOUS
 10
4.965400
 20
2.277880
  0
VERTEX
  8
0
  6
CONTINUOUS
 10
4.963640
 20
1.540440
  0
VERTEX
  8
0
  6
CONTINUOUS
 10
4.931960
 20
1.587960
  0
SEQEND
  8
0
  0
SOLID
  8
0
 62
    15
 10
4.963640
 20
1.540440
 11
4.965400
 21
2.277880
 12
4.994880
 22
1.500400
 13
4.997080
 23
2.237840
  0
POLYLINE
  8
0
  6
CONTINUOUS
 66
     1
 40
0.000000
 41
0.000000
  0
VERTEX
  8
0
  6
CONTINUOUS
 10
4.963640
 20
1.540440
  0
VERTEX
  8
0
  6
CONTINUOUS
 10
4.965400
 20
2.277880
  0
VERTEX
  8
0
  6
CONTINUOUS
 10
4.997080
 20
2.237840
  0
VERTEX
  8
0
  6
CONTINUOUS
 10
4.994880
 20
1.500400
  0
VERTEX
  8
0
  6
CONTINUOUS
 10
4.963640
 20
1.540440
  0
SEQEND
  8
0
  0
SOLID
  8
0
 62
    15
 10
4.994880
 20
1.500400
 11
4.997080
 21
2.237840
 12
5.024800
 22
1.469600
 13
5.026560
 23
2.206600
  0
POLYLINE
  8
0
  6
CONTINUOUS
 66
     1
 40
0.000000
 41
0.000000
  0
VERTEX
  8
0
  6
CONTINUOUS
 10
4.994880
 20
1.500400
  0
VERTEX
  8
0
  6
CONTINUOUS
 10
4.997080
 20
2.237840
  0
VERTEX
  8
0
  6
CONTINUOUS
 10
5.026560
 20
2.206600
  0
VERTEX
  8
0
  6
CONTINUOUS
 10
5.024800
 20
1.469600
  0
VERTEX
  8
0
  6
CONTINUOUS
 10
4.994880
 20
1.500400
  0
SEQEND
  8
0
  0
SOLID
  8
0
 62
    15
 10
5.024800
 20
1.469600
 11
5.026560
 21
2.206600
 12
5.049880
 22
1.449800
 13
5.052080
 23
2.186800
  0
POLYLINE
  8
0
  6
CONTINUOUS
 66
     1
 40
0.000000
 41
0.000000
  0
VERTEX
  8
0
  6
CONTINUOUS
 10
5.024800
 20
1.469600
  0
VERTEX
  8
0
  6
CONTINUOUS
 10
5.026560
 20
2.206600
  0
VERTEX
  8
0
  6
CONTINUOUS
 10
5.052080
 20
2.186800
  0
VERTEX
  8
0
  6
CONTINUOUS
 10
5.049880
 20
1.449800
  0
VERTEX
  8
0
  6
CONTINUOUS
 10
5.024800
 20
1.469600
  0
SEQEND
  8
0
  0
SOLID
  8
0
 62
    15
 10
5.049880
 20
1.449800
 11
5.052080
 21
2.186800
 12
5.060440
 22
1.444520
 13
5.062640
 23
2.181960
  0
POLYLINE
  8
0
  6
CONTINUOUS
 66
     1
 40
0.000000
 41
0.000000
  0
VERTEX
  8
0
  6
CONTINUOUS
 10
5.049880
 20
1.449800
  0
VERTEX
  8
0
  6
CONTINUOUS
 10
5.052080
 20
2.186800
  0
VERTEX
  8
0
  6
CONTINUOUS
 10
5.062640
 20
2.181960
  0
VERTEX
  8
0
  6
CONTINUOUS
 10
5.060440
 20
1.444520
  0
VERTEX
  8
0
  6
CONTINUOUS
 10
5.049880
 20
1.449800
  0
SEQEND
  8
0
  0
SOLID
  8
0
 62
    15
 10
5.060440
 20
1.444520
 11
5.062640
 21
2.181960
 12
5.069240
 22
1.442760
 13
5.071440
 23
2.180200
  0
POLYLINE
  8
0
  6
CONTINUOUS
 66
     1
 40
0.000000
 41
0.000000
  0
VERTEX
  8
0
  6
CONTINUOUS
 10
5.060440
 20
1.444520
  0
VERTEX
  8
0
  6
CONTINUOUS
 10
5.062640
 20
2.181960
  0
VERTEX
  8
0
  6
CONTINUOUS
 10
5.071440
 20
2.180200
  0
VERTEX
  8
0
  6
CONTINUOUS
 10
5.069240
 20
1.442760
  0
VERTEX
  8
0
  6
CONTINUOUS
 10
5.060440
 20
1.444520
  0
SEQEND
  8
0
  0
SOLID
  8
0
 62
    15
 10
5.069240
 20
1.442760
 11
5.071440
 21
2.180200
 12
5.077160
 22
1.445840
 13
5.078920
 23
2.183280
  0
POLYLINE
  8
0
  6
CONTINUOUS
 66
     1
 40
0.000000
 41
0.000000
  0
VERTEX
  8
0
  6
CONTINUOUS
 10
5.069240
 20
1.442760
  0
VERTEX
  8
0
  6
CONTINUOUS
 10
5.071440
 20
2.180200
  0
VERTEX
  8
0
  6
CONTINUOUS
 10
5.078920
 20
2.183280
  0
VERTEX
  8
0
  6
CONTINUOUS
 10
5.077160
 20
1.445840
  0
VERTEX
  8
0
  6
CONTINUOUS
 10
5.069240
 20
1.442760
  0
SEQEND
  8
0
  0
SOLID
  8
0
 62
    15
 10
5.077160
 20
1.445840
 11
5.078920
 21
2.183280
 12
5.085080
 22
1.455520
 13
5.087280
 23
2.192520
  0
POLYLINE
  8
0
  6
CONTINUOUS
 66
     1
 40
0.000000
 41
0.000000
  0
VERTEX
  8
0
  6
CONTINUOUS
 10
5.077160
 20
1.445840
  0
VERTEX
  8
0
  6
CONTINUOUS
 10
5.078920
 20
2.183280
  0
VERTEX
  8
0
  6
CONTINUOUS
 10
5.087280
 20
2.192520
  0
VERTEX
  8
0
  6
CONTINUOUS
 10
5.085080
 20
1.455520
  0
VERTEX
  8
0
  6
CONTINUOUS
 10
5.077160
 20
1.445840
  0
SEQEND
  8
0
  0
SOLID
  8
0
 62
    15
 10
5.085080
 20
1.455520
 11
5.087280
 21
2.192520
 12
5.093880
 22
1.470040
 13
5.095640
 23
2.207040
  0
POLYLINE
  8
0
  6
CONTINUOUS
 66
     1
 40
0.000000
 41
0.000000
  0
VERTEX
  8
0
  6
CONTINUOUS
 10
5.085080
 20
1.455520
  0
VERTEX
  8
0
  6
CONTINUOUS
 10
5.087280
 20
2.192520
  0
VERTEX
  8
0
  6
CONTINUOUS
 10
5.095640
 20
2.207040
  0
VERTEX
  8
0
  6
CONTINUOUS
 10
5.093880
 20
1.470040
  0
VERTEX
  8
0
  6
CONTINUOUS
 10
5.085080
 20
1.455520
  0
SEQEND
  8
0
  0
SOLID
  8
0
 62
    15
 10
5.093880
 20
1.470040
 11
5.095640
 21
2.207040
 12
5.103560
 22
1.488520
 13
5.105760
 23
2.225960
  0
POLYLINE
  8
0
  6
CONTINUOUS
 66
     1
 40
0.000000
 41
0.000000
  0
VERTEX
  8
0
  6
CONTINUOUS
 10
5.093880
 20
1.470040
  0
VERTEX
  8
0
  6
CONTINUOUS
 10
5.095640
 20
2.207040
  0
VERTEX
  8
0
  6
CONTINUOUS
 10
5.105760
 20
2.225960
  0
VERTEX
  8
0
  6
CONTINUOUS
 10
5.103560
 20
1.488520
  0
VERTEX
  8
0
  6
CONTINUOUS
 10
5.093880
 20
1.470040
  0
SEQEND
  8
0
  0
SOLID
  8
0
 62
    15
 10
5.103560
 20
1.488520
 11
5.105760
 21
2.225960
 12
5.109280
 22
1.499520
 13
5.111480
 23
2.236960
  0
POLYLINE
  8
0
  6
CONTINUOUS
 66
     1
 40
0.000000
 41
0.000000
  0
VERTEX
  8
0
  6
CONTINUOUS
 10
5.103560
 20
1.488520
  0
VERTEX
  8
0
  6
CONTINUOUS
 10
5.105760
 20
2.225960
  0
VERTEX
  8
0
  6
CONTINUOUS
 10
5.111480
 20
2.236960
  0
VERTEX
  8
0
  6
CONTINUOUS
 10
5.109280
 20
1.499520
  0
VERTEX
  8
0
  6
CONTINUOUS
 10
5.103560
 20
1.488520
  0
SEQEND
  8
0
  0
SOLID
  8
0
 62
    15
 10
5.109280
 20
1.499520
 11
5.111480
 21
2.236960
 12
5.115440
 22
1.510960
 13
5.117200
 23
2.248400
  0
POLYLINE
  8
0
  6
CONTINUOUS
 66
     1
 40
0.000000
 41
0.000000
  0
VERTEX
  8
0
  6
CONTINUOUS
 10
5.109280
 20
1.499520
  0
VERTEX
  8
0
  6
CONTINUOUS
 10
5.111480
 20
2.236960
  0
VERTEX
  8
0
  6
CONTINUOUS
 10
5.117200
 20
2.248400
  0
VERTEX
  8
0
  6
CONTINUOUS
 10
5.115440
 20
1.510960
  0
VERTEX
  8
0
  6
CONTINUOUS
 10
5.109280
 20
1.499520
  0
SEQEND
  8
0
  0
SOLID
  8
0
 62
    15
 10
5.115440
 20
1.510960
 11
5.117200
 21
2.248400
 12
5.129080
 22
1.535600
 13
5.130840
 23
2.273040
  0
POLYLINE
  8
0
  6
CONTINUOUS
 66
     1
 40
0.000000
 41
0.000000
  0
VERTEX
  8
0
  6
CONTINUOUS
 10
5.115440
 20
1.510960
  0
VERTEX
  8
0
  6
CONTINUOUS
 10
5.117200
 20
2.248400
  0
VERTEX
  8
0
  6
CONTINUOUS
 10
5.130840
 20
2.273040
  0
VERTEX
  8
0
  6
CONTINUOUS
 10
5.129080
 20
1.535600
  0
VERTEX
  8
0
  6
CONTINUOUS
 10
5.115440
 20
1.510960
  0
SEQEND
  8
0
  0
SOLID
  8
0
 62
    15
 10
5.129080
 20
1.535600
 11
5.130840
 21
2.273040
 12
5.164280
 22
1.589280
 13
5.166480
 23
2.326720
  0
POLYLINE
  8
0
  6
CONTINUOUS
 66
     1
 40
0.000000
 41
0.000000
  0
VERTEX
  8
0
  6
CONTINUOUS
 10
5.129080
 20
1.535600
  0
VERTEX
  8
0
  6
CONTINUOUS
 10
5.130840
 20
2.273040
  0
VERTEX
  8
0
  6
CONTINUOUS
 10
5.166480
 20
2.326720
  0
VERTEX
  8
0
  6
CONTINUOUS
 10
5.164280
 20
1.589280
  0
VERTEX
  8
0
  6
CONTINUOUS
 10
5.129080
 20
1.535600
  0
SEQEND
  8
0
  0
SOLID
  8
0
 62
    15
 10
5.164280
 20
1.589280
 11
5.166480
 21
2.326720
 12
5.187160
 22
1.616560
 13
5.189360
 23
2.354000
  0
POLYLINE
  8
0
  6
CONTINUOUS
 66
     1
 40
0.000000
 41
0.000000
  0
VERTEX
  8
0
  6
CONTINUOUS
 10
5.164280
 20
1.589280
  0
VERTEX
  8
0
  6
CONTINUOUS
 10
5.166480
 20
2.326720
  0
VERTEX
  8
0
  6
CONTINUOUS
 10
5.189360
 20
2.354000
  0
VERTEX
  8
0
  6
CONTINUOUS
 10
5.187160
 20
1.616560
  0
VERTEX
  8
0
  6
CONTINUOUS
 10
5.164280
 20
1.589280
  0
SEQEND
  8
0
  0
SOLID
  8
0
 62
    15
 10
5.187160
 20
1.616560
 11
5.189360
 21
2.354000
 12
5.214000
 22
1.642520
 13
5.216200
 23
2.379960
  0
POLYLINE
  8
0
  6
CONTINUOUS
 66
     1
 40
0.000000
 41
0.000000
  0
VERTEX
  8
0
  6
CONTINUOUS
 10
5.187160
 20
1.616560
  0
VERTEX
  8
0
  6
CONTINUOUS
 10
5.189360
 20
2.354000
  0
VERTEX
  8
0
  6
CONTINUOUS
 10
5.216200
 20
2.379960
  0
VERTEX
  8
0
  6
CONTINUOUS
 10
5.214000
 20
1.642520
  0
VERTEX
  8
0
  6
CONTINUOUS
 10
5.187160
 20
1.616560
  0
SEQEND
  8
0
  0
SOLID
  8
0
 62
    15
 10
5.214000
 20
1.642520
 11
5.216200
 21
2.379960
 12
5.245240
 22
1.667160
 13
5.247000
 23
2.404160
  0
POLYLINE
  8
0
  6
CONTINUOUS
 66
     1
 40
0.000000
 41
0.000000
  0
VERTEX
  8
0
  6
CONTINUOUS
 10
5.214000
 20
1.642520
  0
VERTEX
  8
0
  6
CONTINUOUS
 10
5.216200
 20
2.379960
  0
VERTEX
  8
0
  6
CONTINUOUS
 10
5.247000
 20
2.404160
  0
VERTEX
  8
0
  6
CONTINUOUS
 10
5.245240
 20
1.667160
  0
VERTEX
  8
0
  6
CONTINUOUS
 10
5.214000
 20
1.642520
  0
SEQEND
  8
0
  0
SOLID
  8
0
 62
    15
 10
5.245240
 20
1.667160
 11
5.247000
 21
2.404160
 12
5.281320
 22
1.688280
 13
5.283080
 23
2.425720
  0
POLYLINE
  8
0
  6
CONTINUOUS
 66
     1
 40
0.000000
 41
0.000000
  0
VERTEX
  8
0
  6
CONTINUOUS
 10
5.245240
 20
1.667160
  0
VERTEX
  8
0
  6
CONTINUOUS
 10
5.247000
 20
2.404160
  0
VERTEX
  8
0
  6
CONTINUOUS
 10
5.283080
 20
2.425720
  0
VERTEX
  8
0
  6
CONTINUOUS
 10
5.281320
 20
1.688280
  0
VERTEX
  8
0
  6
CONTINUOUS
 10
5.245240
 20
1.667160
  0
SEQEND
  8
0
  0
SOLID
  8
0
 62
    15
 10
5.281320
 20
1.688280
 11
5.283080
 21
2.425720
 12
5.322240
 22
1.706320
 13
5.324440
 23
2.443760
  0
POLYLINE
  8
0
  6
CONTINUOUS
 66
     1
 40
0.000000
 41
0.000000
  0
VERTEX
  8
0
  6
CONTINUOUS
 10
5.281320
 20
1.688280
  0
VERTEX
  8
0
  6
CONTINUOUS
 10
5.283080
 20
2.425720
  0
VERTEX
  8
0
  6
CONTINUOUS
 10
5.324440
 20
2.443760
  0
VERTEX
  8
0
  6
CONTINUOUS
 10
5.322240
 20
1.706320
  0
VERTEX
  8
0
  6
CONTINUOUS
 10
5.281320
 20
1.688280
  0
SEQEND
  8
0
  0
SOLID
  8
0
 62
    15
 10
5.322240
 20
1.706320
 11
5.324440
 21
2.443760
 12
5.369320
 22
1.719960
 13
5.371520
 23
2.457400
  0
POLYLINE
  8
0
  6
CONTINUOUS
 66
     1
 40
0.000000
 41
0.000000
  0
VERTEX
  8
0
  6
CONTINUOUS
 10
5.322240
 20
1.706320
  0
VERTEX
  8
0
  6
CONTINUOUS
 10
5.324440
 20
2.443760
  0
VERTEX
  8
0
  6
CONTINUOUS
 10
5.371520
 20
2.457400
  0
VERTEX
  8
0
  6
CONTINUOUS
 10
5.369320
 20
1.719960
  0
VERTEX
  8
0
  6
CONTINUOUS
 10
5.322240
 20
1.706320
  0
SEQEND
  8
0
  0
SOLID
  8
0
 62
    15
 10
5.369320
 20
1.719960
 11
5.371520
 21
2.457400
 12
5.423000
 22
1.727880
 13
5.424760
 23
2.465320
  0
POLYLINE
  8
0
  6
CONTINUOUS
 66
     1
 40
0.000000
 41
0.000000
  0
VERTEX
  8
0
  6
CONTINUOUS
 10
5.369320
 20
1.719960
  0
VERTEX
  8
0
  6
CONTINUOUS
 10
5.371520
 20
2.457400
  0
VERTEX
  8
0
  6
CONTINUOUS
 10
5.424760
 20
2.465320
  0
VERTEX
  8
0
  6
CONTINUOUS
 10
5.423000
 20
1.727880
  0
VERTEX
  8
0
  6
CONTINUOUS
 10
5.369320
 20
1.719960
  0
SEQEND
  8
0
  0
SOLID
  8
0
 62
    15
 10
5.423000
 20
1.727880
 11
5.424760
 21
2.465320
 12
5.482840
 22
1.729640
 13
5.485040
 23
2.467080
  0
POLYLINE
  8
0
  6
CONTINUOUS
 66
     1
 40
0.000000
 41
0.000000
  0
VERTEX
  8
0
  6
CONTINUOUS
 10
5.423000
 20
1.727880
  0
VERTEX
  8
0
  6
CONTINUOUS
 10
5.424760
 20
2.465320
  0
VERTEX
  8
0
  6
CONTINUOUS
 10
5.485040
 20
2.467080
  0
VERTEX
  8
0
  6
CONTINUOUS
 10
5.482840
 20
1.729640
  0
VERTEX
  8
0
  6
CONTINUOUS
 10
5.423000
 20
1.727880
  0
SEQEND
  8
0
  0
SOLID
  8
0
 62
    15
 10
5.482840
 20
1.729640
 11
5.485040
 21
2.467080
 12
5.543560
 22
1.725240
 13
5.545320
 23
2.462680
  0
POLYLINE
  8
0
  6
CONTINUOUS
 66
     1
 40
0.000000
 41
0.000000
  0
VERTEX
  8
0
  6
CONTINUOUS
 10
5.482840
 20
1.729640
  0
VERTEX
  8
0
  6
CONTINUOUS
 10
5.485040
 20
2.467080
  0
VERTEX
  8
0
  6
CONTINUOUS
 10
5.545320
 20
2.462680
  0
VERTEX
  8
0
  6
CONTINUOUS
 10
5.543560
 20
1.725240
  0
VERTEX
  8
0
  6
CONTINUOUS
 10
5.482840
 20
1.729640
  0
SEQEND
  8
0
  0
SOLID
  8
0
 62
    15
 10
5.543560
 20
1.725240
 11
5.545320
 21
2.462680
 12
5.598120
 22
1.715560
 13
5.600320
 23
2.453000
  0
POLYLINE
  8
0
  6
CONTINUOUS
 66
     1
 40
0.000000
 41
0.000000
  0
VERTEX
  8
0
  6
CONTINUOUS
 10
5.543560
 20
1.725240
  0
VERTEX
  8
0
  6
CONTINUOUS
 10
5.545320
 20
2.462680
  0
VERTEX
  8
0
  6
CONTINUOUS
 10
5.600320
 20
2.453000
  0
VERTEX
  8
0
  6
CONTINUOUS
 10
5.598120
 20
1.715560
  0
VERTEX
  8
0
  6
CONTINUOUS
 10
5.543560
 20
1.725240
  0
SEQEND
  8
0
  0
SOLID
  8
0
 62
    15
 10
5.598120
 20
1.715560
 11
5.600320
 21
2.453000
 12
5.647400
 22
1.701040
 13
5.649600
 23
2.438480
  0
POLYLINE
  8
0
  6
CONTINUOUS
 66
     1
 40
0.000000
 41
0.000000
  0
VERTEX
  8
0
  6
CONTINUOUS
 10
5.598120
 20
1.715560
  0
VERTEX
  8
0
  6
CONTINUOUS
 10
5.600320
 20
2.453000
  0
VERTEX
  8
0
  6
CONTINUOUS
 10
5.649600
 20
2.438480
  0
VERTEX
  8
0
  6
CONTINUOUS
 10
5.647400
 20
1.701040
  0
VERTEX
  8
0
  6
CONTINUOUS
 10
5.598120
 20
1.715560
  0
SEQEND
  8
0
  0
SOLID
  8
0
 62
    15
 10
5.647400
 20
1.701040
 11
5.649600
 21
2.438480
 12
5.691840
 22
1.682120
 13
5.694040
 23
2.419560
  0
POLYLINE
  8
0
  6
CONTINUOUS
 66
     1
 40
0.000000
 41
0.000000
  0
VERTEX
  8
0
  6
CONTINUOUS
 10
5.647400
 20
1.701040
  0
VERTEX
  8
0
  6
CONTINUOUS
 10
5.649600
 20
2.438480
  0
VERTEX
  8
0
  6
CONTINUOUS
 10
5.694040
 20
2.419560
  0
VERTEX
  8
0
  6
CONTINUOUS
 10
5.691840
 20
1.682120
  0
VERTEX
  8
0
  6
CONTINUOUS
 10
5.647400
 20
1.701040
  0
SEQEND
  8
0
  0
SOLID
  8
0
 62
    15
 10
5.691840
 20
1.682120
 11
5.694040
 21
2.419560
 12
5.732320
 22
1.659680
 13
5.734080
 23
2.396680
  0
POLYLINE
  8
0
  6
CONTINUOUS
 66
     1
 40
0.000000
 41
0.000000
  0
VERTEX
  8
0
  6
CONTINUOUS
 10
5.691840
 20
1.682120
  0
VERTEX
  8
0
  6
CONTINUOUS
 10
5.694040
 20
2.419560
  0
VERTEX
  8
0
  6
CONTINUOUS
 10
5.734080
 20
2.396680
  0
VERTEX
  8
0
  6
CONTINUOUS
 10
5.732320
 20
1.659680
  0
VERTEX
  8
0
  6
CONTINUOUS
 10
5.691840
 20
1.682120
  0
SEQEND
  8
0
  0
SOLID
  8
0
 62
    15
 10
5.732320
 20
1.659680
 11
5.734080
 21
2.396680
 12
5.768840
 22
1.633720
 13
5.771040
 23
2.370720
  0
POLYLINE
  8
0
  6
CONTINUOUS
 66
     1
 40
0.000000
 41
0.000000
  0
VERTEX
  8
0
  6
CONTINUOUS
 10
5.732320
 20
1.659680
  0
VERTEX
  8
0
  6
CONTINUOUS
 10
5.734080
 20
2.396680
  0
VERTEX
  8
0
  6
CONTINUOUS
 10
5.771040
 20
2.370720
  0
VERTEX
  8
0
  6
CONTINUOUS
 10
5.768840
 20
1.633720
  0
VERTEX
  8
0
  6
CONTINUOUS
 10
5.732320
 20
1.659680
  0
SEQEND
  8
0
  0
SOLID
  8
0
 62
    15
 10
5.768840
 20
1.633720
 11
5.771040
 21
2.370720
 12
5.833080
 22
1.573880
 13
5.835280
 23
2.310880
  0
POLYLINE
  8
0
  6
CONTINUOUS
 66
     1
 40
0.000000
 41
0.000000
  0
VERTEX
  8
0
  6
CONTINUOUS
 10
5.768840
 20
1.633720
  0
VERTEX
  8
0
  6
CONTINUOUS
 10
5.771040
 20
2.370720
  0
VERTEX
  8
0
  6
CONTINUOUS
 10
5.835280
 20
2.310880
  0
VERTEX
  8
0
  6
CONTINUOUS
 10
5.833080
 20
1.573880
  0
VERTEX
  8
0
  6
CONTINUOUS
 10
5.768840
 20
1.633720
  0
SEQEND
  8
0
  0
SOLID
  8
0
 62
    15
 10
5.833080
 20
1.573880
 11
5.835280
 21
2.310880
 12
5.888960
 22
1.507000
 13
5.891160
 23
2.244000
  0
POLYLINE
  8
0
  6
CONTINUOUS
 66
     1
 40
0.000000
 41
0.000000
  0
VERTEX
  8
0
  6
CONTINUOUS
 10
5.833080
 20
1.573880
  0
VERTEX
  8
0
  6
CONTINUOUS
 10
5.835280
 20
2.310880
  0
VERTEX
  8
0
  6
CONTINUOUS
 10
5.891160
 20
2.244000
  0
VERTEX
  8
0
  6
CONTINUOUS
 10
5.888960
 20
1.507000
  0
VERTEX
  8
0
  6
CONTINUOUS
 10
5.833080
 20
1.573880
  0
SEQEND
  8
0
  0
SOLID
  8
0
 62
    15
 10
5.888960
 20
1.507000
 11
5.891160
 21
2.244000
 12
5.914920
 22
1.472240
 13
5.917120
 23
2.209240
  0
POLYLINE
  8
0
  6
CONTINUOUS
 66
     1
 40
0.000000
 41
0.000000
  0
VERTEX
  8
0
  6
CONTINUOUS
 10
5.888960
 20
1.507000
  0
VERTEX
  8
0
  6
CONTINUOUS
 10
5.891160
 20
2.244000
  0
VERTEX
  8
0
  6
CONTINUOUS
 10
5.917120
 20
2.209240
  0
VERTEX
  8
0
  6
CONTINUOUS
 10
5.914920
 20
1.472240
  0
VERTEX
  8
0
  6
CONTINUOUS
 10
5.888960
 20
1.507000
  0
SEQEND
  8
0
  0
SOLID
  8
0
 62
    15
 10
5.914920
 20
1.472240
 11
5.917120
 21
2.209240
 12
5.940880
 22
1.437040
 13
5.942640
 23
2.174040
  0
POLYLINE
  8
0
  6
CONTINUOUS
 66
     1
 40
0.000000
 41
0.000000
  0
VERTEX
  8
0
  6
CONTINUOUS
 10
5.914920
 20
1.472240
  0
VERTEX
  8
0
  6
CONTINUOUS
 10
5.917120
 20
2.209240
  0
VERTEX
  8
0
  6
CONTINUOUS
 10
5.942640
 20
2.174040
  0
VERTEX
  8
0
  6
CONTINUOUS
 10
5.940880
 20
1.437040
  0
VERTEX
  8
0
  6
CONTINUOUS
 10
5.914920
 20
1.472240
  0
SEQEND
  8
0
  0
SOLID
  8
0
 62
    15
 10
5.940880
 20
1.437040
 11
5.942640
 21
2.174040
 12
5.992800
 22
1.367960
 13
5.995000
 23
2.105400
  0
POLYLINE
  8
0
  6
CONTINUOUS
 66
     1
 40
0.000000
 41
0.000000
  0
VERTEX
  8
0
  6
CONTINUOUS
 10
5.940880
 20
1.437040
  0
VERTEX
  8
0
  6
CONTINUOUS
 10
5.942640
 20
2.174040
  0
VERTEX
  8
0
  6
CONTINUOUS
 10
5.995000
 20
2.105400
  0
VERTEX
  8
0
  6
CONTINUOUS
 10
5.992800
 20
1.367960
  0
VERTEX
  8
0
  6
CONTINUOUS
 10
5.940880
 20
1.437040
  0
SEQEND
  8
0
  0
SOLID
  8
0
 62
    15
 10
5.992800
 20
1.367960
 11
5.995000
 21
2.105400
 12
6.049120
 22
1.304600
 13
6.051320
 23
2.041600
  0
POLYLINE
  8
0
  6
CONTINUOUS
 66
     1
 40
0.000000
 41
0.000000
  0
VERTEX
  8
0
  6
CONTINUOUS
 10
5.992800
 20
1.367960
  0
VERTEX
  8
0
  6
CONTINUOUS
 10
5.995000
 20
2.105400
  0
VERTEX
  8
0
  6
CONTINUOUS
 10
6.051320
 20
2.041600
  0
VERTEX
  8
0
  6
CONTINUOUS
 10
6.049120
 20
1.304600
  0
VERTEX
  8
0
  6
CONTINUOUS
 10
5.992800
 20
1.367960
  0
SEQEND
  8
0
  0
SOLID
  8
0
 62
    15
 10
6.049120
 20
1.304600
 11
6.051320
 21
2.041600
 12
6.081680
 22
1.275120
 13
6.083880
 23
2.012560
  0
POLYLINE
  8
0
  6
CONTINUOUS
 66
     1
 40
0.000000
 41
0.000000
  0
VERTEX
  8
0
  6
CONTINUOUS
 10
6.049120
 20
1.304600
  0
VERTEX
  8
0
  6
CONTINUOUS
 10
6.051320
 20
2.041600
  0
VERTEX
  8
0
  6
CONTINUOUS
 10
6.083880
 20
2.012560
  0
VERTEX
  8
0
  6
CONTINUOUS
 10
6.081680
 20
1.275120
  0
VERTEX
  8
0
  6
CONTINUOUS
 10
6.049120
 20
1.304600
  0
SEQEND
  8
0
  0
SOLID
  8
0
 62
    15
 10
6.081680
 20
1.275120
 11
6.083880
 21
2.012560
 12
6.113800
 22
1.251360
 13
6.116000
 23
1.988800
  0
POLYLINE
  8
0
  6
CONTINUOUS
 66
     1
 40
0.000000
 41
0.000000
  0
VERTEX
  8
0
  6
CONTINUOUS
 10
6.081680
 20
1.275120
  0
VERTEX
  8
0
  6
CONTINUOUS
 10
6.083880
 20
2.012560
  0
VERTEX
  8
0
  6
CONTINUOUS
 10
6.116000
 20
1.988800
  0
VERTEX
  8
0
  6
CONTINUOUS
 10
6.113800
 20
1.251360
  0
VERTEX
  8
0
  6
CONTINUOUS
 10
6.081680
 20
1.275120
  0
SEQEND
  8
0
  0
SOLID
  8
0
 62
    15
 10
6.113800
 20
1.251360
 11
6.116000
 21
1.988800
 12
6.145920
 22
1.232880
 13
6.148120
 23
1.970320
  0
POLYLINE
  8
0
  6
CONTINUOUS
 66
     1
 40
0.000000
 41
0.000000
  0
VERTEX
  8
0
  6
CONTINUOUS
 10
6.113800
 20
1.251360
  0
VERTEX
  8
0
  6
CONTINUOUS
 10
6.116000
 20
1.988800
  0
VERTEX
  8
0
  6
CONTINUOUS
 10
6.148120
 20
1.970320
  0
VERTEX
  8
0
  6
CONTINUOUS
 10
6.145920
 20
1.232880
  0
VERTEX
  8
0
  6
CONTINUOUS
 10
6.113800
 20
1.251360
  0
SEQEND
  8
0
  0
SOLID
  8
0
 62
    15
 10
6.145920
 20
1.232880
 11
6.148120
 21
1.970320
 12
6.178040
 22
1.219680
 13
6.179800
 23
1.957120
  0
POLYLINE
  8
0
  6
CONTINUOUS
 66
     1
 40
0.000000
 41
0.000000
  0
VERTEX
  8
0
  6
CONTINUOUS
 10
6.145920
 20
1.232880
  0
VERTEX
  8
0
  6
CONTINUOUS
 10
6.148120
 20
1.970320
  0
VERTEX
  8
0
  6
CONTINUOUS
 10
6.179800
 20
1.957120
  0
VERTEX
  8
0
  6
CONTINUOUS
 10
6.178040
 20
1.219680
  0
VERTEX
  8
0
  6
CONTINUOUS
 10
6.145920
 20
1.232880
  0
SEQEND
  8
0
  0
SOLID
  8
0
 62
    15
 10
6.178040
 20
1.219680
 11
6.179800
 21
1.957120
 12
6.209280
 22
1.211760
 13
6.211480
 23
1.948760
  0
POLYLINE
  8
0
  6
CONTINUOUS
 66
     1
 40
0.000000
 41
0.000000
  0
VERTEX
  8
0
  6
CONTINUOUS
 10
6.178040
 20
1.219680
  0
VERTEX
  8
0
  6
CONTINUOUS
 10
6.179800
 20
1.957120
  0
VERTEX
  8
0
  6
CONTINUOUS
 10
6.211480
 20
1.948760
  0
VERTEX
  8
0
  6
CONTINUOUS
 10
6.209280
 20
1.211760
  0
VERTEX
  8
0
  6
CONTINUOUS
 10
6.178040
 20
1.219680
  0
SEQEND
  8
0
  0
SOLID
  8
0
 62
    15
 10
6.209280
 20
1.211760
 11
6.211480
 21
1.948760
 12
6.240080
 22
1.208240
 13
6.242280
 23
1.945680
  0
POLYLINE
  8
0
  6
CONTINUOUS
 66
     1
 40
0.000000
 41
0.000000
  0
VERTEX
  8
0
  6
CONTINUOUS
 10
6.209280
 20
1.211760
  0
VERTEX
  8
0
  6
CONTINUOUS
 10
6.211480
 20
1.948760
  0
VERTEX
  8
0
  6
CONTINUOUS
 10
6.242280
 20
1.945680
  0
VERTEX
  8
0
  6
CONTINUOUS
 10
6.240080
 20
1.208240
  0
VERTEX
  8
0
  6
CONTINUOUS
 10
6.209280
 20
1.211760
  0
SEQEND
  8
0
  0
SOLID
  8
0
 62
    15
 10
6.240080
 20
1.208240
 11
6.242280
 21
1.945680
 12
6.270000
 22
1.210000
 13
6.272200
 23
1.947000
  0
POLYLINE
  8
0
  6
CONTINUOUS
 66
     1
 40
0.000000
 41
0.000000
  0
VERTEX
  8
0
  6
CONTINUOUS
 10
6.240080
 20
1.208240
  0
VERTEX
  8
0
  6
CONTINUOUS
 10
6.242280
 20
1.945680
  0
VERTEX
  8
0
  6
CONTINUOUS
 10
6.272200
 20
1.947000
  0
VERTEX
  8
0
  6
CONTINUOUS
 10
6.270000
 20
1.210000
  0
VERTEX
  8
0
  6
CONTINUOUS
 10
6.240080
 20
1.208240
  0
SEQEND
  8
0
  0
SOLID
  8
0
 62
    15
 10
6.270000
 20
1.210000
 11
6.272200
 21
1.947000
 12
6.299480
 22
1.216160
 13
6.301680
 23
1.953160
  0
POLYLINE
  8
0
  6
CONTINUOUS
 66
     1
 40
0.000000
 41
0.000000
  0
VERTEX
  8
0
  6
CONTINUOUS
 10
6.270000
 20
1.210000
  0
VERTEX
  8
0
  6
CONTINUOUS
 10
6.272200
 20
1.947000
  0
VERTEX
  8
0
  6
CONTINUOUS
 10
6.301680
 20
1.953160
  0
VERTEX
  8
0
  6
CONTINUOUS
 10
6.299480
 20
1.216160
  0
VERTEX
  8
0
  6
CONTINUOUS
 10
6.270000
 20
1.210000
  0
SEQEND
  8
0
  0
SOLID
  8
0
 62
    15
 10
6.299480
 20
1.216160
 11
6.301680
 21
1.953160
 12
6.327640
 22
1.226720
 13
6.329840
 23
1.964160
  0
POLYLINE
  8
0
  6
CONTINUOUS
 66
     1
 40
0.000000
 41
0.000000
  0
VERTEX
  8
0
  6
CONTINUOUS
 10
6.299480
 20
1.216160
  0
VERTEX
  8
0
  6
CONTINUOUS
 10
6.301680
 20
1.953160
  0
VERTEX
  8
0
  6
CONTINUOUS
 10
6.329840
 20
1.964160
  0
VERTEX
  8
0
  6
CONTINUOUS
 10
6.327640
 20
1.226720
  0
VERTEX
  8
0
  6
CONTINUOUS
 10
6.299480
 20
1.216160
  0
SEQEND
  8
0
  0
SOLID
  8
0
 62
    15
 10
3.821840
 20
1.757800
 11
3.824040
 21
2.494800
 12
4.856720
 22
1.757800
 13
4.858920
 23
2.494800
  0
POLYLINE
  8
0
  6
CONTINUOUS
 66
     1
 40
0.000000
 41
0.000000
  0
VERTEX
  8
0
  6
CONTINUOUS
 10
3.821840
 20
1.757800
  0
VERTEX
  8
0
  6
CONTINUOUS
 10
3.824040
 20
2.494800
  0
VERTEX
  8
0
  6
CONTINUOUS
 10
4.858920
 20
2.494800
  0
VERTEX
  8
0
  6
CONTINUOUS
 10
4.856720
 20
1.757800
  0
VERTEX
  8
0
  6
CONTINUOUS
 10
3.821840
 20
1.757800
  0
SEQEND
  8
0
  0
SOLID
  8
0
 62
    15
 10
6.354920
 20
1.241680
 11
6.357120
 21
1.979120
 12
6.380880
 22
1.261480
 13
6.383080
 23
1.998480
  0
POLYLINE
  8
0
  6
CONTINUOUS
 66
     1
 40
0.000000
 41
0.000000
  0
VERTEX
  8
0
  6
CONTINUOUS
 10
6.354920
 20
1.241680
  0
VERTEX
  8
0
  6
CONTINUOUS
 10
6.357120
 20
1.979120
  0
VERTEX
  8
0
  6
CONTINUOUS
 10
6.383080
 20
1.998480
  0
VERTEX
  8
0
  6
CONTINUOUS
 10
6.380880
 20
1.261480
  0
VERTEX
  8
0
  6
CONTINUOUS
 10
6.354920
 20
1.241680
  0
SEQEND
  8
0
  0
SOLID
  8
0
 62
    15
 10
6.380880
 20
1.261480
 11
6.383080
 21
1.998480
 12
6.405080
 22
1.284800
 13
6.407280
 23
2.022240
  0
POLYLINE
  8
0
  6
CONTINUOUS
 66
     1
 40
0.000000
 41
0.000000
  0
VERTEX
  8
0
  6
CONTINUOUS
 10
6.380880
 20
1.261480
  0
VERTEX
  8
0
  6
CONTINUOUS
 10
6.383080
 20
1.998480
  0
VERTEX
  8
0
  6
CONTINUOUS
 10
6.407280
 20
2.022240
  0
VERTEX
  8
0
  6
CONTINUOUS
 10
6.405080
 20
1.284800
  0
VERTEX
  8
0
  6
CONTINUOUS
 10
6.380880
 20
1.261480
  0
SEQEND
  8
0
  0
SOLID
  8
0
 62
    15
 10
6.405080
 20
1.284800
 11
6.407280
 21
2.022240
 12
6.427960
 22
1.312520
 13
6.430160
 23
2.049960
  0
POLYLINE
  8
0
  6
CONTINUOUS
 66
     1
 40
0.000000
 41
0.000000
  0
VERTEX
  8
0
  6
CONTINUOUS
 10
6.405080
 20
1.284800
  0
VERTEX
  8
0
  6
CONTINUOUS
 10
6.407280
 20
2.022240
  0
VERTEX
  8
0
  6
CONTINUOUS
 10
6.430160
 20
2.049960
  0
VERTEX
  8
0
  6
CONTINUOUS
 10
6.427960
 20
1.312520
  0
VERTEX
  8
0
  6
CONTINUOUS
 10
6.405080
 20
1.284800
  0
SEQEND
  8
0
  0
SOLID
  8
0
 62
    15
 10
6.427960
 20
1.312520
 11
6.430160
 21
2.049960
 12
6.449520
 22
1.344200
 13
6.451280
 23
2.081200
  0
POLYLINE
  8
0
  6
CONTINUOUS
 66
     1
 40
0.000000
 41
0.000000
  0
VERTEX
  8
0
  6
CONTINUOUS
 10
6.427960
 20
1.312520
  0
VERTEX
  8
0
  6
CONTINUOUS
 10
6.430160
 20
2.049960
  0
VERTEX
  8
0
  6
CONTINUOUS
 10
6.451280
 20
2.081200
  0
VERTEX
  8
0
  6
CONTINUOUS
 10
6.449520
 20
1.344200
  0
VERTEX
  8
0
  6
CONTINUOUS
 10
6.427960
 20
1.312520
  0
SEQEND
  8
0
  0
SOLID
  8
0
 62
    15
 10
6.449520
 20
1.344200
 11
6.451280
 21
2.081200
 12
6.468880
 22
1.379400
 13
6.470640
 23
2.116840
  0
POLYLINE
  8
0
  6
CONTINUOUS
 66
     1
 40
0.000000
 41
0.000000
  0
VERTEX
  8
0
  6
CONTINUOUS
 10
6.449520
 20
1.344200
  0
VERTEX
  8
0
  6
CONTINUOUS
 10
6.451280
 20
2.081200
  0
VERTEX
  8
0
  6
CONTINUOUS
 10
6.470640
 20
2.116840
  0
VERTEX
  8
0
  6
CONTINUOUS
 10
6.468880
 20
1.379400
  0
VERTEX
  8
0
  6
CONTINUOUS
 10
6.449520
 20
1.344200
  0
SEQEND
  8
0
  0
SOLID
  8
0
 62
    15
 10
6.468880
 20
1.379400
 11
6.470640
 21
2.116840
 12
6.486040
 22
1.418120
 13
6.488240
 23
2.155560
  0
POLYLINE
  8
0
  6
CONTINUOUS
 66
     1
 40
0.000000
 41
0.000000
  0
VERTEX
  8
0
  6
CONTINUOUS
 10
6.468880
 20
1.379400
  0
VERTEX
  8
0
  6
CONTINUOUS
 10
6.470640
 20
2.116840
  0
VERTEX
  8
0
  6
CONTINUOUS
 10
6.488240
 20
2.155560
  0
VERTEX
  8
0
  6
CONTINUOUS
 10
6.486040
 20
1.418120
  0
VERTEX
  8
0
  6
CONTINUOUS
 10
6.468880
 20
1.379400
  0
SEQEND
  8
0
  0
SOLID
  8
0
 62
    15
 10
6.486040
 20
1.418120
 11
6.488240
 21
2.155560
 12
6.743880
 22
1.418120
 13
6.746080
 23
2.155560
  0
POLYLINE
  8
0
  6
CONTINUOUS
 66
     1
 40
0.000000
 41
0.000000
  0
VERTEX
  8
0
  6
CONTINUOUS
 10
6.486040
 20
1.418120
  0
VERTEX
  8
0
  6
CONTINUOUS
 10
6.488240
 20
2.155560
  0
VERTEX
  8
0
  6
CONTINUOUS
 10
6.746080
 20
2.155560
  0
VERTEX
  8
0
  6
CONTINUOUS
 10
6.743880
 20
1.418120
  0
VERTEX
  8
0
  6
CONTINUOUS
 10
6.486040
 20
1.418120
  0
SEQEND
  8
0
  0
SOLID
  8
0
 62
    15
 10
6.743880
 20
1.418120
 11
6.746080
 21
2.155560
 12
6.743880
 22
1.418120
 13
6.744320
 23
1.418120
  0
POLYLINE
  8
0
  6
CONTINUOUS
 66
     1
 40
0.000000
 41
0.000000
  0
VERTEX
  8
0
  6
CONTINUOUS
 10
6.743880
 20
1.418120
  0
VERTEX
  8
0
  6
CONTINUOUS
 10
6.746080
 20
2.155560
  0
VERTEX
  8
0
  6
CONTINUOUS
 10
6.744320
 20
1.418120
  0
VERTEX
  8
0
  6
CONTINUOUS
 10
6.743880
 20
1.418120
  0
SEQEND
  8
0
  0
SOLID
  8
0
 62
    15
 10
6.744320
 20
1.418120
 11
6.746080
 21
2.155560
 12
6.753560
 22
1.460800
 13
6.755760
 23
2.197800
  0
POLYLINE
  8
0
  6
CONTINUOUS
 66
     1
 40
0.000000
 41
0.000000
  0
VERTEX
  8
0
  6
CONTINUOUS
 10
6.744320
 20
1.418120
  0
VERTEX
  8
0
  6
CONTINUOUS
 10
6.746080
 20
2.155560
  0
VERTEX
  8
0
  6
CONTINUOUS
 10
6.755760
 20
2.197800
  0
VERTEX
  8
0
  6
CONTINUOUS
 10
6.753560
 20
1.460800
  0
VERTEX
  8
0
  6
CONTINUOUS
 10
6.744320
 20
1.418120
  0
SEQEND
  8
0
  0
SOLID
  8
0
 62
    15
 10
6.753560
 20
1.460800
 11
6.755760
 21
2.197800
 12
6.770720
 22
1.499960
 13
6.772920
 23
2.237400
  0
POLYLINE
  8
0
  6
CONTINUOUS
 66
     1
 40
0.000000
 41
0.000000
  0
VERTEX
  8
0
  6
CONTINUOUS
 10
6.753560
 20
1.460800
  0
VERTEX
  8
0
  6
CONTINUOUS
 10
6.755760
 20
2.197800
  0
VERTEX
  8
0
  6
CONTINUOUS
 10
6.772920
 20
2.237400
  0
VERTEX
  8
0
  6
CONTINUOUS
 10
6.770720
 20
1.499960
  0
VERTEX
  8
0
  6
CONTINUOUS
 10
6.753560
 20
1.460800
  0
SEQEND
  8
0
  0
SOLID
  8
0
 62
    15
 10
6.770720
 20
1.499960
 11
6.772920
 21
2.237400
 12
6.794480
 22
1.535160
 13
6.796680
 23
2.272600
  0
POLYLINE
  8
0
  6
CONTINUOUS
 66
     1
 40
0.000000
 41
0.000000
  0
VERTEX
  8
0
  6
CONTINUOUS
 10
6.770720
 20
1.499960
  0
VERTEX
  8
0
  6
CONTINUOUS
 10
6.772920
 20
2.237400
  0
VERTEX
  8
0
  6
CONTINUOUS
 10
6.796680
 20
2.272600
  0
VERTEX
  8
0
  6
CONTINUOUS
 10
6.794480
 20
1.535160
  0
VERTEX
  8
0
  6
CONTINUOUS
 10
6.770720
 20
1.499960
  0
SEQEND
  8
0
  0
SOLID
  8
0
 62
    15
 10
6.794480
 20
1.535160
 11
6.796680
 21
2.272600
 12
6.824400
 22
1.565960
 13
6.826160
 23
2.302960
  0
POLYLINE
  8
0
  6
CONTINUOUS
 66
     1
 40
0.000000
 41
0.000000
  0
VERTEX
  8
0
  6
CONTINUOUS
 10
6.794480
 20
1.535160
  0
VERTEX
  8
0
  6
CONTINUOUS
 10
6.796680
 20
2.272600
  0
VERTEX
  8
0
  6
CONTINUOUS
 10
6.826160
 20
2.302960
  0
VERTEX
  8
0
  6
CONTINUOUS
 10
6.824400
 20
1.565960
  0
VERTEX
  8
0
  6
CONTINUOUS
 10
6.794480
 20
1.535160
  0
SEQEND
  8
0
  0
SOLID
  8
0
 62
    15
 10
6.824400
 20
1.565960
 11
6.826160
 21
2.302960
 12
6.858720
 22
1.591040
 13
6.860920
 23
2.328040
  0
POLYLINE
  8
0
  6
CONTINUOUS
 66
     1
 40
0.000000
 41
0.000000
  0
VERTEX
  8
0
  6
CONTINUOUS
 10
6.824400
 20
1.565960
  0
VERTEX
  8
0
  6
CONTINUOUS
 10
6.826160
 20
2.302960
  0
VERTEX
  8
0
  6
CONTINUOUS
 10
6.860920
 20
2.328040
  0
VERTEX
  8
0
  6
CONTINUOUS
 10
6.858720
 20
1.591040
  0
VERTEX
  8
0
  6
CONTINUOUS
 10
6.824400
 20
1.565960
  0
SEQEND
  8
0
  0
SOLID
  8
0
 62
    15
 10
6.858720
 20
1.591040
 11
6.860920
 21
2.328040
 12
6.897440
 22
1.609960
 13
6.899640
 23
2.346960
  0
POLYLINE
  8
0
  6
CONTINUOUS
 66
     1
 40
0.000000
 41
0.000000
  0
VERTEX
  8
0
  6
CONTINUOUS
 10
6.858720
 20
1.591040
  0
VERTEX
  8
0
  6
CONTINUOUS
 10
6.860920
 20
2.328040
  0
VERTEX
  8
0
  6
CONTINUOUS
 10
6.899640
 20
2.346960
  0
VERTEX
  8
0
  6
CONTINUOUS
 10
6.897440
 20
1.609960
  0
VERTEX
  8
0
  6
CONTINUOUS
 10
6.858720
 20
1.591040
  0
SEQEND
  8
0
  0
SOLID
  8
0
 62
    15
 10
6.897440
 20
1.609960
 11
6.899640
 21
2.346960
 12
6.939680
 22
1.621840
 13
6.941880
 23
2.358840
  0
POLYLINE
  8
0
  6
CONTINUOUS
 66
     1
 40
0.000000
 41
0.000000
  0
VERTEX
  8
0
  6
CONTINUOUS
 10
6.897440
 20
1.609960
  0
VERTEX
  8
0
  6
CONTINUOUS
 10
6.899640
 20
2.346960
  0
VERTEX
  8
0
  6
CONTINUOUS
 10
6.941880
 20
2.358840
  0
VERTEX
  8
0
  6
CONTINUOUS
 10
6.939680
 20
1.621840
  0
VERTEX
  8
0
  6
CONTINUOUS
 10
6.897440
 20
1.609960
  0
SEQEND
  8
0
  0
SOLID
  8
0
 62
    15
 10
6.939680
 20
1.621840
 11
6.941880
 21
2.358840
 12
6.984120
 22
1.625800
 13
6.986320
 23
2.363240
  0
POLYLINE
  8
0
  6
CONTINUOUS
 66
     1
 40
0.000000
 41
0.000000
  0
VERTEX
  8
0
  6
CONTINUOUS
 10
6.939680
 20
1.621840
  0
VERTEX
  8
0
  6
CONTINUOUS
 10
6.941880
 20
2.358840
  0
VERTEX
  8
0
  6
CONTINUOUS
 10
6.986320
 20
2.363240
  0
VERTEX
  8
0
  6
CONTINUOUS
 10
6.984120
 20
1.625800
  0
VERTEX
  8
0
  6
CONTINUOUS
 10
6.939680
 20
1.621840
  0
SEQEND
  8
0
  0
SOLID
  8
0
 62
    15
 10
6.984120
 20
1.625800
 11
6.986320
 21
2.363240
 12
7.028560
 22
1.621840
 13
7.030320
 23
2.358840
  0
POLYLINE
  8
0
  6
CONTINUOUS
 66
     1
 40
0.000000
 41
0.000000
  0
VERTEX
  8
0
  6
CONTINUOUS
 10
6.984120
 20
1.625800
  0
VERTEX
  8
0
  6
CONTINUOUS
 10
6.986320
 20
2.363240
  0
VERTEX
  8
0
  6
CONTINUOUS
 10
7.030320
 20
2.358840
  0
VERTEX
  8
0
  6
CONTINUOUS
 10
7.028560
 20
1.621840
  0
VERTEX
  8
0
  6
CONTINUOUS
 10
6.984120
 20
1.625800
  0
SEQEND
  8
0
  0
SOLID
  8
0
 62
    15
 10
7.028560
 20
1.621840
 11
7.030320
 21
2.358840
 12
7.069920
 22
1.609960
 13
7.072120
 23
2.346960
  0
POLYLINE
  8
0
  6
CONTINUOUS
 66
     1
 40
0.000000
 41
0.000000
  0
VERTEX
  8
0
  6
CONTINUOUS
 10
7.028560
 20
1.621840
  0
VERTEX
  8
0
  6
CONTINUOUS
 10
7.030320
 20
2.358840
  0
VERTEX
  8
0
  6
CONTINUOUS
 10
7.072120
 20
2.346960
  0
VERTEX
  8
0
  6
CONTINUOUS
 10
7.069920
 20
1.609960
  0
VERTEX
  8
0
  6
CONTINUOUS
 10
7.028560
 20
1.621840
  0
SEQEND
  8
0
  0
SOLID
  8
0
 62
    15
 10
7.069920
 20
1.609960
 11
7.072120
 21
2.346960
 12
7.108200
 22
1.590600
 13
7.109960
 23
2.328040
  0
POLYLINE
  8
0
  6
CONTINUOUS
 66
     1
 40
0.000000
 41
0.000000
  0
VERTEX
  8
0
  6
CONTINUOUS
 10
7.069920
 20
1.609960
  0
VERTEX
  8
0
  6
CONTINUOUS
 10
7.072120
 20
2.346960
  0
VERTEX
  8
0
  6
CONTINUOUS
 10
7.109960
 20
2.328040
  0
VERTEX
  8
0
  6
CONTINUOUS
 10
7.108200
 20
1.590600
  0
VERTEX
  8
0
  6
CONTINUOUS
 10
7.069920
 20
1.609960
  0
SEQEND
  8
0
  0
SOLID
  8
0
 62
    15
 10
7.108200
 20
1.590600
 11
7.109960
 21
2.328040
 12
7.141640
 22
1.565520
 13
7.143840
 23
2.302960
  0
POLYLINE
  8
0
  6
CONTINUOUS
 66
     1
 40
0.000000
 41
0.000000
  0
VERTEX
  8
0
  6
CONTINUOUS
 10
7.108200
 20
1.590600
  0
VERTEX
  8
0
  6
CONTINUOUS
 10
7.109960
 20
2.328040
  0
VERTEX
  8
0
  6
CONTINUOUS
 10
7.143840
 20
2.302960
  0
VERTEX
  8
0
  6
CONTINUOUS
 10
7.141640
 20
1.565520
  0
VERTEX
  8
0
  6
CONTINUOUS
 10
7.108200
 20
1.590600
  0
SEQEND
  8
0
  0
SOLID
  8
0
 62
    15
 10
7.141640
 20
1.565520
 11
7.143840
 21
2.302960
 12
7.170680
 22
1.535160
 13
7.172880
 23
2.272160
  0
POLYLINE
  8
0
  6
CONTINUOUS
 66
     1
 40
0.000000
 41
0.000000
  0
VERTEX
  8
0
  6
CONTINUOUS
 10
7.141640
 20
1.565520
  0
VERTEX
  8
0
  6
CONTINUOUS
 10
7.143840
 20
2.302960
  0
VERTEX
  8
0
  6
CONTINUOUS
 10
7.172880
 20
2.272160
  0
VERTEX
  8
0
  6
CONTINUOUS
 10
7.170680
 20
1.535160
  0
VERTEX
  8
0
  6
CONTINUOUS
 10
7.141640
 20
1.565520
  0
SEQEND
  8
0
  0
SOLID
  8
0
 62
    15
 10
7.170680
 20
1.535160
 11
7.172880
 21
2.272160
 12
7.193560
 22
1.499520
 13
7.195760
 23
2.236960
  0
POLYLINE
  8
0
  6
CONTINUOUS
 66
     1
 40
0.000000
 41
0.000000
  0
VERTEX
  8
0
  6
CONTINUOUS
 10
7.170680
 20
1.535160
  0
VERTEX
  8
0
  6
CONTINUOUS
 10
7.172880
 20
2.272160
  0
VERTEX
  8
0
  6
CONTINUOUS
 10
7.195760
 20
2.236960
  0
VERTEX
  8
0
  6
CONTINUOUS
 10
7.193560
 20
1.499520
  0
VERTEX
  8
0
  6
CONTINUOUS
 10
7.170680
 20
1.535160
  0
SEQEND
  8
0
  0
POLYLINE
  8
0
  6
CONTINUOUS
 66
     1
 40
0.000000
 41
0.000000
  0
VERTEX
  8
0
  6
CONTINUOUS
 10
7.219520
 20
1.417240
  0
VERTEX
  8
0
  6
CONTINUOUS
 10
7.221720
 20
2.154680
  0
VERTEX
  8
0
  6
CONTINUOUS
 10
7.219520
 20
1.417240
  0
SEQEND
  8
0
  0
SOLID
  8
0
 62
    15
 10
7.210280
 20
1.459920
 11
7.212040
 21
2.197360
 12
7.219520
 22
1.417240
 13
7.221720
 23
2.154680
  0
POLYLINE
  8
0
  6
CONTINUOUS
 66
     1
 40
0.000000
 41
0.000000
  0
VERTEX
  8
0
  6
CONTINUOUS
 10
7.210280
 20
1.459920
  0
VERTEX
  8
0
  6
CONTINUOUS
 10
7.212040
 20
2.197360
  0
VERTEX
  8
0
  6
CONTINUOUS
 10
7.221720
 20
2.154680
  0
VERTEX
  8
0
  6
CONTINUOUS
 10
7.219520
 20
1.417240
  0
VERTEX
  8
0
  6
CONTINUOUS
 10
7.210280
 20
1.459920
  0
SEQEND
  8
0
  0
SOLID
  8
0
 62
    15
 10
7.193560
 20
1.499520
 11
7.195760
 21
2.236960
 12
7.210280
 22
1.459920
 13
7.212040
 23
2.197360
  0
POLYLINE
  8
0
  6
CONTINUOUS
 66
     1
 40
0.000000
 41
0.000000
  0
VERTEX
  8
0
  6
CONTINUOUS
 10
7.193560
 20
1.499520
  0
VERTEX
  8
0
  6
CONTINUOUS
 10
7.195760
 20
2.236960
  0
VERTEX
  8
0
  6
CONTINUOUS
 10
7.212040
 20
2.197360
  0
VERTEX
  8
0
  6
CONTINUOUS
 10
7.210280
 20
1.459920
  0
VERTEX
  8
0
  6
CONTINUOUS
 10
7.193560
 20
1.499520
  0
SEQEND
  8
0
  0
SOLID
  8
0
 62
    15
 10
7.219520
 20
1.417240
 11
7.221720
 21
2.154680
 12
7.504200
 22
1.417240
 13
7.506400
 23
2.154680
  0
POLYLINE
  8
0
  6
CONTINUOUS
 66
     1
 40
0.000000
 41
0.000000
  0
VERTEX
  8
0
  6
CONTINUOUS
 10
7.219520
 20
1.417240
  0
VERTEX
  8
0
  6
CONTINUOUS
 10
7.221720
 20
2.154680
  0
VERTEX
  8
0
  6
CONTINUOUS
 10
7.506400
 20
2.154680
  0
VERTEX
  8
0
  6
CONTINUOUS
 10
7.504200
 20
1.417240
  0
VERTEX
  8
0
  6
CONTINUOUS
 10
7.219520
 20
1.417240
  0
SEQEND
  8
0
  0
SOLID
  8
0
 62
    15
 10
7.504200
 20
1.417240
 11
7.506400
 21
2.154680
 12
7.531920
 22
1.397000
 13
7.534120
 23
2.134000
  0
POLYLINE
  8
0
  6
CONTINUOUS
 66
     1
 40
0.000000
 41
0.000000
  0
VERTEX
  8
0
  6
CONTINUOUS
 10
7.504200
 20
1.417240
  0
VERTEX
  8
0
  6
CONTINUOUS
 10
7.506400
 20
2.154680
  0
VERTEX
  8
0
  6
CONTINUOUS
 10
7.534120
 20
2.134000
  0
VERTEX
  8
0
  6
CONTINUOUS
 10
7.531920
 20
1.397000
  0
VERTEX
  8
0
  6
CONTINUOUS
 10
7.504200
 20
1.417240
  0
SEQEND
  8
0
  0
SOLID
  8
0
 62
    15
 10
7.531920
 20
1.397000
 11
7.534120
 21
2.134000
 12
7.567560
 22
1.380280
 13
7.569760
 23
2.117720
  0
POLYLINE
  8
0
  6
CONTINUOUS
 66
     1
 40
0.000000
 41
0.000000
  0
VERTEX
  8
0
  6
CONTINUOUS
 10
7.531920
 20
1.397000
  0
VERTEX
  8
0
  6
CONTINUOUS
 10
7.534120
 20
2.134000
  0
VERTEX
  8
0
  6
CONTINUOUS
 10
7.569760
 20
2.117720
  0
VERTEX
  8
0
  6
CONTINUOUS
 10
7.567560
 20
1.380280
  0
VERTEX
  8
0
  6
CONTINUOUS
 10
7.531920
 20
1.397000
  0
SEQEND
  8
0
  0
SOLID
  8
0
 62
    15
 10
7.567560
 20
1.380280
 11
7.569760
 21
2.117720
 12
7.609360
 22
1.367080
 13
7.611560
 23
2.104520
  0
POLYLINE
  8
0
  6
CONTINUOUS
 66
     1
 40
0.000000
 41
0.000000
  0
VERTEX
  8
0
  6
CONTINUOUS
 10
7.567560
 20
1.380280
  0
VERTEX
  8
0
  6
CONTINUOUS
 10
7.569760
 20
2.117720
  0
VERTEX
  8
0
  6
CONTINUOUS
 10
7.611560
 20
2.104520
  0
VERTEX
  8
0
  6
CONTINUOUS
 10
7.609360
 20
1.367080
  0
VERTEX
  8
0
  6
CONTINUOUS
 10
7.567560
 20
1.380280
  0
SEQEND
  8
0
  0
SOLID
  8
0
 62
    15
 10
7.609360
 20
1.367080
 11
7.611560
 21
2.104520
 12
7.654680
 22
1.356520
 13
7.656440
 23
2.093520
  0
POLYLINE
  8
0
  6
CONTINUOUS
 66
     1
 40
0.000000
 41
0.000000
  0
VERTEX
  8
0
  6
CONTINUOUS
 10
7.609360
 20
1.367080
  0
VERTEX
  8
0
  6
CONTINUOUS
 10
7.611560
 20
2.104520
  0
VERTEX
  8
0
  6
CONTINUOUS
 10
7.656440
 20
2.093520
  0
VERTEX
  8
0
  6
CONTINUOUS
 10
7.654680
 20
1.356520
  0
VERTEX
  8
0
  6
CONTINUOUS
 10
7.609360
 20
1.367080
  0
SEQEND
  8
0
  0
SOLID
  8
0
 62
    15
 10
7.654680
 20
1.356520
 11
7.656440
 21
2.093520
 12
7.745760
 22
1.339800
 13
7.747960
 23
2.077240
  0
POLYLINE
  8
0
  6
CONTINUOUS
 66
     1
 40
0.000000
 41
0.000000
  0
VERTEX
  8
0
  6
CONTINUOUS
 10
7.654680
 20
1.356520
  0
VERTEX
  8
0
  6
CONTINUOUS
 10
7.656440
 20
2.093520
  0
VERTEX
  8
0
  6
CONTINUOUS
 10
7.747960
 20
2.077240
  0
VERTEX
  8
0
  6
CONTINUOUS
 10
7.745760
 20
1.339800
  0
VERTEX
  8
0
  6
CONTINUOUS
 10
7.654680
 20
1.356520
  0
SEQEND
  8
0
  0
SOLID
  8
0
 62
    15
 10
7.745760
 20
1.339800
 11
7.747960
 21
2.077240
 12
7.787560
 22
1.332760
 13
7.789320
 23
2.069760
  0
POLYLINE
  8
0
  6
CONTINUOUS
 66
     1
 40
0.000000
 41
0.000000
  0
VERTEX
  8
0
  6
CONTINUOUS
 10
7.745760
 20
1.339800
  0
VERTEX
  8
0
  6
CONTINUOUS
 10
7.747960
 20
2.077240
  0
VERTEX
  8
0
  6
CONTINUOUS
 10
7.789320
 20
2.069760
  0
VERTEX
  8
0
  6
CONTINUOUS
 10
7.787560
 20
1.332760
  0
VERTEX
  8
0
  6
CONTINUOUS
 10
7.745760
 20
1.339800
  0
SEQEND
  8
0
  0
SOLID
  8
0
 62
    15
 10
7.787560
 20
1.332760
 11
7.789320
 21
2.069760
 12
7.823200
 22
1.324840
 13
7.824960
 23
2.062280
  0
POLYLINE
  8
0
  6
CONTINUOUS
 66
     1
 40
0.000000
 41
0.000000
  0
VERTEX
  8
0
  6
CONTINUOUS
 10
7.787560
 20
1.332760
  0
VERTEX
  8
0
  6
CONTINUOUS
 10
7.789320
 20
2.069760
  0
VERTEX
  8
0
  6
CONTINUOUS
 10
7.824960
 20
2.062280
  0
VERTEX
  8
0
  6
CONTINUOUS
 10
7.823200
 20
1.324840
  0
VERTEX
  8
0
  6
CONTINUOUS
 10
7.787560
 20
1.332760
  0
SEQEND
  8
0
  0
SOLID
  8
0
 62
    15
 10
7.823200
 20
1.324840
 11
7.824960
 21
2.062280
 12
7.857080
 22
1.315600
 13
7.859280
 23
2.053040
  0
POLYLINE
  8
0
  6
CONTINUOUS
 66
     1
 40
0.000000
 41
0.000000
  0
VERTEX
  8
0
  6
CONTINUOUS
 10
7.823200
 20
1.324840
  0
VERTEX
  8
0
  6
CONTINUOUS
 10
7.824960
 20
2.062280
  0
VERTEX
  8
0
  6
CONTINUOUS
 10
7.859280
 20
2.053040
  0
VERTEX
  8
0
  6
CONTINUOUS
 10
7.857080
 20
1.315600
  0
VERTEX
  8
0
  6
CONTINUOUS
 10
7.823200
 20
1.324840
  0
SEQEND
  8
0
  0
SOLID
  8
0
 62
    15
 10
7.857080
 20
1.315600
 11
7.859280
 21
2.053040
 12
7.894480
 22
1.302400
 13
7.896680
 23
2.039840
  0
POLYLINE
  8
0
  6
CONTINUOUS
 66
     1
 40
0.000000
 41
0.000000
  0
VERTEX
  8
0
  6
CONTINUOUS
 10
7.857080
 20
1.315600
  0
VERTEX
  8
0
  6
CONTINUOUS
 10
7.859280
 20
2.053040
  0
VERTEX
  8
0
  6
CONTINUOUS
 10
7.896680
 20
2.039840
  0
VERTEX
  8
0
  6
CONTINUOUS
 10
7.894480
 20
1.302400
  0
VERTEX
  8
0
  6
CONTINUOUS
 10
7.857080
 20
1.315600
  0
SEQEND
  8
0
  0
SOLID
  8
0
 62
    15
 10
7.894480
 20
1.302400
 11
7.896680
 21
2.039840
 12
7.932760
 22
1.282160
 13
7.934960
 23
2.019160
  0
POLYLINE
  8
0
  6
CONTINUOUS
 66
     1
 40
0.000000
 41
0.000000
  0
VERTEX
  8
0
  6
CONTINUOUS
 10
7.894480
 20
1.302400
  0
VERTEX
  8
0
  6
CONTINUOUS
 10
7.896680
 20
2.039840
  0
VERTEX
  8
0
  6
CONTINUOUS
 10
7.934960
 20
2.019160
  0
VERTEX
  8
0
  6
CONTINUOUS
 10
7.932760
 20
1.282160
  0
VERTEX
  8
0
  6
CONTINUOUS
 10
7.894480
 20
1.302400
  0
SEQEND
  8
0
  0
SOLID
  8
0
 62
    15
 10
7.932760
 20
1.282160
 11
7.934960
 21
2.019160
 12
7.969280
 22
1.251360
 13
7.971480
 23
1.988800
  0
POLYLINE
  8
0
  6
CONTINUOUS
 66
     1
 40
0.000000
 41
0.000000
  0
VERTEX
  8
0
  6
CONTINUOUS
 10
7.932760
 20
1.282160
  0
VERTEX
  8
0
  6
CONTINUOUS
 10
7.934960
 20
2.019160
  0
VERTEX
  8
0
  6
CONTINUOUS
 10
7.971480
 20
1.988800
  0
VERTEX
  8
0
  6
CONTINUOUS
 10
7.969280
 20
1.251360
  0
VERTEX
  8
0
  6
CONTINUOUS
 10
7.932760
 20
1.282160
  0
SEQEND
  8
0
  0
SOLID
  8
0
 62
    15
 10
7.969280
 20
1.251360
 11
7.971480
 21
1.988800
 12
7.986000
 22
1.231560
 13
7.988200
 23
1.968560
  0
POLYLINE
  8
0
  6
CONTINUOUS
 66
     1
 40
0.000000
 41
0.000000
  0
VERTEX
  8
0
  6
CONTINUOUS
 10
7.969280
 20
1.251360
  0
VERTEX
  8
0
  6
CONTINUOUS
 10
7.971480
 20
1.988800
  0
VERTEX
  8
0
  6
CONTINUOUS
 10
7.988200
 20
1.968560
  0
VERTEX
  8
0
  6
CONTINUOUS
 10
7.986000
 20
1.231560
  0
VERTEX
  8
0
  6
CONTINUOUS
 10
7.969280
 20
1.251360
  0
SEQEND
  8
0
  0
SOLID
  8
0
 62
    15
 10
7.986000
 20
1.231560
 11
7.988200
 21
1.968560
 12
8.001840
 22
1.207800
 13
8.004040
 23
1.944800
  0
POLYLINE
  8
0
  6
CONTINUOUS
 66
     1
 40
0.000000
 41
0.000000
  0
VERTEX
  8
0
  6
CONTINUOUS
 10
7.986000
 20
1.231560
  0
VERTEX
  8
0
  6
CONTINUOUS
 10
7.988200
 20
1.968560
  0
VERTEX
  8
0
  6
CONTINUOUS
 10
8.004040
 20
1.944800
  0
VERTEX
  8
0
  6
CONTINUOUS
 10
8.001840
 20
1.207800
  0
VERTEX
  8
0
  6
CONTINUOUS
 10
7.986000
 20
1.231560
  0
SEQEND
  8
0
  0
SOLID
  8
0
 62
    15
 10
8.001840
 20
1.207800
 11
8.004040
 21
1.944800
 12
8.015920
 22
1.179640
 13
8.018120
 23
1.917080
  0
POLYLINE
  8
0
  6
CONTINUOUS
 66
     1
 40
0.000000
 41
0.000000
  0
VERTEX
  8
0
  6
CONTINUOUS
 10
8.001840
 20
1.207800
  0
VERTEX
  8
0
  6
CONTINUOUS
 10
8.004040
 20
1.944800
  0
VERTEX
  8
0
  6
CONTINUOUS
 10
8.018120
 20
1.917080
  0
VERTEX
  8
0
  6
CONTINUOUS
 10
8.015920
 20
1.179640
  0
VERTEX
  8
0
  6
CONTINUOUS
 10
8.001840
 20
1.207800
  0
SEQEND
  8
0
  0
SOLID
  8
0
 62
    15
 10
8.028240
 20
1.147080
 11
8.030000
 21
1.884520
 12
8.037920
 22
1.110120
 13
8.040120
 23
1.847120
  0
POLYLINE
  8
0
  6
CONTINUOUS
 66
     1
 40
0.000000
 41
0.000000
  0
VERTEX
  8
0
  6
CONTINUOUS
 10
8.028240
 20
1.147080
  0
VERTEX
  8
0
  6
CONTINUOUS
 10
8.030000
 20
1.884520
  0
VERTEX
  8
0
  6
CONTINUOUS
 10
8.040120
 20
1.847120
  0
VERTEX
  8
0
  6
CONTINUOUS
 10
8.037920
 20
1.110120
  0
VERTEX
  8
0
  6
CONTINUOUS
 10
8.028240
 20
1.147080
  0
SEQEND
  8
0
  0
SOLID
  8
0
 62
    15
 10
8.015920
 20
1.179640
 11
8.018120
 21
1.917080
 12
8.028240
 22
1.147080
 13
8.030000
 23
1.884520
  0
POLYLINE
  8
0
  6
CONTINUOUS
 66
     1
 40
0.000000
 41
0.000000
  0
VERTEX
  8
0
  6
CONTINUOUS
 10
8.015920
 20
1.179640
  0
VERTEX
  8
0
  6
CONTINUOUS
 10
8.018120
 20
1.917080
  0
VERTEX
  8
0
  6
CONTINUOUS
 10
8.030000
 20
1.884520
  0
VERTEX
  8
0
  6
CONTINUOUS
 10
8.028240
 20
1.147080
  0
VERTEX
  8
0
  6
CONTINUOUS
 10
8.015920
 20
1.179640
  0
SEQEND
  8
0
  0
SOLID
  8
0
 62
    15
 10
8.037920
 20
1.110120
 11
8.040120
 21
1.847120
 12
8.045400
 22
1.067440
 13
8.047600
 23
1.804440
  0
POLYLINE
  8
0
  6
CONTINUOUS
 66
     1
 40
0.000000
 41
0.000000
  0
VERTEX
  8
0
  6
CONTINUOUS
 10
8.037920
 20
1.110120
  0
VERTEX
  8
0
  6
CONTINUOUS
 10
8.040120
 20
1.847120
  0
VERTEX
  8
0
  6
CONTINUOUS
 10
8.047600
 20
1.804440
  0
VERTEX
  8
0
  6
CONTINUOUS
 10
8.045400
 20
1.067440
  0
VERTEX
  8
0
  6
CONTINUOUS
 10
8.037920
 20
1.110120
  0
SEQEND
  8
0
  0
SOLID
  8
0
 62
    15
 10
8.045400
 20
1.067440
 11
8.047600
 21
1.804440
 12
8.050240
 22
1.019040
 13
8.052440
 23
1.756480
  0
POLYLINE
  8
0
  6
CONTINUOUS
 66
     1
 40
0.000000
 41
0.000000
  0
VERTEX
  8
0
  6
CONTINUOUS
 10
8.045400
 20
1.067440
  0
VERTEX
  8
0
  6
CONTINUOUS
 10
8.047600
 20
1.804440
  0
VERTEX
  8
0
  6
CONTINUOUS
 10
8.052440
 20
1.756480
  0
VERTEX
  8
0
  6
CONTINUOUS
 10
8.050240
 20
1.019040
  0
VERTEX
  8
0
  6
CONTINUOUS
 10
8.045400
 20
1.067440
  0
SEQEND
  8
0
  0
SOLID
  8
0
 62
    15
 10
8.050240
 20
1.019040
 11
8.052440
 21
1.756480
 12
8.052000
 22
0.964480
 13
8.053760
 23
1.701920
  0
POLYLINE
  8
0
  6
CONTINUOUS
 66
     1
 40
0.000000
 41
0.000000
  0
VERTEX
  8
0
  6
CONTINUOUS
 10
8.050240
 20
1.019040
  0
VERTEX
  8
0
  6
CONTINUOUS
 10
8.052440
 20
1.756480
  0
VERTEX
  8
0
  6
CONTINUOUS
 10
8.053760
 20
1.701920
  0
VERTEX
  8
0
  6
CONTINUOUS
 10
8.052000
 20
0.964480
  0
VERTEX
  8
0
  6
CONTINUOUS
 10
8.050240
 20
1.019040
  0
SEQEND
  8
0
  0
SOLID
  8
0
 62
    15
 10
8.052000
 20
0.964480
 11
8.053760
 21
1.701920
 12
8.051560
 22
0.948200
 13
8.053760
 23
1.685640
  0
POLYLINE
  8
0
  6
CONTINUOUS
 66
     1
 40
0.000000
 41
0.000000
  0
VERTEX
  8
0
  6
CONTINUOUS
 10
8.052000
 20
0.964480
  0
VERTEX
  8
0
  6
CONTINUOUS
 10
8.053760
 20
1.701920
  0
VERTEX
  8
0
  6
CONTINUOUS
 10
8.053760
 20
1.685640
  0
VERTEX
  8
0
  6
CONTINUOUS
 10
8.051560
 20
0.948200
  0
VERTEX
  8
0
  6
CONTINUOUS
 10
8.052000
 20
0.964480
  0
SEQEND
  8
0
  0
POLYLINE
  8
0
  6
CONTINUOUS
 66
     1
 40
0.000000
 41
0.000000
  0
VERTEX
  8
0
  6
CONTINUOUS
 10
8.050680
 20
0.948640
  0
VERTEX
  8
0
  6
CONTINUOUS
 10
3.821840
 20
0.948640
  0
VERTEX
  8
0
  6
CONTINUOUS
 10
3.821840
 20
1.757800
  0
VERTEX
  8
0
  6
CONTINUOUS
 10
4.856720
 20
1.757800
  0
VERTEX
  8
0
  6
CONTINUOUS
 10
4.876520
 20
1.698400
  0
VERTEX
  8
0
  6
CONTINUOUS
 10
4.902040
 20
1.641200
  0
VERTEX
  8
0
  6
CONTINUOUS
 10
4.931960
 20
1.587960
  0
VERTEX
  8
0
  6
CONTINUOUS
 10
4.963640
 20
1.540440
  0
VERTEX
  8
0
  6
CONTINUOUS
 10
4.994880
 20
1.500400
  0
VERTEX
  8
0
  6
CONTINUOUS
 10
5.024800
 20
1.469600
  0
VERTEX
  8
0
  6
CONTINUOUS
 10
5.049880
 20
1.449800
  0
VERTEX
  8
0
  6
CONTINUOUS
 10
5.060440
 20
1.444520
  0
VERTEX
  8
0
  6
CONTINUOUS
 10
5.069240
 20
1.442760
  0
VERTEX
  8
0
  6
CONTINUOUS
 10
5.077160
 20
1.445840
  0
VERTEX
  8
0
  6
CONTINUOUS
 10
5.085080
 20
1.455520
  0
VERTEX
  8
0
  6
CONTINUOUS
 10
5.129080
 20
1.535600
  0
VERTEX
  8
0
  6
CONTINUOUS
 10
5.164280
 20
1.589280
  0
VERTEX
  8
0
  6
CONTINUOUS
 10
5.187160
 20
1.616560
  0
VERTEX
  8
0
  6
CONTINUOUS
 10
5.214000
 20
1.642520
  0
VERTEX
  8
0
  6
CONTINUOUS
 10
5.245240
 20
1.667160
  0
VERTEX
  8
0
  6
CONTINUOUS
 10
5.281320
 20
1.688280
  0
VERTEX
  8
0
  6
CONTINUOUS
 10
5.322240
 20
1.706320
  0
VERTEX
  8
0
  6
CONTINUOUS
 10
5.369320
 20
1.719960
  0
VERTEX
  8
0
  6
CONTINUOUS
 10
5.423000
 20
1.727880
  0
VERTEX
  8
0
  6
CONTINUOUS
 10
5.482840
 20
1.729640
  0
VERTEX
  8
0
  6
CONTINUOUS
 10
5.543560
 20
1.725240
  0
VERTEX
  8
0
  6
CONTINUOUS
 10
5.598120
 20
1.715560
  0
VERTEX
  8
0
  6
CONTINUOUS
 10
5.647400
 20
1.701040
  0
VERTEX
  8
0
  6
CONTINUOUS
 10
5.691840
 20
1.682120
  0
VERTEX
  8
0
  6
CONTINUOUS
 10
5.732320
 20
1.659680
  0
VERTEX
  8
0
  6
CONTINUOUS
 10
5.768840
 20
1.633720
  0
VERTEX
  8
0
  6
CONTINUOUS
 10
5.833080
 20
1.573880
  0
VERTEX
  8
0
  6
CONTINUOUS
 10
5.888960
 20
1.507000
  0
VERTEX
  8
0
  6
CONTINUOUS
 10
5.992800
 20
1.367960
  0
VERTEX
  8
0
  6
CONTINUOUS
 10
6.049120
 20
1.304600
  0
VERTEX
  8
0
  6
CONTINUOUS
 10
6.081680
 20
1.275120
  0
VERTEX
  8
0
  6
CONTINUOUS
 10
6.113800
 20
1.251360
  0
VERTEX
  8
0
  6
CONTINUOUS
 10
6.145920
 20
1.232880
  0
VERTEX
  8
0
  6
CONTINUOUS
 10
6.178040
 20
1.219680
  0
VERTEX
  8
0
  6
CONTINUOUS
 10
6.209280
 20
1.211760
  0
VERTEX
  8
0
  6
CONTINUOUS
 10
6.240080
 20
1.208240
  0
VERTEX
  8
0
  6
CONTINUOUS
 10
6.270000
 20
1.210000
  0
VERTEX
  8
0
  6
CONTINUOUS
 10
6.299480
 20
1.216160
  0
VERTEX
  8
0
  6
CONTINUOUS
 10
6.327640
 20
1.226720
  0
VERTEX
  8
0
  6
CONTINUOUS
 10
6.354920
 20
1.241680
  0
VERTEX
  8
0
  6
CONTINUOUS
 10
6.380880
 20
1.261480
  0
VERTEX
  8
0
  6
CONTINUOUS
 10
6.405080
 20
1.284800
  0
VERTEX
  8
0
  6
CONTINUOUS
 10
6.427960
 20
1.312520
  0
VERTEX
  8
0
  6
CONTINUOUS
 10
6.449520
 20
1.344200
  0
VERTEX
  8
0
  6
CONTINUOUS
 10
6.468880
 20
1.379400
  0
VERTEX
  8
0
  6
CONTINUOUS
 10
6.486040
 20
1.418120
  0
VERTEX
  8
0
  6
CONTINUOUS
 10
6.744320
 20
1.418120
  0
VERTEX
  8
0
  6
CONTINUOUS
 10
6.753560
 20
1.460800
  0
VERTEX
  8
0
  6
CONTINUOUS
 10
6.770720
 20
1.499960
  0
VERTEX
  8
0
  6
CONTINUOUS
 10
6.794480
 20
1.535160
  0
VERTEX
  8
0
  6
CONTINUOUS
 10
6.824400
 20
1.565960
  0
VERTEX
  8
0
  6
CONTINUOUS
 10
6.858720
 20
1.591040
  0
VERTEX
  8
0
  6
CONTINUOUS
 10
6.897440
 20
1.609960
  0
VERTEX
  8
0
  6
CONTINUOUS
 10
6.939680
 20
1.621840
  0
VERTEX
  8
0
  6
CONTINUOUS
 10
6.984120
 20
1.625800
  0
VERTEX
  8
0
  6
CONTINUOUS
 10
7.028560
 20
1.621840
  0
VERTEX
  8
0
  6
CONTINUOUS
 10
7.069920
 20
1.609960
  0
VERTEX
  8
0
  6
CONTINUOUS
 10
7.108200
 20
1.590600
  0
VERTEX
  8
0
  6
CONTINUOUS
 10
7.141640
 20
1.565520
  0
VERTEX
  8
0
  6
CONTINUOUS
 10
7.170680
 20
1.535160
  0
VERTEX
  8
0
  6
CONTINUOUS
 10
7.193560
 20
1.499520
  0
VERTEX
  8
0
  6
CONTINUOUS
 10
7.210280
 20
1.459920
  0
VERTEX
  8
0
  6
CONTINUOUS
 10
7.219520
 20
1.417240
  0
VERTEX
  8
0
  6
CONTINUOUS
 10
7.504200
 20
1.417240
  0
VERTEX
  8
0
  6
CONTINUOUS
 10
7.531920
 20
1.397000
  0
VERTEX
  8
0
  6
CONTINUOUS
 10
7.567560
 20
1.380280
  0
VERTEX
  8
0
  6
CONTINUOUS
 10
7.609360
 20
1.367080
  0
VERTEX
  8
0
  6
CONTINUOUS
 10
7.654680
 20
1.356520
  0
VERTEX
  8
0
  6
CONTINUOUS
 10
7.787560
 20
1.332760
  0
VERTEX
  8
0
  6
CONTINUOUS
 10
7.823200
 20
1.324840
  0
VERTEX
  8
0
  6
CONTINUOUS
 10
7.857080
 20
1.315600
  0
VERTEX
  8
0
  6
CONTINUOUS
 10
7.894480
 20
1.302400
  0
VERTEX
  8
0
  6
CONTINUOUS
 10
7.932760
 20
1.282160
  0
VERTEX
  8
0
  6
CONTINUOUS
 10
7.969280
 20
1.251360
  0
VERTEX
  8
0
  6
CONTINUOUS
 10
7.986000
 20
1.231560
  0
VERTEX
  8
0
  6
CONTINUOUS
 10
8.001840
 20
1.207800
  0
VERTEX
  8
0
  6
CONTINUOUS
 10
8.015920
 20
1.179640
  0
VERTEX
  8
0
  6
CONTINUOUS
 10
8.028240
 20
1.147080
  0
VERTEX
  8
0
  6
CONTINUOUS
 10
8.037920
 20
1.110120
  0
VERTEX
  8
0
  6
CONTINUOUS
 10
8.045400
 20
1.067440
  0
VERTEX
  8
0
  6
CONTINUOUS
 10
8.050240
 20
1.019040
  0
VERTEX
  8
0
  6
CONTINUOUS
 10
8.052000
 20
0.964480
  0
VERTEX
  8
0
  6
CONTINUOUS
 10
8.051560
 20
0.948200
  0
VERTEX
  8
0
  6
CONTINUOUS
 10
8.050680
 20
0.948640
  0
SEQEND
  8
0
  0
SOLID
  8
0
 62
    15
 10
3.647160
 20
2.420440
 11
3.650680
 21
3.164480
 12
3.684560
 22
2.387440
 13
3.687640
 23
3.131480
  0
POLYLINE
  8
0
  6
CONTINUOUS
 66
     1
 40
0.000000
 41
0.000000
  0
VERTEX
  8
0
  6
CONTINUOUS
 10
3.647160
 20
2.420440
  0
VERTEX
  8
0
  6
CONTINUOUS
 10
3.650680
 20
3.164480
  0
VERTEX
  8
0
  6
CONTINUOUS
 10
3.687640
 20
3.131480
  0
VERTEX
  8
0
  6
CONTINUOUS
 10
3.684560
 20
2.387440
  0
VERTEX
  8
0
  6
CONTINUOUS
 10
3.647160
 20
2.420440
  0
SEQEND
  8
0
  0
SOLID
  8
0
 62
    15
 10
3.064160
 20
2.306480
 11
3.067680
 21
3.050520
 12
3.080880
 22
2.356640
 13
3.084400
 23
3.100680
  0
POLYLINE
  8
0
  6
CONTINUOUS
 66
     1
 40
0.000000
 41
0.000000
  0
VERTEX
  8
0
  6
CONTINUOUS
 10
3.064160
 20
2.306480
  0
VERTEX
  8
0
  6
CONTINUOUS
 10
3.067680
 20
3.050520
  0
VERTEX
  8
0
  6
CONTINUOUS
 10
3.084400
 20
3.100680
  0
VERTEX
  8
0
  6
CONTINUOUS
 10
3.080880
 20
2.356640
  0
VERTEX
  8
0
  6
CONTINUOUS
 10
3.064160
 20
2.306480
  0
SEQEND
  8
0
  0
SOLID
  8
0
 62
    15
 10
3.080880
 20
2.356640
 11
3.084400
 21
3.100680
 12
3.107280
 22
2.398880
 13
3.110800
 23
3.142920
  0
POLYLINE
  8
0
  6
CONTINUOUS
 66
     1
 40
0.000000
 41
0.000000
  0
VERTEX
  8
0
  6
CONTINUOUS
 10
3.080880
 20
2.356640
  0
VERTEX
  8
0
  6
CONTINUOUS
 10
3.084400
 20
3.100680
  0
VERTEX
  8
0
  6
CONTINUOUS
 10
3.110800
 20
3.142920
  0
VERTEX
  8
0
  6
CONTINUOUS
 10
3.107280
 20
2.398880
  0
VERTEX
  8
0
  6
CONTINUOUS
 10
3.080880
 20
2.356640
  0
SEQEND
  8
0
  0
SOLID
  8
0
 62
    15
 10
3.107280
 20
2.398880
 11
3.110800
 21
3.142920
 12
3.142040
 22
2.433640
 13
3.145120
 23
3.177680
  0
POLYLINE
  8
0
  6
CONTINUOUS
 66
     1
 40
0.000000
 41
0.000000
  0
VERTEX
  8
0
  6
CONTINUOUS
 10
3.107280
 20
2.398880
  0
VERTEX
  8
0
  6
CONTINUOUS
 10
3.110800
 20
3.142920
  0
VERTEX
  8
0
  6
CONTINUOUS
 10
3.145120
 20
3.177680
  0
VERTEX
  8
0
  6
CONTINUOUS
 10
3.142040
 20
2.433640
  0
VERTEX
  8
0
  6
CONTINUOUS
 10
3.107280
 20
2.398880
  0
SEQEND
  8
0
  0
SOLID
  8
0
 62
    15
 10
3.142040
 20
2.433640
 11
3.145120
 21
3.177680
 12
3.183400
 22
2.461360
 13
3.186920
 23
3.205400
  0
POLYLINE
  8
0
  6
CONTINUOUS
 66
     1
 40
0.000000
 41
0.000000
  0
VERTEX
  8
0
  6
CONTINUOUS
 10
3.142040
 20
2.433640
  0
VERTEX
  8
0
  6
CONTINUOUS
 10
3.145120
 20
3.177680
  0
VERTEX
  8
0
  6
CONTINUOUS
 10
3.186920
 20
3.205400
  0
VERTEX
  8
0
  6
CONTINUOUS
 10
3.183400
 20
2.461360
  0
VERTEX
  8
0
  6
CONTINUOUS
 10
3.142040
 20
2.433640
  0
SEQEND
  8
0
  0
SOLID
  8
0
 62
    15
 10
3.183400
 20
2.461360
 11
3.186920
 21
3.205400
 12
3.230480
 22
2.482040
 13
3.233560
 23
3.226080
  0
POLYLINE
  8
0
  6
CONTINUOUS
 66
     1
 40
0.000000
 41
0.000000
  0
VERTEX
  8
0
  6
CONTINUOUS
 10
3.183400
 20
2.461360
  0
VERTEX
  8
0
  6
CONTINUOUS
 10
3.186920
 20
3.205400
  0
VERTEX
  8
0
  6
CONTINUOUS
 10
3.233560
 20
3.226080
  0
VERTEX
  8
0
  6
CONTINUOUS
 10
3.230480
 20
2.482040
  0
VERTEX
  8
0
  6
CONTINUOUS
 10
3.183400
 20
2.461360
  0
SEQEND
  8
0
  0
SOLID
  8
0
 62
    15
 10
3.230480
 20
2.482040
 11
3.233560
 21
3.226080
 12
3.281520
 22
2.496120
 13
3.285040
 23
3.240160
  0
POLYLINE
  8
0
  6
CONTINUOUS
 66
     1
 40
0.000000
 41
0.000000
  0
VERTEX
  8
0
  6
CONTINUOUS
 10
3.230480
 20
2.482040
  0
VERTEX
  8
0
  6
CONTINUOUS
 10
3.233560
 20
3.226080
  0
VERTEX
  8
0
  6
CONTINUOUS
 10
3.285040
 20
3.240160
  0
VERTEX
  8
0
  6
CONTINUOUS
 10
3.281520
 20
2.496120
  0
VERTEX
  8
0
  6
CONTINUOUS
 10
3.230480
 20
2.482040
  0
SEQEND
  8
0
  0
SOLID
  8
0
 62
    15
 10
3.281520
 20
2.496120
 11
3.285040
 21
3.240160
 12
3.335640
 22
2.503160
 13
3.339160
 23
3.247640
  0
POLYLINE
  8
0
  6
CONTINUOUS
 66
     1
 40
0.000000
 41
0.000000
  0
VERTEX
  8
0
  6
CONTINUOUS
 10
3.281520
 20
2.496120
  0
VERTEX
  8
0
  6
CONTINUOUS
 10
3.285040
 20
3.240160
  0
VERTEX
  8
0
  6
CONTINUOUS
 10
3.339160
 20
3.247640
  0
VERTEX
  8
0
  6
CONTINUOUS
 10
3.335640
 20
2.503160
  0
VERTEX
  8
0
  6
CONTINUOUS
 10
3.281520
 20
2.496120
  0
SEQEND
  8
0
  0
SOLID
  8
0
 62
    15
 10
3.335640
 20
2.503160
 11
3.339160
 21
3.247640
 12
3.391520
 22
2.504480
 13
3.395040
 23
3.248520
  0
POLYLINE
  8
0
  6
CONTINUOUS
 66
     1
 40
0.000000
 41
0.000000
  0
VERTEX
  8
0
  6
CONTINUOUS
 10
3.335640
 20
2.503160
  0
VERTEX
  8
0
  6
CONTINUOUS
 10
3.339160
 20
3.247640
  0
VERTEX
  8
0
  6
CONTINUOUS
 10
3.395040
 20
3.248520
  0
VERTEX
  8
0
  6
CONTINUOUS
 10
3.391520
 20
2.504480
  0
VERTEX
  8
0
  6
CONTINUOUS
 10
3.335640
 20
2.503160
  0
SEQEND
  8
0
  0
SOLID
  8
0
 62
    15
 10
3.391520
 20
2.504480
 11
3.395040
 21
3.248520
 12
3.447400
 22
2.499200
 13
3.450920
 23
3.243240
  0
POLYLINE
  8
0
  6
CONTINUOUS
 66
     1
 40
0.000000
 41
0.000000
  0
VERTEX
  8
0
  6
CONTINUOUS
 10
3.391520
 20
2.504480
  0
VERTEX
  8
0
  6
CONTINUOUS
 10
3.395040
 20
3.248520
  0
VERTEX
  8
0
  6
CONTINUOUS
 10
3.450920
 20
3.243240
  0
VERTEX
  8
0
  6
CONTINUOUS
 10
3.447400
 20
2.499200
  0
VERTEX
  8
0
  6
CONTINUOUS
 10
3.391520
 20
2.504480
  0
SEQEND
  8
0
  0
SOLID
  8
0
 62
    15
 10
3.447400
 20
2.499200
 11
3.450920
 21
3.243240
 12
3.502400
 22
2.487760
 13
3.505480
 23
3.231800
  0
POLYLINE
  8
0
  6
CONTINUOUS
 66
     1
 40
0.000000
 41
0.000000
  0
VERTEX
  8
0
  6
CONTINUOUS
 10
3.447400
 20
2.499200
  0
VERTEX
  8
0
  6
CONTINUOUS
 10
3.450920
 20
3.243240
  0
VERTEX
  8
0
  6
CONTINUOUS
 10
3.505480
 20
3.231800
  0
VERTEX
  8
0
  6
CONTINUOUS
 10
3.502400
 20
2.487760
  0
VERTEX
  8
0
  6
CONTINUOUS
 10
3.447400
 20
2.499200
  0
SEQEND
  8
0
  0
SOLID
  8
0
 62
    15
 10
3.502400
 20
2.487760
 11
3.505480
 21
3.231800
 12
3.554760
 22
2.471040
 13
3.558280
 23
3.215080
  0
POLYLINE
  8
0
  6
CONTINUOUS
 66
     1
 40
0.000000
 41
0.000000
  0
VERTEX
  8
0
  6
CONTINUOUS
 10
3.502400
 20
2.487760
  0
VERTEX
  8
0
  6
CONTINUOUS
 10
3.505480
 20
3.231800
  0
VERTEX
  8
0
  6
CONTINUOUS
 10
3.558280
 20
3.215080
  0
VERTEX
  8
0
  6
CONTINUOUS
 10
3.554760
 20
2.471040
  0
VERTEX
  8
0
  6
CONTINUOUS
 10
3.502400
 20
2.487760
  0
SEQEND
  8
0
  0
SOLID
  8
0
 62
    15
 10
3.554760
 20
2.471040
 11
3.558280
 21
3.215080
 12
3.603600
 22
2.448160
 13
3.606680
 23
3.192640
  0
POLYLINE
  8
0
  6
CONTINUOUS
 66
     1
 40
0.000000
 41
0.000000
  0
VERTEX
  8
0
  6
CONTINUOUS
 10
3.554760
 20
2.471040
  0
VERTEX
  8
0
  6
CONTINUOUS
 10
3.558280
 20
3.215080
  0
VERTEX
  8
0
  6
CONTINUOUS
 10
3.606680
 20
3.192640
  0
VERTEX
  8
0
  6
CONTINUOUS
 10
3.603600
 20
2.448160
  0
VERTEX
  8
0
  6
CONTINUOUS
 10
3.554760
 20
2.471040
  0
SEQEND
  8
0
  0
SOLID
  8
0
 62
    15
 10
3.603600
 20
2.448160
 11
3.606680
 21
3.192640
 12
3.647160
 22
2.420440
 13
3.650680
 23
3.164480
  0
POLYLINE
  8
0
  6
CONTINUOUS
 66
     1
 40
0.000000
 41
0.000000
  0
VERTEX
  8
0
  6
CONTINUOUS
 10
3.603600
 20
2.448160
  0
VERTEX
  8
0
  6
CONTINUOUS
 10
3.606680
 20
3.192640
  0
VERTEX
  8
0
  6
CONTINUOUS
 10
3.650680
 20
3.164480
  0
VERTEX
  8
0
  6
CONTINUOUS
 10
3.647160
 20
2.420440
  0
VERTEX
  8
0
  6
CONTINUOUS
 10
3.603600
 20
2.448160
  0
SEQEND
  8
0
  0
SOLID
  8
0
 62
    15
 10
3.058440
 20
2.248840
 11
3.061960
 21
2.992880
 12
3.064160
 22
2.306480
 13
3.067680
 23
3.050520
  0
POLYLINE
  8
0
  6
CONTINUOUS
 66
     1
 40
0.000000
 41
0.000000
  0
VERTEX
  8
0
  6
CONTINUOUS
 10
3.058440
 20
2.248840
  0
VERTEX
  8
0
  6
CONTINUOUS
 10
3.061960
 20
2.992880
  0
VERTEX
  8
0
  6
CONTINUOUS
 10
3.067680
 20
3.050520
  0
VERTEX
  8
0
  6
CONTINUOUS
 10
3.064160
 20
2.306480
  0
VERTEX
  8
0
  6
CONTINUOUS
 10
3.058440
 20
2.248840
  0
SEQEND
  8
0
  0
SOLID
  8
0
 62
    15
 10
3.684560
 20
2.387440
 11
3.687640
 21
3.131480
 12
3.714040
 22
2.349600
 13
3.717120
 23
3.093640
  0
POLYLINE
  8
0
  6
CONTINUOUS
 66
     1
 40
0.000000
 41
0.000000
  0
VERTEX
  8
0
  6
CONTINUOUS
 10
3.684560
 20
2.387440
  0
VERTEX
  8
0
  6
CONTINUOUS
 10
3.687640
 20
3.131480
  0
VERTEX
  8
0
  6
CONTINUOUS
 10
3.717120
 20
3.093640
  0
VERTEX
  8
0
  6
CONTINUOUS
 10
3.714040
 20
2.349600
  0
VERTEX
  8
0
  6
CONTINUOUS
 10
3.684560
 20
2.387440
  0
SEQEND
  8
0
  0
SOLID
  8
0
 62
    15
 10
3.714040
 20
2.349600
 11
3.717120
 21
3.093640
 12
3.736920
 22
2.310880
 13
3.740440
 23
3.054920
  0
POLYLINE
  8
0
  6
CONTINUOUS
 66
     1
 40
0.000000
 41
0.000000
  0
VERTEX
  8
0
  6
CONTINUOUS
 10
3.714040
 20
2.349600
  0
VERTEX
  8
0
  6
CONTINUOUS
 10
3.717120
 20
3.093640
  0
VERTEX
  8
0
  6
CONTINUOUS
 10
3.740440
 20
3.054920
  0
VERTEX
  8
0
  6
CONTINUOUS
 10
3.736920
 20
2.310880
  0
VERTEX
  8
0
  6
CONTINUOUS
 10
3.714040
 20
2.349600
  0
SEQEND
  8
0
  0
SOLID
  8
0
 62
    15
 10
3.736920
 20
2.310880
 11
3.740440
 21
3.054920
 12
3.755840
 22
2.275240
 13
3.759360
 23
3.019280
  0
POLYLINE
  8
0
  6
CONTINUOUS
 66
     1
 40
0.000000
 41
0.000000
  0
VERTEX
  8
0
  6
CONTINUOUS
 10
3.736920
 20
2.310880
  0
VERTEX
  8
0
  6
CONTINUOUS
 10
3.740440
 20
3.054920
  0
VERTEX
  8
0
  6
CONTINUOUS
 10
3.759360
 20
3.019280
  0
VERTEX
  8
0
  6
CONTINUOUS
 10
3.755840
 20
2.275240
  0
VERTEX
  8
0
  6
CONTINUOUS
 10
3.736920
 20
2.310880
  0
SEQEND
  8
0
  0
SOLID
  8
0
 62
    15
 10
3.755840
 20
2.275240
 11
3.759360
 21
3.019280
 12
3.785320
 22
2.211880
 13
3.788400
 23
2.955920
  0
POLYLINE
  8
0
  6
CONTINUOUS
 66
     1
 40
0.000000
 41
0.000000
  0
VERTEX
  8
0
  6
CONTINUOUS
 10
3.755840
 20
2.275240
  0
VERTEX
  8
0
  6
CONTINUOUS
 10
3.759360
 20
3.019280
  0
VERTEX
  8
0
  6
CONTINUOUS
 10
3.788400
 20
2.955920
  0
VERTEX
  8
0
  6
CONTINUOUS
 10
3.785320
 20
2.211880
  0
VERTEX
  8
0
  6
CONTINUOUS
 10
3.755840
 20
2.275240
  0
SEQEND
  8
0
  0
SOLID
  8
0
 62
    15
 10
3.785320
 20
2.211880
 11
3.788400
 21
2.955920
 12
3.807760
 22
2.157760
 13
3.810840
 23
2.902240
  0
POLYLINE
  8
0
  6
CONTINUOUS
 66
     1
 40
0.000000
 41
0.000000
  0
VERTEX
  8
0
  6
CONTINUOUS
 10
3.785320
 20
2.211880
  0
VERTEX
  8
0
  6
CONTINUOUS
 10
3.788400
 20
2.955920
  0
VERTEX
  8
0
  6
CONTINUOUS
 10
3.810840
 20
2.902240
  0
VERTEX
  8
0
  6
CONTINUOUS
 10
3.807760
 20
2.157760
  0
VERTEX
  8
0
  6
CONTINUOUS
 10
3.785320
 20
2.211880
  0
SEQEND
  8
0
  0
SOLID
  8
0
 62
    15
 10
3.821400
 20
1.757800
 11
3.824920
 21
2.501840
 12
3.821400
 22
0.947760
 13
3.824920
 23
1.691800
  0
POLYLINE
  8
0
  6
CONTINUOUS
 66
     1
 40
0.000000
 41
0.000000
  0
VERTEX
  8
0
  6
CONTINUOUS
 10
3.821400
 20
1.757800
  0
VERTEX
  8
0
  6
CONTINUOUS
 10
3.824920
 20
2.501840
  0
VERTEX
  8
0
  6
CONTINUOUS
 10
3.824920
 20
1.691800
  0
VERTEX
  8
0
  6
CONTINUOUS
 10
3.821400
 20
0.947760
  0
VERTEX
  8
0
  6
CONTINUOUS
 10
3.821400
 20
1.757800
  0
SEQEND
  8
0
  0
SOLID
  8
0
 62
    15
 10
3.829760
 20
2.112000
 11
3.832840
 21
2.856040
 12
3.857040
 22
2.072400
 13
3.860120
 23
2.816440
  0
POLYLINE
  8
0
  6
CONTINUOUS
 66
     1
 40
0.000000
 41
0.000000
  0
VERTEX
  8
0
  6
CONTINUOUS
 10
3.829760
 20
2.112000
  0
VERTEX
  8
0
  6
CONTINUOUS
 10
3.832840
 20
2.856040
  0
VERTEX
  8
0
  6
CONTINUOUS
 10
3.860120
 20
2.816440
  0
VERTEX
  8
0
  6
CONTINUOUS
 10
3.857040
 20
2.072400
  0
VERTEX
  8
0
  6
CONTINUOUS
 10
3.829760
 20
2.112000
  0
SEQEND
  8
0
  0
SOLID
  8
0
 62
    15
 10
3.857040
 20
2.072400
 11
3.860120
 21
2.816440
 12
3.896200
 22
2.037200
 13
3.899280
 23
2.781240
  0
POLYLINE
  8
0
  6
CONTINUOUS
 66
     1
 40
0.000000
 41
0.000000
  0
VERTEX
  8
0
  6
CONTINUOUS
 10
3.857040
 20
2.072400
  0
VERTEX
  8
0
  6
CONTINUOUS
 10
3.860120
 20
2.816440
  0
VERTEX
  8
0
  6
CONTINUOUS
 10
3.899280
 20
2.781240
  0
VERTEX
  8
0
  6
CONTINUOUS
 10
3.896200
 20
2.037200
  0
VERTEX
  8
0
  6
CONTINUOUS
 10
3.857040
 20
2.072400
  0
SEQEND
  8
0
  0
SOLID
  8
0
 62
    15
 10
3.896200
 20
2.037200
 11
3.899280
 21
2.781240
 12
3.921720
 22
2.020480
 13
3.925240
 23
2.764520
  0
POLYLINE
  8
0
  6
CONTINUOUS
 66
     1
 40
0.000000
 41
0.000000
  0
VERTEX
  8
0
  6
CONTINUOUS
 10
3.896200
 20
2.037200
  0
VERTEX
  8
0
  6
CONTINUOUS
 10
3.899280
 20
2.781240
  0
VERTEX
  8
0
  6
CONTINUOUS
 10
3.925240
 20
2.764520
  0
VERTEX
  8
0
  6
CONTINUOUS
 10
3.921720
 20
2.020480
  0
VERTEX
  8
0
  6
CONTINUOUS
 10
3.896200
 20
2.037200
  0
SEQEND
  8
0
  0
SOLID
  8
0
 62
    15
 10
3.921720
 20
2.020480
 11
3.925240
 21
2.764520
 12
3.952960
 22
2.004640
 13
3.956040
 23
2.748680
  0
POLYLINE
  8
0
  6
CONTINUOUS
 66
     1
 40
0.000000
 41
0.000000
  0
VERTEX
  8
0
  6
CONTINUOUS
 10
3.921720
 20
2.020480
  0
VERTEX
  8
0
  6
CONTINUOUS
 10
3.925240
 20
2.764520
  0
VERTEX
  8
0
  6
CONTINUOUS
 10
3.956040
 20
2.748680
  0
VERTEX
  8
0
  6
CONTINUOUS
 10
3.952960
 20
2.004640
  0
VERTEX
  8
0
  6
CONTINUOUS
 10
3.921720
 20
2.020480
  0
SEQEND
  8
0
  0
SOLID
  8
0
 62
    15
 10
3.952960
 20
2.004640
 11
3.956040
 21
2.748680
 12
3.989920
 22
1.988800
 13
3.993000
 23
2.732840
  0
POLYLINE
  8
0
  6
CONTINUOUS
 66
     1
 40
0.000000
 41
0.000000
  0
VERTEX
  8
0
  6
CONTINUOUS
 10
3.952960
 20
2.004640
  0
VERTEX
  8
0
  6
CONTINUOUS
 10
3.956040
 20
2.748680
  0
VERTEX
  8
0
  6
CONTINUOUS
 10
3.993000
 20
2.732840
  0
VERTEX
  8
0
  6
CONTINUOUS
 10
3.989920
 20
1.988800
  0
VERTEX
  8
0
  6
CONTINUOUS
 10
3.952960
 20
2.004640
  0
SEQEND
  8
0
  0
SOLID
  8
0
 62
    15
 10
4.033480
 20
1.972960
 11
4.036560
 21
2.717000
 12
4.033480
 22
1.757800
 13
4.036560
 23
2.501840
  0
POLYLINE
  8
0
  6
CONTINUOUS
 66
     1
 40
0.000000
 41
0.000000
  0
VERTEX
  8
0
  6
CONTINUOUS
 10
4.033480
 20
1.972960
  0
VERTEX
  8
0
  6
CONTINUOUS
 10
4.036560
 20
2.717000
  0
VERTEX
  8
0
  6
CONTINUOUS
 10
4.036560
 20
2.501840
  0
VERTEX
  8
0
  6
CONTINUOUS
 10
4.033480
 20
1.757800
  0
VERTEX
  8
0
  6
CONTINUOUS
 10
4.033480
 20
1.972960
  0
SEQEND
  8
0
  0
SOLID
  8
0
 62
    15
 10
3.989920
 20
1.988800
 11
3.993000
 21
2.732840
 12
4.033480
 22
1.972960
 13
4.036560
 23
2.717000
  0
POLYLINE
  8
0
  6
CONTINUOUS
 66
     1
 40
0.000000
 41
0.000000
  0
VERTEX
  8
0
  6
CONTINUOUS
 10
3.989920
 20
1.988800
  0
VERTEX
  8
0
  6
CONTINUOUS
 10
3.993000
 20
2.732840
  0
VERTEX
  8
0
  6
CONTINUOUS
 10
4.036560
 20
2.717000
  0
VERTEX
  8
0
  6
CONTINUOUS
 10
4.033480
 20
1.972960
  0
VERTEX
  8
0
  6
CONTINUOUS
 10
3.989920
 20
1.988800
  0
SEQEND
  8
0
  0
SOLID
  8
0
 62
    15
 10
3.807760
 20
2.157760
 11
3.810840
 21
2.902240
 12
3.829760
 22
2.112000
 13
3.832840
 23
2.856040
  0
POLYLINE
  8
0
  6
CONTINUOUS
 66
     1
 40
0.000000
 41
0.000000
  0
VERTEX
  8
0
  6
CONTINUOUS
 10
3.807760
 20
2.157760
  0
VERTEX
  8
0
  6
CONTINUOUS
 10
3.810840
 20
2.902240
  0
VERTEX
  8
0
  6
CONTINUOUS
 10
3.832840
 20
2.856040
  0
VERTEX
  8
0
  6
CONTINUOUS
 10
3.829760
 20
2.112000
  0
VERTEX
  8
0
  6
CONTINUOUS
 10
3.807760
 20
2.157760
  0
SEQEND
  8
0
  0
POLYLINE
  8
0
  6
CONTINUOUS
 66
     1
 40
0.000000
 41
0.000000
  0
VERTEX
  8
0
  6
CONTINUOUS
 10
3.058440
 20
0.948200
  0
VERTEX
  8
0
  6
CONTINUOUS
 10
3.058440
 20
2.248840
  0
VERTEX
  8
0
  6
CONTINUOUS
 10
3.064160
 20
2.306480
  0
VERTEX
  8
0
  6
CONTINUOUS
 10
3.080880
 20
2.356640
  0
VERTEX
  8
0
  6
CONTINUOUS
 10
3.107280
 20
2.398880
  0
VERTEX
  8
0
  6
CONTINUOUS
 10
3.142040
 20
2.433640
  0
VERTEX
  8
0
  6
CONTINUOUS
 10
3.183400
 20
2.461360
  0
VERTEX
  8
0
  6
CONTINUOUS
 10
3.230480
 20
2.482040
  0
VERTEX
  8
0
  6
CONTINUOUS
 10
3.281520
 20
2.496120
  0
VERTEX
  8
0
  6
CONTINUOUS
 10
3.335640
 20
2.503160
  0
VERTEX
  8
0
  6
CONTINUOUS
 10
3.391520
 20
2.504480
  0
VERTEX
  8
0
  6
CONTINUOUS
 10
3.447400
 20
2.499200
  0
VERTEX
  8
0
  6
CONTINUOUS
 10
3.502400
 20
2.487760
  0
VERTEX
  8
0
  6
CONTINUOUS
 10
3.554760
 20
2.471040
  0
VERTEX
  8
0
  6
CONTINUOUS
 10
3.603600
 20
2.448160
  0
VERTEX
  8
0
  6
CONTINUOUS
 10
3.647160
 20
2.420440
  0
VERTEX
  8
0
  6
CONTINUOUS
 10
3.684560
 20
2.387440
  0
VERTEX
  8
0
  6
CONTINUOUS
 10
3.714040
 20
2.349600
  0
VERTEX
  8
0
  6
CONTINUOUS
 10
3.736920
 20
2.310880
  0
VERTEX
  8
0
  6
CONTINUOUS
 10
3.755840
 20
2.275240
  0
VERTEX
  8
0
  6
CONTINUOUS
 10
3.785320
 20
2.211880
  0
VERTEX
  8
0
  6
CONTINUOUS
 10
3.807760
 20
2.157760
  0
VERTEX
  8
0
  6
CONTINUOUS
 10
3.829760
 20
2.112000
  0
VERTEX
  8
0
  6
CONTINUOUS
 10
3.857040
 20
2.072400
  0
VERTEX
  8
0
  6
CONTINUOUS
 10
3.896200
 20
2.037200
  0
VERTEX
  8
0
  6
CONTINUOUS
 10
3.921720
 20
2.020480
  0
VERTEX
  8
0
  6
CONTINUOUS
 10
3.952960
 20
2.004640
  0
VERTEX
  8
0
  6
CONTINUOUS
 10
3.989920
 20
1.988800
  0
VERTEX
  8
0
  6
CONTINUOUS
 10
4.033480
 20
1.972960
  0
VERTEX
  8
0
  6
CONTINUOUS
 10
4.033480
 20
1.757800
  0
VERTEX
  8
0
  6
CONTINUOUS
 10
3.821400
 20
1.757800
  0
VERTEX
  8
0
  6
CONTINUOUS
 10
3.821400
 20
0.947760
  0
VERTEX
  8
0
  6
CONTINUOUS
 10
3.058440
 20
0.948200
  0
SEQEND
  8
0
  0
TEXT
  8
0
 10
4.546960
 20
0.719840
 40
0.138064
  1
BA  969 1" x 1-9/16"
 41
1.000000
  7
SN0
 71
     0
 72
     5
 11
6.040970
 21
0.719840
  0
TEXT
  8
0
 10
4.546960
 20
0.528440
 40
0.138064
  1
BA  970 13/16" x 4-1/4"
 41
1.000000
  7
SN0
 71
     0
 72
     5
 11
6.271922
 21
0.528440
  0
TEXT
  8
0
 10
3.127520
 20
1.038840
 40
0.138064
  1
969
 41
1.000000
  7
SN0
 71
     0
 72
     5
 11
3.405065
 21
1.038840
  0
TEXT
  8
0
 10
3.885200
 20
1.038840
 40
0.138064
  1
970
 41
1.000000
  7
SN0
 71
     0
 72
     5
 11
4.162745
 21
1.038840
  0
POLYLINE
  8
0
  6
CONTINUOUS
 66
     1
 40
0.014080
 41
0.014080
  0
VERTEX
  8
0
  6
CONTINUOUS
 10
3.024560
 20
3.523080
  0
VERTEX
  8
0
  6
CONTINUOUS
 10
3.025000
 20
4.839120
  0
VERTEX
  8
0
  6
CONTINUOUS
 10
3.028080
 20
4.867720
  0
VERTEX
  8
0
  6
CONTINUOUS
 10
3.033800
 20
4.894560
  0
VERTEX
  8
0
  6
CONTINUOUS
 10
3.047000
 20
4.931520
  0
VERTEX
  8
0
  6
CONTINUOUS
 10
3.065920
 20
4.964080
  0
VERTEX
  8
0
  6
CONTINUOUS
 10
3.089680
 20
4.992240
  0
VERTEX
  8
0
  6
CONTINUOUS
 10
3.108160
 20
5.008960
  0
VERTEX
  8
0
  6
CONTINUOUS
 10
3.127960
 20
5.023480
  0
VERTEX
  8
0
  6
CONTINUOUS
 10
3.149520
 20
5.036240
  0
VERTEX
  8
0
  6
CONTINUOUS
 10
3.172400
 20
5.047680
  0
VERTEX
  8
0
  6
CONTINUOUS
 10
3.196600
 20
5.057360
  0
VERTEX
  8
0
  6
CONTINUOUS
 10
3.247640
 20
5.071000
  0
VERTEX
  8
0
  6
CONTINUOUS
 10
3.301760
 20
5.078480
  0
VERTEX
  8
0
  6
CONTINUOUS
 10
3.329480
 20
5.079800
  0
VERTEX
  8
0
  6
CONTINUOUS
 10
3.385800
 20
5.077600
  0
VERTEX
  8
0
  6
CONTINUOUS
 10
3.441240
 20
5.069240
  0
VERTEX
  8
0
  6
CONTINUOUS
 10
3.494920
 20
5.055160
  0
VERTEX
  8
0
  6
CONTINUOUS
 10
3.545960
 20
5.035360
  0
VERTEX
  8
0
  6
CONTINUOUS
 10
3.569720
 20
5.023480
  0
VERTEX
  8
0
  6
CONTINUOUS
 10
3.613280
 20
4.995320
  0
VERTEX
  8
0
  6
CONTINUOUS
 10
3.632640
 20
4.979480
  0
VERTEX
  8
0
  6
CONTINUOUS
 10
3.650680
 20
4.962320
  0
VERTEX
  8
0
  6
CONTINUOUS
 10
3.673560
 20
4.934600
  0
VERTEX
  8
0
  6
CONTINUOUS
 10
3.713160
 20
4.867280
  0
VERTEX
  8
0
  6
CONTINUOUS
 10
3.744840
 20
4.801720
  0
VERTEX
  8
0
  6
CONTINUOUS
 10
3.784440
 20
4.709320
  0
VERTEX
  8
0
  6
CONTINUOUS
 10
3.808640
 20
4.666640
  0
VERTEX
  8
0
  6
CONTINUOUS
 10
3.831520
 20
4.638480
  0
VERTEX
  8
0
  6
CONTINUOUS
 10
3.850880
 20
4.620880
  0
VERTEX
  8
0
  6
CONTINUOUS
 10
3.887840
 20
4.595800
  0
VERTEX
  8
0
  6
CONTINUOUS
 10
3.936680
 20
4.572040
  0
VERTEX
  8
0
  6
CONTINUOUS
 10
3.999600
 20
4.548280
  0
VERTEX
  8
0
  6
CONTINUOUS
 10
3.999600
 20
4.333120
  0
VERTEX
  8
0
  6
CONTINUOUS
 10
3.787520
 20
4.333120
  0
VERTEX
  8
0
  6
CONTINUOUS
 10
3.787520
 20
3.522640
  0
VERTEX
  8
0
  6
CONTINUOUS
 10
3.024560
 20
3.523080
  0
SEQEND
  8
0
  0
POLYLINE
  8
0
  6
CONTINUOUS
 66
     1
 40
0.014080
 41
0.014080
  0
VERTEX
  8
0
  6
CONTINUOUS
 10
3.034680
 20
3.523080
  0
VERTEX
  8
0
  6
CONTINUOUS
 10
3.787520
 20
3.523080
  0
SEQEND
  8
0
  0
POLYLINE
  8
0
  6
CONTINUOUS
 66
     1
 40
0.014080
 41
0.014080
  0
VERTEX
  8
0
  6
CONTINUOUS
 10
8.015920
 20
3.523520
  0
VERTEX
  8
0
  6
CONTINUOUS
 10
3.787080
 20
3.523520
  0
VERTEX
  8
0
  6
CONTINUOUS
 10
3.787080
 20
4.332680
  0
VERTEX
  8
0
  6
CONTINUOUS
 10
4.821960
 20
4.332680
  0
VERTEX
  8
0
  6
CONTINUOUS
 10
4.830760
 20
4.302760
  0
VERTEX
  8
0
  6
CONTINUOUS
 10
4.854080
 20
4.244680
  0
VERTEX
  8
0
  6
CONTINUOUS
 10
4.881800
 20
4.189240
  0
VERTEX
  8
0
  6
CONTINUOUS
 10
4.912600
 20
4.138640
  0
VERTEX
  8
0
  6
CONTINUOUS
 10
4.960120
 20
4.075720
  0
VERTEX
  8
0
  6
CONTINUOUS
 10
4.990040
 20
4.044920
  0
VERTEX
  8
0
  6
CONTINUOUS
 10
5.015120
 20
4.025120
  0
VERTEX
  8
0
  6
CONTINUOUS
 10
5.030520
 20
4.018520
  0
VERTEX
  8
0
  6
CONTINUOUS
 10
5.034480
 20
4.018080
  0
VERTEX
  8
0
  6
CONTINUOUS
 10
5.042400
 20
4.021600
  0
VERTEX
  8
0
  6
CONTINUOUS
 10
5.054280
 20
4.037440
  0
VERTEX
  8
0
  6
CONTINUOUS
 10
5.101800
 20
4.124120
  0
VERTEX
  8
0
  6
CONTINUOUS
 10
5.129520
 20
4.164600
  0
VERTEX
  8
0
  6
CONTINUOUS
 10
5.165160
 20
4.205080
  0
VERTEX
  8
0
  6
CONTINUOUS
 10
5.210040
 20
4.242040
  0
VERTEX
  8
0
  6
CONTINUOUS
 10
5.246120
 20
4.263600
  0
VERTEX
  8
0
  6
CONTINUOUS
 10
5.265920
 20
4.273280
  0
VERTEX
  8
0
  6
CONTINUOUS
 10
5.310360
 20
4.289120
  0
VERTEX
  8
0
  6
CONTINUOUS
 10
5.360520
 20
4.299680
  0
VERTEX
  8
0
  6
CONTINUOUS
 10
5.387800
 20
4.303200
  0
VERTEX
  8
0
  6
CONTINUOUS
 10
5.417280
 20
4.304960
  0
VERTEX
  8
0
  6
CONTINUOUS
 10
5.448080
 20
4.304960
  0
VERTEX
  8
0
  6
CONTINUOUS
 10
5.478880
 20
4.303640
  0
VERTEX
  8
0
  6
CONTINUOUS
 10
5.508360
 20
4.300560
  0
VERTEX
  8
0
  6
CONTINUOUS
 10
5.562920
 20
4.290880
  0
VERTEX
  8
0
  6
CONTINUOUS
 10
5.588440
 20
4.284280
  0
VERTEX
  8
0
  6
CONTINUOUS
 10
5.635080
 20
4.267120
  0
VERTEX
  8
0
  6
CONTINUOUS
 10
5.657080
 20
4.257440
  0
VERTEX
  8
0
  6
CONTINUOUS
 10
5.697120
 20
4.234560
  0
VERTEX
  8
0
  6
CONTINUOUS
 10
5.716040
 20
4.222240
  0
VERTEX
  8
0
  6
CONTINUOUS
 10
5.767080
 20
4.180000
  0
VERTEX
  8
0
  6
CONTINUOUS
 10
5.797880
 20
4.148760
  0
VERTEX
  8
0
  6
CONTINUOUS
 10
5.826920
 20
4.116200
  0
VERTEX
  8
0
  6
CONTINUOUS
 10
5.957600
 20
3.943280
  0
VERTEX
  8
0
  6
CONTINUOUS
 10
5.999400
 20
3.894880
  0
VERTEX
  8
0
  6
CONTINUOUS
 10
6.030640
 20
3.864080
  0
VERTEX
  8
0
  6
CONTINUOUS
 10
6.062760
 20
3.837680
  0
VERTEX
  8
0
  6
CONTINUOUS
 10
6.094880
 20
3.816560
  0
VERTEX
  8
0
  6
CONTINUOUS
 10
6.127000
 20
3.800720
  0
VERTEX
  8
0
  6
CONTINUOUS
 10
6.158680
 20
3.790160
  0
VERTEX
  8
0
  6
CONTINUOUS
 10
6.189920
 20
3.784440
  0
VERTEX
  8
0
  6
CONTINUOUS
 10
6.220280
 20
3.783560
  0
VERTEX
  8
0
  6
CONTINUOUS
 10
6.250200
 20
3.787520
  0
VERTEX
  8
0
  6
CONTINUOUS
 10
6.278800
 20
3.795880
  0
VERTEX
  8
0
  6
CONTINUOUS
 10
6.306520
 20
3.808640
  0
VERTEX
  8
0
  6
CONTINUOUS
 10
6.333360
 20
3.826240
  0
VERTEX
  8
0
  6
CONTINUOUS
 10
6.358440
 20
3.847800
  0
VERTEX
  8
0
  6
CONTINUOUS
 10
6.382200
 20
3.873320
  0
VERTEX
  8
0
  6
CONTINUOUS
 10
6.414760
 20
3.919080
  0
VERTEX
  8
0
  6
CONTINUOUS
 10
6.434120
 20
3.954280
  0
VERTEX
  8
0
  6
CONTINUOUS
 10
6.451280
 20
3.993440
  0
VERTEX
  8
0
  6
CONTINUOUS
 10
6.709120
 20
3.993440
  0
VERTEX
  8
0
  6
CONTINUOUS
 10
6.713080
 20
4.015000
  0
VERTEX
  8
0
  6
CONTINUOUS
 10
6.718800
 20
4.036120
  0
VERTEX
  8
0
  6
CONTINUOUS
 10
6.726280
 20
4.055920
  0
VERTEX
  8
0
  6
CONTINUOUS
 10
6.735960
 20
4.075280
  0
VERTEX
  8
0
  6
CONTINUOUS
 10
6.746960
 20
4.093320
  0
VERTEX
  8
0
  6
CONTINUOUS
 10
6.759720
 20
4.110480
  0
VERTEX
  8
0
  6
CONTINUOUS
 10
6.789200
 20
4.141280
  0
VERTEX
  8
0
  6
CONTINUOUS
 10
6.805920
 20
4.154480
  0
VERTEX
  8
0
  6
CONTINUOUS
 10
6.823960
 20
4.166360
  0
VERTEX
  8
0
  6
CONTINUOUS
 10
6.862680
 20
4.185280
  0
VERTEX
  8
0
  6
CONTINUOUS
 10
6.904920
 20
4.197160
  0
VERTEX
  8
0
  6
CONTINUOUS
 10
6.926920
 20
4.200240
  0
VERTEX
  8
0
  6
CONTINUOUS
 10
6.949360
 20
4.201120
  0
VERTEX
  8
0
  6
CONTINUOUS
 10
6.971800
 20
4.200240
  0
VERTEX
  8
0
  6
CONTINUOUS
 10
6.993800
 20
4.197160
  0
VERTEX
  8
0
  6
CONTINUOUS
 10
7.014920
 20
4.191880
  0
VERTEX
  8
0
  6
CONTINUOUS
 10
7.054520
 20
4.176480
  0
VERTEX
  8
0
  6
CONTINUOUS
 10
7.090600
 20
4.154040
  0
VERTEX
  8
0
  6
CONTINUOUS
 10
7.106880
 20
4.140840
  0
VERTEX
  8
0
  6
CONTINUOUS
 10
7.121840
 20
4.126320
  0
VERTEX
  8
0
  6
CONTINUOUS
 10
7.147800
 20
4.092880
  0
VERTEX
  8
0
  6
CONTINUOUS
 10
7.158800
 20
4.074840
  0
VERTEX
  8
0
  6
CONTINUOUS
 10
7.168040
 20
4.055480
  0
VERTEX
  8
0
  6
CONTINUOUS
 10
7.175520
 20
4.035240
  0
VERTEX
  8
0
  6
CONTINUOUS
 10
7.184760
 20
3.992560
  0
VERTEX
  8
0
  6
CONTINUOUS
 10
7.469440
 20
3.992560
  0
VERTEX
  8
0
  6
CONTINUOUS
 10
7.489240
 20
3.976720
  0
VERTEX
  8
0
  6
CONTINUOUS
 10
7.514320
 20
3.963080
  0
VERTEX
  8
0
  6
CONTINUOUS
 10
7.532800
 20
3.955160
  0
VERTEX
  8
0
  6
CONTINUOUS
 10
7.574600
 20
3.941960
  0
VERTEX
  8
0
  6
CONTINUOUS
 10
7.619480
 20
3.931400
  0
VERTEX
  8
0
  6
CONTINUOUS
 10
7.771280
 20
3.904120
  0
VERTEX
  8
0
  6
CONTINUOUS
 10
7.840800
 20
3.885200
  0
VERTEX
  8
0
  6
CONTINUOUS
 10
7.879080
 20
3.868480
  0
VERTEX
  8
0
  6
CONTINUOUS
 10
7.907240
 20
3.850880
  0
VERTEX
  8
0
  6
CONTINUOUS
 10
7.934520
 20
3.826680
  0
VERTEX
  8
0
  6
CONTINUOUS
 10
7.959160
 20
3.795000
  0
VERTEX
  8
0
  6
CONTINUOUS
 10
7.974120
 20
3.769480
  0
VERTEX
  8
0
  6
CONTINUOUS
 10
7.987320
 20
3.739120
  0
VERTEX
  8
0
  6
CONTINUOUS
 10
8.003160
 20
3.685000
  0
VERTEX
  8
0
  6
CONTINUOUS
 10
8.010640
 20
3.642320
  0
VERTEX
  8
0
  6
CONTINUOUS
 10
8.015040
 20
3.594360
  0
VERTEX
  8
0
  6
CONTINUOUS
 10
8.016800
 20
3.523520
  0
VERTEX
  8
0
  6
CONTINUOUS
 10
8.015920
 20
3.523520
  0
SEQEND
  8
0
  0
TEXT
  8
0
 10
4.361720
 20
3.263920
 40
0.138064
  1
BA  969 1" x 1-9/16"
 41
1.000000
  7
SN0
 71
     0
 72
     5
 11
5.855730
 21
3.263920
  0
TEXT
  8
0
 10
4.361720
 20
3.072520
 40
0.138064
  1
BA  970 13/16" x 4-1/4"
 41
1.000000
  7
SN0
 71
     0
 72
     5
 11
6.086682
 21
3.072520
  0
TEXT
  8
0
 10
3.119600
 20
3.609320
 40
0.138064
  1
969
 41
1.000000
  7
SN0
 71
     0
 72
     5
 11
3.397145
 21
3.609320
  0
TEXT
  8
0
 10
3.877280
 20
3.609320
 40
0.138064
  1
970
 41
1.000000
  7
SN0
 71
     0
 72
     5
 11
4.154825
 21
3.609320
  0
ENDSEC
  0
EOF
