  0
SECTION
  2
HEADER
  9
$ACADVER
  1
AC1006
  9
$EXTMIN
 10
2.672560
 20
0.484440
  9
$EXTMAX
 10
8.024280
 20
5.367120
  9
$LTSCALE
 40
0.044000
  9
$PDMODE
 70
    35
  9
$PDSIZE
 40
0.035200
  0
ENDSEC
  0
SECTION
  2
TABLES
  0
TABLE
  2
LTYPE
 70
     9
  0
LTYPE
  2
CONTINUOUS
 70
    64
  3
Solid line
 72
    65
 73
     0
 40
0.000000
  0
LTYPE
  2
DASHED
 70
    64
  3
__ __ __ __ __ __ __ __ __ __ __ __ __ __ __
 72
    65
 73
     2
 40
0.000330
 49
0.000220
 49
-0.000110
  0
LTYPE
  2
HIDDEN
 70
    64
  3
 _ _ _ _ _ _ _ _ _ _ _ _ _ _ _ _ _ _ _ _ _ _
 72
    65
 73
     2
 40
0.000165
 49
0.000110
 49
-0.000055
  0
LTYPE
  2
CENTER
 70
    64
  3
____ _ ____ _ ____ _ ____ _ ____ _ ____ _ ____
 72
    65
 73
     4
 40
0.000880
 49
0.000550
 49
-0.000110
 49
0.000110
 49
-0.000110
  0
LTYPE
  2
PHANTOM
 70
    64
  3
_____ _ _ _____ _ _ _____ _ _ _____ _ _ ____
 72
    65
 73
     6
 40
0.001100
 49
0.000550
 49
-0.000110
 49
0.000110
 49
-0.000110
 49
0.000110
 49
-0.000110
  0
LTYPE
  2
DOT
 70
    64
  3
...............................................
 72
    65
 73
     2
 40
0.000110
 49
0.000000
 49
-0.000110
  0
LTYPE
  2
DASHDOT
 70
    64
  3
__ . __ . __ . __ . __ . __ . __ . __ . __ . __
 72
    65
 73
     4
 40
0.000440
 49
0.000220
 49
-0.000110
 49
0.000000
 49
-0.000110
  0
LTYPE
  2
BORDER
 70
    64
  3
__ __ . __ __ . __ __ . __ __ . __ __ . __ __
 72
    65
 73
     6
 40
0.000770
 49
0.000220
 49
-0.000110
 49
0.000220
 49
-0.000110
 49
0.000000
 49
-0.000110
  0
LTYPE
  2
DIVIDE
 70
    64
  3
__ . . __ . . __ . . __ . . __ . . __ . . __
 72
    65
 73
     6
 40
0.000550
 49
0.000220
 49
-0.000110
 49
0.000000
 49
-0.000110
 49
0.000000
 49
-0.000110
  0
LTYPE
  2
DOTDOT
 70
    64
  3
 . .  . .  . .  . .  . .  . . 
 72
    65
 73
     5
 40
0.000242
 49
-0.000110
 49
0.000000
 49
-0.000110
 49
0.000000
 49
-0.000110
  0
ENDTAB
  0
TABLE
  2
STYLE
 70
     2
  0
STYLE
 70
     0
  2
SN0
 40
0.000000
 41
0.000440
 50
0.000000
 71
     0
 42
0.000000
  3
ROMAND
  0
STYLE
 70
    68
  2
SV0
 40
0.000000
 41
0.000440
 50
0.000000
 71
     0
 42
0.000000
  3
ROMAND
  0
ENDTAB
  0
TABLE
  2
LAYER
 70
     3
  0
LAYER
  2
FOREGROUND
 70
    64
 62
     7
  6
CONTINUOUS
  0
LAYER
  2
BACKGROUND
 70
    65
 62
    -7
  6
CONTINUOUS
  0
LAYER
  2
0
 70
    64
 62
     7
  6
CONTINUOUS
  0
ENDTAB
  0
ENDSEC
  0
SECTION
  2
ENTITIES
  0
POLYLINE
  8
FOREGROUND
  6
CONTINUOUS
 66
     1
 40
0.000000
 41
0.000000
  0
VERTEX
  8
FOREGROUND
  6
CONTINUOUS
 10
0.000000
 20
5.851560
  0
VERTEX
  8
FOREGROUND
  6
CONTINUOUS
 10
8.499920
 20
5.851560
  0
VERTEX
  8
FOREGROUND
  6
CONTINUOUS
 10
8.499920
 20
-5.148440
  0
VERTEX
  8
FOREGROUND
  6
CONTINUOUS
 10
0.000000
 20
-5.148440
  0
VERTEX
  8
FOREGROUND
  6
CONTINUOUS
 10
0.000000
 20
5.851560
  0
SEQEND
  8
0
  0
POLYLINE
  8
FOREGROUND
  6
CONTINUOUS
 66
     1
 40
0.000000
 41
0.000000
  0
VERTEX
  8
FOREGROUND
  6
CONTINUOUS
 10
0.000000
 20
5.851560
  0
VERTEX
  8
FOREGROUND
  6
CONTINUOUS
 10
8.499920
 20
5.851560
  0
VERTEX
  8
FOREGROUND
  6
CONTINUOUS
 10
8.499920
 20
-5.148440
  0
VERTEX
  8
FOREGROUND
  6
CONTINUOUS
 10
0.000000
 20
-5.148440
  0
VERTEX
  8
FOREGROUND
  6
CONTINUOUS
 10
0.000000
 20
5.851560
  0
SEQEND
  8
0
  0
SOLID
  8
0
 62
    15
 10
5.942640
 20
1.226720
 11
5.944400
 21
1.964160
 12
5.969480
 22
1.241680
 13
5.971680
 23
1.979120
  0
POLYLINE
  8
0
  6
CONTINUOUS
 66
     1
 40
0.000000
 41
0.000000
  0
VERTEX
  8
0
  6
CONTINUOUS
 10
5.942640
 20
1.226720
  0
VERTEX
  8
0
  6
CONTINUOUS
 10
5.944400
 20
1.964160
  0
VERTEX
  8
0
  6
CONTINUOUS
 10
5.971680
 20
1.979120
  0
VERTEX
  8
0
  6
CONTINUOUS
 10
5.969480
 20
1.241680
  0
VERTEX
  8
0
  6
CONTINUOUS
 10
5.942640
 20
1.226720
  0
SEQEND
  8
0
  0
SOLID
  8
0
 62
    15
 10
4.471280
 20
1.757800
 11
4.473480
 21
2.494800
 12
4.491080
 22
1.698400
 13
4.493280
 23
2.435840
  0
POLYLINE
  8
0
  6
CONTINUOUS
 66
     1
 40
0.000000
 41
0.000000
  0
VERTEX
  8
0
  6
CONTINUOUS
 10
4.471280
 20
1.757800
  0
VERTEX
  8
0
  6
CONTINUOUS
 10
4.473480
 20
2.494800
  0
VERTEX
  8
0
  6
CONTINUOUS
 10
4.493280
 20
2.435840
  0
VERTEX
  8
0
  6
CONTINUOUS
 10
4.491080
 20
1.698400
  0
VERTEX
  8
0
  6
CONTINUOUS
 10
4.471280
 20
1.757800
  0
SEQEND
  8
0
  0
SOLID
  8
0
 62
    15
 10
4.491080
 20
1.698400
 11
4.493280
 21
2.435840
 12
4.516600
 22
1.641200
 13
4.518800
 23
2.378640
  0
POLYLINE
  8
0
  6
CONTINUOUS
 66
     1
 40
0.000000
 41
0.000000
  0
VERTEX
  8
0
  6
CONTINUOUS
 10
4.491080
 20
1.698400
  0
VERTEX
  8
0
  6
CONTINUOUS
 10
4.493280
 20
2.435840
  0
VERTEX
  8
0
  6
CONTINUOUS
 10
4.518800
 20
2.378640
  0
VERTEX
  8
0
  6
CONTINUOUS
 10
4.516600
 20
1.641200
  0
VERTEX
  8
0
  6
CONTINUOUS
 10
4.491080
 20
1.698400
  0
SEQEND
  8
0
  0
SOLID
  8
0
 62
    15
 10
4.516600
 20
1.641200
 11
4.518800
 21
2.378640
 12
4.546520
 22
1.587960
 13
4.548720
 23
2.325400
  0
POLYLINE
  8
0
  6
CONTINUOUS
 66
     1
 40
0.000000
 41
0.000000
  0
VERTEX
  8
0
  6
CONTINUOUS
 10
4.516600
 20
1.641200
  0
VERTEX
  8
0
  6
CONTINUOUS
 10
4.518800
 20
2.378640
  0
VERTEX
  8
0
  6
CONTINUOUS
 10
4.548720
 20
2.325400
  0
VERTEX
  8
0
  6
CONTINUOUS
 10
4.546520
 20
1.587960
  0
VERTEX
  8
0
  6
CONTINUOUS
 10
4.516600
 20
1.641200
  0
SEQEND
  8
0
  0
SOLID
  8
0
 62
    15
 10
4.546520
 20
1.587960
 11
4.548720
 21
2.325400
 12
4.578200
 22
1.540440
 13
4.580400
 23
2.277880
  0
POLYLINE
  8
0
  6
CONTINUOUS
 66
     1
 40
0.000000
 41
0.000000
  0
VERTEX
  8
0
  6
CONTINUOUS
 10
4.546520
 20
1.587960
  0
VERTEX
  8
0
  6
CONTINUOUS
 10
4.548720
 20
2.325400
  0
VERTEX
  8
0
  6
CONTINUOUS
 10
4.580400
 20
2.277880
  0
VERTEX
  8
0
  6
CONTINUOUS
 10
4.578200
 20
1.540440
  0
VERTEX
  8
0
  6
CONTINUOUS
 10
4.546520
 20
1.587960
  0
SEQEND
  8
0
  0
SOLID
  8
0
 62
    15
 10
4.578200
 20
1.540440
 11
4.580400
 21
2.277880
 12
4.609880
 22
1.500400
 13
4.611640
 23
2.237840
  0
POLYLINE
  8
0
  6
CONTINUOUS
 66
     1
 40
0.000000
 41
0.000000
  0
VERTEX
  8
0
  6
CONTINUOUS
 10
4.578200
 20
1.540440
  0
VERTEX
  8
0
  6
CONTINUOUS
 10
4.580400
 20
2.277880
  0
VERTEX
  8
0
  6
CONTINUOUS
 10
4.611640
 20
2.237840
  0
VERTEX
  8
0
  6
CONTINUOUS
 10
4.609880
 20
1.500400
  0
VERTEX
  8
0
  6
CONTINUOUS
 10
4.578200
 20
1.540440
  0
SEQEND
  8
0
  0
SOLID
  8
0
 62
    15
 10
4.609880
 20
1.500400
 11
4.611640
 21
2.237840
 12
4.639360
 22
1.469600
 13
4.641120
 23
2.206600
  0
POLYLINE
  8
0
  6
CONTINUOUS
 66
     1
 40
0.000000
 41
0.000000
  0
VERTEX
  8
0
  6
CONTINUOUS
 10
4.609880
 20
1.500400
  0
VERTEX
  8
0
  6
CONTINUOUS
 10
4.611640
 20
2.237840
  0
VERTEX
  8
0
  6
CONTINUOUS
 10
4.641120
 20
2.206600
  0
VERTEX
  8
0
  6
CONTINUOUS
 10
4.639360
 20
1.469600
  0
VERTEX
  8
0
  6
CONTINUOUS
 10
4.609880
 20
1.500400
  0
SEQEND
  8
0
  0
SOLID
  8
0
 62
    15
 10
4.639360
 20
1.469600
 11
4.641120
 21
2.206600
 12
4.664440
 22
1.449800
 13
4.666640
 23
2.186800
  0
POLYLINE
  8
0
  6
CONTINUOUS
 66
     1
 40
0.000000
 41
0.000000
  0
VERTEX
  8
0
  6
CONTINUOUS
 10
4.639360
 20
1.469600
  0
VERTEX
  8
0
  6
CONTINUOUS
 10
4.641120
 20
2.206600
  0
VERTEX
  8
0
  6
CONTINUOUS
 10
4.666640
 20
2.186800
  0
VERTEX
  8
0
  6
CONTINUOUS
 10
4.664440
 20
1.449800
  0
VERTEX
  8
0
  6
CONTINUOUS
 10
4.639360
 20
1.469600
  0
SEQEND
  8
0
  0
SOLID
  8
0
 62
    15
 10
4.664440
 20
1.449800
 11
4.666640
 21
2.186800
 12
4.675000
 22
1.444520
 13
4.677200
 23
2.181960
  0
POLYLINE
  8
0
  6
CONTINUOUS
 66
     1
 40
0.000000
 41
0.000000
  0
VERTEX
  8
0
  6
CONTINUOUS
 10
4.664440
 20
1.449800
  0
VERTEX
  8
0
  6
CONTINUOUS
 10
4.666640
 20
2.186800
  0
VERTEX
  8
0
  6
CONTINUOUS
 10
4.677200
 20
2.181960
  0
VERTEX
  8
0
  6
CONTINUOUS
 10
4.675000
 20
1.444520
  0
VERTEX
  8
0
  6
CONTINUOUS
 10
4.664440
 20
1.449800
  0
SEQEND
  8
0
  0
SOLID
  8
0
 62
    15
 10
4.675000
 20
1.444520
 11
4.677200
 21
2.181960
 12
4.683800
 22
1.442760
 13
4.686000
 23
2.180200
  0
POLYLINE
  8
0
  6
CONTINUOUS
 66
     1
 40
0.000000
 41
0.000000
  0
VERTEX
  8
0
  6
CONTINUOUS
 10
4.675000
 20
1.444520
  0
VERTEX
  8
0
  6
CONTINUOUS
 10
4.677200
 20
2.181960
  0
VERTEX
  8
0
  6
CONTINUOUS
 10
4.686000
 20
2.180200
  0
VERTEX
  8
0
  6
CONTINUOUS
 10
4.683800
 20
1.442760
  0
VERTEX
  8
0
  6
CONTINUOUS
 10
4.675000
 20
1.444520
  0
SEQEND
  8
0
  0
SOLID
  8
0
 62
    15
 10
4.683800
 20
1.442760
 11
4.686000
 21
2.180200
 12
4.691720
 22
1.445840
 13
4.693920
 23
2.183280
  0
POLYLINE
  8
0
  6
CONTINUOUS
 66
     1
 40
0.000000
 41
0.000000
  0
VERTEX
  8
0
  6
CONTINUOUS
 10
4.683800
 20
1.442760
  0
VERTEX
  8
0
  6
CONTINUOUS
 10
4.686000
 20
2.180200
  0
VERTEX
  8
0
  6
CONTINUOUS
 10
4.693920
 20
2.183280
  0
VERTEX
  8
0
  6
CONTINUOUS
 10
4.691720
 20
1.445840
  0
VERTEX
  8
0
  6
CONTINUOUS
 10
4.683800
 20
1.442760
  0
SEQEND
  8
0
  0
SOLID
  8
0
 62
    15
 10
4.691720
 20
1.445840
 11
4.693920
 21
2.183280
 12
4.699640
 22
1.455520
 13
4.701840
 23
2.192520
  0
POLYLINE
  8
0
  6
CONTINUOUS
 66
     1
 40
0.000000
 41
0.000000
  0
VERTEX
  8
0
  6
CONTINUOUS
 10
4.691720
 20
1.445840
  0
VERTEX
  8
0
  6
CONTINUOUS
 10
4.693920
 20
2.183280
  0
VERTEX
  8
0
  6
CONTINUOUS
 10
4.701840
 20
2.192520
  0
VERTEX
  8
0
  6
CONTINUOUS
 10
4.699640
 20
1.455520
  0
VERTEX
  8
0
  6
CONTINUOUS
 10
4.691720
 20
1.445840
  0
SEQEND
  8
0
  0
SOLID
  8
0
 62
    15
 10
4.699640
 20
1.455520
 11
4.701840
 21
2.192520
 12
4.708440
 22
1.470040
 13
4.710640
 23
2.207040
  0
POLYLINE
  8
0
  6
CONTINUOUS
 66
     1
 40
0.000000
 41
0.000000
  0
VERTEX
  8
0
  6
CONTINUOUS
 10
4.699640
 20
1.455520
  0
VERTEX
  8
0
  6
CONTINUOUS
 10
4.701840
 20
2.192520
  0
VERTEX
  8
0
  6
CONTINUOUS
 10
4.710640
 20
2.207040
  0
VERTEX
  8
0
  6
CONTINUOUS
 10
4.708440
 20
1.470040
  0
VERTEX
  8
0
  6
CONTINUOUS
 10
4.699640
 20
1.455520
  0
SEQEND
  8
0
  0
SOLID
  8
0
 62
    15
 10
4.708440
 20
1.470040
 11
4.710640
 21
2.207040
 12
4.718120
 22
1.488520
 13
4.720320
 23
2.225960
  0
POLYLINE
  8
0
  6
CONTINUOUS
 66
     1
 40
0.000000
 41
0.000000
  0
VERTEX
  8
0
  6
CONTINUOUS
 10
4.708440
 20
1.470040
  0
VERTEX
  8
0
  6
CONTINUOUS
 10
4.710640
 20
2.207040
  0
VERTEX
  8
0
  6
CONTINUOUS
 10
4.720320
 20
2.225960
  0
VERTEX
  8
0
  6
CONTINUOUS
 10
4.718120
 20
1.488520
  0
VERTEX
  8
0
  6
CONTINUOUS
 10
4.708440
 20
1.470040
  0
SEQEND
  8
0
  0
SOLID
  8
0
 62
    15
 10
4.718120
 20
1.488520
 11
4.720320
 21
2.225960
 12
4.723840
 22
1.499520
 13
4.726040
 23
2.236960
  0
POLYLINE
  8
0
  6
CONTINUOUS
 66
     1
 40
0.000000
 41
0.000000
  0
VERTEX
  8
0
  6
CONTINUOUS
 10
4.718120
 20
1.488520
  0
VERTEX
  8
0
  6
CONTINUOUS
 10
4.720320
 20
2.225960
  0
VERTEX
  8
0
  6
CONTINUOUS
 10
4.726040
 20
2.236960
  0
VERTEX
  8
0
  6
CONTINUOUS
 10
4.723840
 20
1.499520
  0
VERTEX
  8
0
  6
CONTINUOUS
 10
4.718120
 20
1.488520
  0
SEQEND
  8
0
  0
SOLID
  8
0
 62
    15
 10
4.723840
 20
1.499520
 11
4.726040
 21
2.236960
 12
4.730000
 22
1.510960
 13
4.731760
 23
2.248400
  0
POLYLINE
  8
0
  6
CONTINUOUS
 66
     1
 40
0.000000
 41
0.000000
  0
VERTEX
  8
0
  6
CONTINUOUS
 10
4.723840
 20
1.499520
  0
VERTEX
  8
0
  6
CONTINUOUS
 10
4.726040
 20
2.236960
  0
VERTEX
  8
0
  6
CONTINUOUS
 10
4.731760
 20
2.248400
  0
VERTEX
  8
0
  6
CONTINUOUS
 10
4.730000
 20
1.510960
  0
VERTEX
  8
0
  6
CONTINUOUS
 10
4.723840
 20
1.499520
  0
SEQEND
  8
0
  0
SOLID
  8
0
 62
    15
 10
4.730000
 20
1.510960
 11
4.731760
 21
2.248400
 12
4.743640
 22
1.535600
 13
4.745840
 23
2.273040
  0
POLYLINE
  8
0
  6
CONTINUOUS
 66
     1
 40
0.000000
 41
0.000000
  0
VERTEX
  8
0
  6
CONTINUOUS
 10
4.730000
 20
1.510960
  0
VERTEX
  8
0
  6
CONTINUOUS
 10
4.731760
 20
2.248400
  0
VERTEX
  8
0
  6
CONTINUOUS
 10
4.745840
 20
2.273040
  0
VERTEX
  8
0
  6
CONTINUOUS
 10
4.743640
 20
1.535600
  0
VERTEX
  8
0
  6
CONTINUOUS
 10
4.730000
 20
1.510960
  0
SEQEND
  8
0
  0
SOLID
  8
0
 62
    15
 10
4.743640
 20
1.535600
 11
4.745840
 21
2.273040
 12
4.779280
 22
1.589280
 13
4.781040
 23
2.326720
  0
POLYLINE
  8
0
  6
CONTINUOUS
 66
     1
 40
0.000000
 41
0.000000
  0
VERTEX
  8
0
  6
CONTINUOUS
 10
4.743640
 20
1.535600
  0
VERTEX
  8
0
  6
CONTINUOUS
 10
4.745840
 20
2.273040
  0
VERTEX
  8
0
  6
CONTINUOUS
 10
4.781040
 20
2.326720
  0
VERTEX
  8
0
  6
CONTINUOUS
 10
4.779280
 20
1.589280
  0
VERTEX
  8
0
  6
CONTINUOUS
 10
4.743640
 20
1.535600
  0
SEQEND
  8
0
  0
SOLID
  8
0
 62
    15
 10
4.779280
 20
1.589280
 11
4.781040
 21
2.326720
 12
4.801720
 22
1.616560
 13
4.803920
 23
2.354000
  0
POLYLINE
  8
0
  6
CONTINUOUS
 66
     1
 40
0.000000
 41
0.000000
  0
VERTEX
  8
0
  6
CONTINUOUS
 10
4.779280
 20
1.589280
  0
VERTEX
  8
0
  6
CONTINUOUS
 10
4.781040
 20
2.326720
  0
VERTEX
  8
0
  6
CONTINUOUS
 10
4.803920
 20
2.354000
  0
VERTEX
  8
0
  6
CONTINUOUS
 10
4.801720
 20
1.616560
  0
VERTEX
  8
0
  6
CONTINUOUS
 10
4.779280
 20
1.589280
  0
SEQEND
  8
0
  0
SOLID
  8
0
 62
    15
 10
4.801720
 20
1.616560
 11
4.803920
 21
2.354000
 12
4.828560
 22
1.642520
 13
4.830760
 23
2.379960
  0
POLYLINE
  8
0
  6
CONTINUOUS
 66
     1
 40
0.000000
 41
0.000000
  0
VERTEX
  8
0
  6
CONTINUOUS
 10
4.801720
 20
1.616560
  0
VERTEX
  8
0
  6
CONTINUOUS
 10
4.803920
 20
2.354000
  0
VERTEX
  8
0
  6
CONTINUOUS
 10
4.830760
 20
2.379960
  0
VERTEX
  8
0
  6
CONTINUOUS
 10
4.828560
 20
1.642520
  0
VERTEX
  8
0
  6
CONTINUOUS
 10
4.801720
 20
1.616560
  0
SEQEND
  8
0
  0
SOLID
  8
0
 62
    15
 10
4.828560
 20
1.642520
 11
4.830760
 21
2.379960
 12
4.859800
 22
1.667160
 13
4.862000
 23
2.404160
  0
POLYLINE
  8
0
  6
CONTINUOUS
 66
     1
 40
0.000000
 41
0.000000
  0
VERTEX
  8
0
  6
CONTINUOUS
 10
4.828560
 20
1.642520
  0
VERTEX
  8
0
  6
CONTINUOUS
 10
4.830760
 20
2.379960
  0
VERTEX
  8
0
  6
CONTINUOUS
 10
4.862000
 20
2.404160
  0
VERTEX
  8
0
  6
CONTINUOUS
 10
4.859800
 20
1.667160
  0
VERTEX
  8
0
  6
CONTINUOUS
 10
4.828560
 20
1.642520
  0
SEQEND
  8
0
  0
SOLID
  8
0
 62
    15
 10
4.859800
 20
1.667160
 11
4.862000
 21
2.404160
 12
4.895880
 22
1.688280
 13
4.897640
 23
2.425720
  0
POLYLINE
  8
0
  6
CONTINUOUS
 66
     1
 40
0.000000
 41
0.000000
  0
VERTEX
  8
0
  6
CONTINUOUS
 10
4.859800
 20
1.667160
  0
VERTEX
  8
0
  6
CONTINUOUS
 10
4.862000
 20
2.404160
  0
VERTEX
  8
0
  6
CONTINUOUS
 10
4.897640
 20
2.425720
  0
VERTEX
  8
0
  6
CONTINUOUS
 10
4.895880
 20
1.688280
  0
VERTEX
  8
0
  6
CONTINUOUS
 10
4.859800
 20
1.667160
  0
SEQEND
  8
0
  0
SOLID
  8
0
 62
    15
 10
4.895880
 20
1.688280
 11
4.897640
 21
2.425720
 12
4.937240
 22
1.706320
 13
4.939000
 23
2.443760
  0
POLYLINE
  8
0
  6
CONTINUOUS
 66
     1
 40
0.000000
 41
0.000000
  0
VERTEX
  8
0
  6
CONTINUOUS
 10
4.895880
 20
1.688280
  0
VERTEX
  8
0
  6
CONTINUOUS
 10
4.897640
 20
2.425720
  0
VERTEX
  8
0
  6
CONTINUOUS
 10
4.939000
 20
2.443760
  0
VERTEX
  8
0
  6
CONTINUOUS
 10
4.937240
 20
1.706320
  0
VERTEX
  8
0
  6
CONTINUOUS
 10
4.895880
 20
1.688280
  0
SEQEND
  8
0
  0
SOLID
  8
0
 62
    15
 10
4.937240
 20
1.706320
 11
4.939000
 21
2.443760
 12
4.984320
 22
1.719960
 13
4.986080
 23
2.457400
  0
POLYLINE
  8
0
  6
CONTINUOUS
 66
     1
 40
0.000000
 41
0.000000
  0
VERTEX
  8
0
  6
CONTINUOUS
 10
4.937240
 20
1.706320
  0
VERTEX
  8
0
  6
CONTINUOUS
 10
4.939000
 20
2.443760
  0
VERTEX
  8
0
  6
CONTINUOUS
 10
4.986080
 20
2.457400
  0
VERTEX
  8
0
  6
CONTINUOUS
 10
4.984320
 20
1.719960
  0
VERTEX
  8
0
  6
CONTINUOUS
 10
4.937240
 20
1.706320
  0
SEQEND
  8
0
  0
SOLID
  8
0
 62
    15
 10
4.984320
 20
1.719960
 11
4.986080
 21
2.457400
 12
5.037560
 22
1.727880
 13
5.039760
 23
2.465320
  0
POLYLINE
  8
0
  6
CONTINUOUS
 66
     1
 40
0.000000
 41
0.000000
  0
VERTEX
  8
0
  6
CONTINUOUS
 10
4.984320
 20
1.719960
  0
VERTEX
  8
0
  6
CONTINUOUS
 10
4.986080
 20
2.457400
  0
VERTEX
  8
0
  6
CONTINUOUS
 10
5.039760
 20
2.465320
  0
VERTEX
  8
0
  6
CONTINUOUS
 10
5.037560
 20
1.727880
  0
VERTEX
  8
0
  6
CONTINUOUS
 10
4.984320
 20
1.719960
  0
SEQEND
  8
0
  0
SOLID
  8
0
 62
    15
 10
5.037560
 20
1.727880
 11
5.039760
 21
2.465320
 12
5.097400
 22
1.729640
 13
5.099600
 23
2.467080
  0
POLYLINE
  8
0
  6
CONTINUOUS
 66
     1
 40
0.000000
 41
0.000000
  0
VERTEX
  8
0
  6
CONTINUOUS
 10
5.037560
 20
1.727880
  0
VERTEX
  8
0
  6
CONTINUOUS
 10
5.039760
 20
2.465320
  0
VERTEX
  8
0
  6
CONTINUOUS
 10
5.099600
 20
2.467080
  0
VERTEX
  8
0
  6
CONTINUOUS
 10
5.097400
 20
1.729640
  0
VERTEX
  8
0
  6
CONTINUOUS
 10
5.037560
 20
1.727880
  0
SEQEND
  8
0
  0
SOLID
  8
0
 62
    15
 10
5.097400
 20
1.729640
 11
5.099600
 21
2.467080
 12
5.158120
 22
1.725240
 13
5.160320
 23
2.462680
  0
POLYLINE
  8
0
  6
CONTINUOUS
 66
     1
 40
0.000000
 41
0.000000
  0
VERTEX
  8
0
  6
CONTINUOUS
 10
5.097400
 20
1.729640
  0
VERTEX
  8
0
  6
CONTINUOUS
 10
5.099600
 20
2.467080
  0
VERTEX
  8
0
  6
CONTINUOUS
 10
5.160320
 20
2.462680
  0
VERTEX
  8
0
  6
CONTINUOUS
 10
5.158120
 20
1.725240
  0
VERTEX
  8
0
  6
CONTINUOUS
 10
5.097400
 20
1.729640
  0
SEQEND
  8
0
  0
SOLID
  8
0
 62
    15
 10
5.158120
 20
1.725240
 11
5.160320
 21
2.462680
 12
5.212680
 22
1.715560
 13
5.214880
 23
2.453000
  0
POLYLINE
  8
0
  6
CONTINUOUS
 66
     1
 40
0.000000
 41
0.000000
  0
VERTEX
  8
0
  6
CONTINUOUS
 10
5.158120
 20
1.725240
  0
VERTEX
  8
0
  6
CONTINUOUS
 10
5.160320
 20
2.462680
  0
VERTEX
  8
0
  6
CONTINUOUS
 10
5.214880
 20
2.453000
  0
VERTEX
  8
0
  6
CONTINUOUS
 10
5.212680
 20
1.715560
  0
VERTEX
  8
0
  6
CONTINUOUS
 10
5.158120
 20
1.725240
  0
SEQEND
  8
0
  0
SOLID
  8
0
 62
    15
 10
5.212680
 20
1.715560
 11
5.214880
 21
2.453000
 12
5.261960
 22
1.701040
 13
5.264160
 23
2.438480
  0
POLYLINE
  8
0
  6
CONTINUOUS
 66
     1
 40
0.000000
 41
0.000000
  0
VERTEX
  8
0
  6
CONTINUOUS
 10
5.212680
 20
1.715560
  0
VERTEX
  8
0
  6
CONTINUOUS
 10
5.214880
 20
2.453000
  0
VERTEX
  8
0
  6
CONTINUOUS
 10
5.264160
 20
2.438480
  0
VERTEX
  8
0
  6
CONTINUOUS
 10
5.261960
 20
1.701040
  0
VERTEX
  8
0
  6
CONTINUOUS
 10
5.212680
 20
1.715560
  0
SEQEND
  8
0
  0
SOLID
  8
0
 62
    15
 10
5.261960
 20
1.701040
 11
5.264160
 21
2.438480
 12
5.306400
 22
1.682120
 13
5.308600
 23
2.419560
  0
POLYLINE
  8
0
  6
CONTINUOUS
 66
     1
 40
0.000000
 41
0.000000
  0
VERTEX
  8
0
  6
CONTINUOUS
 10
5.261960
 20
1.701040
  0
VERTEX
  8
0
  6
CONTINUOUS
 10
5.264160
 20
2.438480
  0
VERTEX
  8
0
  6
CONTINUOUS
 10
5.308600
 20
2.419560
  0
VERTEX
  8
0
  6
CONTINUOUS
 10
5.306400
 20
1.682120
  0
VERTEX
  8
0
  6
CONTINUOUS
 10
5.261960
 20
1.701040
  0
SEQEND
  8
0
  0
SOLID
  8
0
 62
    15
 10
5.306400
 20
1.682120
 11
5.308600
 21
2.419560
 12
5.346880
 22
1.659680
 13
5.349080
 23
2.396680
  0
POLYLINE
  8
0
  6
CONTINUOUS
 66
     1
 40
0.000000
 41
0.000000
  0
VERTEX
  8
0
  6
CONTINUOUS
 10
5.306400
 20
1.682120
  0
VERTEX
  8
0
  6
CONTINUOUS
 10
5.308600
 20
2.419560
  0
VERTEX
  8
0
  6
CONTINUOUS
 10
5.349080
 20
2.396680
  0
VERTEX
  8
0
  6
CONTINUOUS
 10
5.346880
 20
1.659680
  0
VERTEX
  8
0
  6
CONTINUOUS
 10
5.306400
 20
1.682120
  0
SEQEND
  8
0
  0
SOLID
  8
0
 62
    15
 10
5.346880
 20
1.659680
 11
5.349080
 21
2.396680
 12
5.383400
 22
1.633720
 13
5.385600
 23
2.370720
  0
POLYLINE
  8
0
  6
CONTINUOUS
 66
     1
 40
0.000000
 41
0.000000
  0
VERTEX
  8
0
  6
CONTINUOUS
 10
5.346880
 20
1.659680
  0
VERTEX
  8
0
  6
CONTINUOUS
 10
5.349080
 20
2.396680
  0
VERTEX
  8
0
  6
CONTINUOUS
 10
5.385600
 20
2.370720
  0
VERTEX
  8
0
  6
CONTINUOUS
 10
5.383400
 20
1.633720
  0
VERTEX
  8
0
  6
CONTINUOUS
 10
5.346880
 20
1.659680
  0
SEQEND
  8
0
  0
SOLID
  8
0
 62
    15
 10
5.383400
 20
1.633720
 11
5.385600
 21
2.370720
 12
5.447640
 22
1.573880
 13
5.449840
 23
2.310880
  0
POLYLINE
  8
0
  6
CONTINUOUS
 66
     1
 40
0.000000
 41
0.000000
  0
VERTEX
  8
0
  6
CONTINUOUS
 10
5.383400
 20
1.633720
  0
VERTEX
  8
0
  6
CONTINUOUS
 10
5.385600
 20
2.370720
  0
VERTEX
  8
0
  6
CONTINUOUS
 10
5.449840
 20
2.310880
  0
VERTEX
  8
0
  6
CONTINUOUS
 10
5.447640
 20
1.573880
  0
VERTEX
  8
0
  6
CONTINUOUS
 10
5.383400
 20
1.633720
  0
SEQEND
  8
0
  0
SOLID
  8
0
 62
    15
 10
5.447640
 20
1.573880
 11
5.449840
 21
2.310880
 12
5.503520
 22
1.507000
 13
5.505720
 23
2.244000
  0
POLYLINE
  8
0
  6
CONTINUOUS
 66
     1
 40
0.000000
 41
0.000000
  0
VERTEX
  8
0
  6
CONTINUOUS
 10
5.447640
 20
1.573880
  0
VERTEX
  8
0
  6
CONTINUOUS
 10
5.449840
 20
2.310880
  0
VERTEX
  8
0
  6
CONTINUOUS
 10
5.505720
 20
2.244000
  0
VERTEX
  8
0
  6
CONTINUOUS
 10
5.503520
 20
1.507000
  0
VERTEX
  8
0
  6
CONTINUOUS
 10
5.447640
 20
1.573880
  0
SEQEND
  8
0
  0
SOLID
  8
0
 62
    15
 10
5.503520
 20
1.507000
 11
5.505720
 21
2.244000
 12
5.529920
 22
1.472240
 13
5.531680
 23
2.209240
  0
POLYLINE
  8
0
  6
CONTINUOUS
 66
     1
 40
0.000000
 41
0.000000
  0
VERTEX
  8
0
  6
CONTINUOUS
 10
5.503520
 20
1.507000
  0
VERTEX
  8
0
  6
CONTINUOUS
 10
5.505720
 20
2.244000
  0
VERTEX
  8
0
  6
CONTINUOUS
 10
5.531680
 20
2.209240
  0
VERTEX
  8
0
  6
CONTINUOUS
 10
5.529920
 20
1.472240
  0
VERTEX
  8
0
  6
CONTINUOUS
 10
5.503520
 20
1.507000
  0
SEQEND
  8
0
  0
SOLID
  8
0
 62
    15
 10
5.529920
 20
1.472240
 11
5.531680
 21
2.209240
 12
5.555440
 22
1.437040
 13
5.557640
 23
2.174040
  0
POLYLINE
  8
0
  6
CONTINUOUS
 66
     1
 40
0.000000
 41
0.000000
  0
VERTEX
  8
0
  6
CONTINUOUS
 10
5.529920
 20
1.472240
  0
VERTEX
  8
0
  6
CONTINUOUS
 10
5.531680
 20
2.209240
  0
VERTEX
  8
0
  6
CONTINUOUS
 10
5.557640
 20
2.174040
  0
VERTEX
  8
0
  6
CONTINUOUS
 10
5.555440
 20
1.437040
  0
VERTEX
  8
0
  6
CONTINUOUS
 10
5.529920
 20
1.472240
  0
SEQEND
  8
0
  0
SOLID
  8
0
 62
    15
 10
5.555440
 20
1.437040
 11
5.557640
 21
2.174040
 12
5.607360
 22
1.367960
 13
5.609560
 23
2.105400
  0
POLYLINE
  8
0
  6
CONTINUOUS
 66
     1
 40
0.000000
 41
0.000000
  0
VERTEX
  8
0
  6
CONTINUOUS
 10
5.555440
 20
1.437040
  0
VERTEX
  8
0
  6
CONTINUOUS
 10
5.557640
 20
2.174040
  0
VERTEX
  8
0
  6
CONTINUOUS
 10
5.609560
 20
2.105400
  0
VERTEX
  8
0
  6
CONTINUOUS
 10
5.607360
 20
1.367960
  0
VERTEX
  8
0
  6
CONTINUOUS
 10
5.555440
 20
1.437040
  0
SEQEND
  8
0
  0
SOLID
  8
0
 62
    15
 10
5.607360
 20
1.367960
 11
5.609560
 21
2.105400
 12
5.664120
 22
1.304600
 13
5.665880
 23
2.041600
  0
POLYLINE
  8
0
  6
CONTINUOUS
 66
     1
 40
0.000000
 41
0.000000
  0
VERTEX
  8
0
  6
CONTINUOUS
 10
5.607360
 20
1.367960
  0
VERTEX
  8
0
  6
CONTINUOUS
 10
5.609560
 20
2.105400
  0
VERTEX
  8
0
  6
CONTINUOUS
 10
5.665880
 20
2.041600
  0
VERTEX
  8
0
  6
CONTINUOUS
 10
5.664120
 20
1.304600
  0
VERTEX
  8
0
  6
CONTINUOUS
 10
5.607360
 20
1.367960
  0
SEQEND
  8
0
  0
SOLID
  8
0
 62
    15
 10
5.664120
 20
1.304600
 11
5.665880
 21
2.041600
 12
5.696240
 22
1.275120
 13
5.698440
 23
2.012560
  0
POLYLINE
  8
0
  6
CONTINUOUS
 66
     1
 40
0.000000
 41
0.000000
  0
VERTEX
  8
0
  6
CONTINUOUS
 10
5.664120
 20
1.304600
  0
VERTEX
  8
0
  6
CONTINUOUS
 10
5.665880
 20
2.041600
  0
VERTEX
  8
0
  6
CONTINUOUS
 10
5.698440
 20
2.012560
  0
VERTEX
  8
0
  6
CONTINUOUS
 10
5.696240
 20
1.275120
  0
VERTEX
  8
0
  6
CONTINUOUS
 10
5.664120
 20
1.304600
  0
SEQEND
  8
0
  0
SOLID
  8
0
 62
    15
 10
5.696240
 20
1.275120
 11
5.698440
 21
2.012560
 12
5.728360
 22
1.251360
 13
5.730560
 23
1.988800
  0
POLYLINE
  8
0
  6
CONTINUOUS
 66
     1
 40
0.000000
 41
0.000000
  0
VERTEX
  8
0
  6
CONTINUOUS
 10
5.696240
 20
1.275120
  0
VERTEX
  8
0
  6
CONTINUOUS
 10
5.698440
 20
2.012560
  0
VERTEX
  8
0
  6
CONTINUOUS
 10
5.730560
 20
1.988800
  0
VERTEX
  8
0
  6
CONTINUOUS
 10
5.728360
 20
1.251360
  0
VERTEX
  8
0
  6
CONTINUOUS
 10
5.696240
 20
1.275120
  0
SEQEND
  8
0
  0
SOLID
  8
0
 62
    15
 10
5.728360
 20
1.251360
 11
5.730560
 21
1.988800
 12
5.760480
 22
1.232880
 13
5.762680
 23
1.970320
  0
POLYLINE
  8
0
  6
CONTINUOUS
 66
     1
 40
0.000000
 41
0.000000
  0
VERTEX
  8
0
  6
CONTINUOUS
 10
5.728360
 20
1.251360
  0
VERTEX
  8
0
  6
CONTINUOUS
 10
5.730560
 20
1.988800
  0
VERTEX
  8
0
  6
CONTINUOUS
 10
5.762680
 20
1.970320
  0
VERTEX
  8
0
  6
CONTINUOUS
 10
5.760480
 20
1.232880
  0
VERTEX
  8
0
  6
CONTINUOUS
 10
5.728360
 20
1.251360
  0
SEQEND
  8
0
  0
SOLID
  8
0
 62
    15
 10
5.760480
 20
1.232880
 11
5.762680
 21
1.970320
 12
5.792600
 22
1.219680
 13
5.794360
 23
1.957120
  0
POLYLINE
  8
0
  6
CONTINUOUS
 66
     1
 40
0.000000
 41
0.000000
  0
VERTEX
  8
0
  6
CONTINUOUS
 10
5.760480
 20
1.232880
  0
VERTEX
  8
0
  6
CONTINUOUS
 10
5.762680
 20
1.970320
  0
VERTEX
  8
0
  6
CONTINUOUS
 10
5.794360
 20
1.957120
  0
VERTEX
  8
0
  6
CONTINUOUS
 10
5.792600
 20
1.219680
  0
VERTEX
  8
0
  6
CONTINUOUS
 10
5.760480
 20
1.232880
  0
SEQEND
  8
0
  0
SOLID
  8
0
 62
    15
 10
5.792600
 20
1.219680
 11
5.794360
 21
1.957120
 12
5.823840
 22
1.211760
 13
5.826040
 23
1.948760
  0
POLYLINE
  8
0
  6
CONTINUOUS
 66
     1
 40
0.000000
 41
0.000000
  0
VERTEX
  8
0
  6
CONTINUOUS
 10
5.792600
 20
1.219680
  0
VERTEX
  8
0
  6
CONTINUOUS
 10
5.794360
 20
1.957120
  0
VERTEX
  8
0
  6
CONTINUOUS
 10
5.826040
 20
1.948760
  0
VERTEX
  8
0
  6
CONTINUOUS
 10
5.823840
 20
1.211760
  0
VERTEX
  8
0
  6
CONTINUOUS
 10
5.792600
 20
1.219680
  0
SEQEND
  8
0
  0
SOLID
  8
0
 62
    15
 10
5.823840
 20
1.211760
 11
5.826040
 21
1.948760
 12
5.854640
 22
1.208240
 13
5.856840
 23
1.945680
  0
POLYLINE
  8
0
  6
CONTINUOUS
 66
     1
 40
0.000000
 41
0.000000
  0
VERTEX
  8
0
  6
CONTINUOUS
 10
5.823840
 20
1.211760
  0
VERTEX
  8
0
  6
CONTINUOUS
 10
5.826040
 20
1.948760
  0
VERTEX
  8
0
  6
CONTINUOUS
 10
5.856840
 20
1.945680
  0
VERTEX
  8
0
  6
CONTINUOUS
 10
5.854640
 20
1.208240
  0
VERTEX
  8
0
  6
CONTINUOUS
 10
5.823840
 20
1.211760
  0
SEQEND
  8
0
  0
SOLID
  8
0
 62
    15
 10
5.854640
 20
1.208240
 11
5.856840
 21
1.945680
 12
5.885000
 22
1.210000
 13
5.886760
 23
1.947000
  0
POLYLINE
  8
0
  6
CONTINUOUS
 66
     1
 40
0.000000
 41
0.000000
  0
VERTEX
  8
0
  6
CONTINUOUS
 10
5.854640
 20
1.208240
  0
VERTEX
  8
0
  6
CONTINUOUS
 10
5.856840
 20
1.945680
  0
VERTEX
  8
0
  6
CONTINUOUS
 10
5.886760
 20
1.947000
  0
VERTEX
  8
0
  6
CONTINUOUS
 10
5.885000
 20
1.210000
  0
VERTEX
  8
0
  6
CONTINUOUS
 10
5.854640
 20
1.208240
  0
SEQEND
  8
0
  0
SOLID
  8
0
 62
    15
 10
5.885000
 20
1.210000
 11
5.886760
 21
1.947000
 12
5.914040
 22
1.216160
 13
5.916240
 23
1.953160
  0
POLYLINE
  8
0
  6
CONTINUOUS
 66
     1
 40
0.000000
 41
0.000000
  0
VERTEX
  8
0
  6
CONTINUOUS
 10
5.885000
 20
1.210000
  0
VERTEX
  8
0
  6
CONTINUOUS
 10
5.886760
 20
1.947000
  0
VERTEX
  8
0
  6
CONTINUOUS
 10
5.916240
 20
1.953160
  0
VERTEX
  8
0
  6
CONTINUOUS
 10
5.914040
 20
1.216160
  0
VERTEX
  8
0
  6
CONTINUOUS
 10
5.885000
 20
1.210000
  0
SEQEND
  8
0
  0
SOLID
  8
0
 62
    15
 10
5.914040
 20
1.216160
 11
5.916240
 21
1.953160
 12
5.942640
 22
1.226720
 13
5.944400
 23
1.964160
  0
POLYLINE
  8
0
  6
CONTINUOUS
 66
     1
 40
0.000000
 41
0.000000
  0
VERTEX
  8
0
  6
CONTINUOUS
 10
5.914040
 20
1.216160
  0
VERTEX
  8
0
  6
CONTINUOUS
 10
5.916240
 20
1.953160
  0
VERTEX
  8
0
  6
CONTINUOUS
 10
5.944400
 20
1.964160
  0
VERTEX
  8
0
  6
CONTINUOUS
 10
5.942640
 20
1.226720
  0
VERTEX
  8
0
  6
CONTINUOUS
 10
5.914040
 20
1.216160
  0
SEQEND
  8
0
  0
SOLID
  8
0
 62
    15
 10
3.436400
 20
1.757800
 11
3.438600
 21
2.494800
 12
4.471280
 22
1.757800
 13
4.473480
 23
2.494800
  0
POLYLINE
  8
0
  6
CONTINUOUS
 66
     1
 40
0.000000
 41
0.000000
  0
VERTEX
  8
0
  6
CONTINUOUS
 10
3.436400
 20
1.757800
  0
VERTEX
  8
0
  6
CONTINUOUS
 10
3.438600
 20
2.494800
  0
VERTEX
  8
0
  6
CONTINUOUS
 10
4.473480
 20
2.494800
  0
VERTEX
  8
0
  6
CONTINUOUS
 10
4.471280
 20
1.757800
  0
VERTEX
  8
0
  6
CONTINUOUS
 10
3.436400
 20
1.757800
  0
SEQEND
  8
0
  0
SOLID
  8
0
 62
    15
 10
5.969480
 20
1.241680
 11
5.971680
 21
1.979120
 12
5.995440
 22
1.261480
 13
5.997640
 23
1.998480
  0
POLYLINE
  8
0
  6
CONTINUOUS
 66
     1
 40
0.000000
 41
0.000000
  0
VERTEX
  8
0
  6
CONTINUOUS
 10
5.969480
 20
1.241680
  0
VERTEX
  8
0
  6
CONTINUOUS
 10
5.971680
 20
1.979120
  0
VERTEX
  8
0
  6
CONTINUOUS
 10
5.997640
 20
1.998480
  0
VERTEX
  8
0
  6
CONTINUOUS
 10
5.995440
 20
1.261480
  0
VERTEX
  8
0
  6
CONTINUOUS
 10
5.969480
 20
1.241680
  0
SEQEND
  8
0
  0
SOLID
  8
0
 62
    15
 10
5.995440
 20
1.261480
 11
5.997640
 21
1.998480
 12
6.020080
 22
1.284800
 13
6.021840
 23
2.022240
  0
POLYLINE
  8
0
  6
CONTINUOUS
 66
     1
 40
0.000000
 41
0.000000
  0
VERTEX
  8
0
  6
CONTINUOUS
 10
5.995440
 20
1.261480
  0
VERTEX
  8
0
  6
CONTINUOUS
 10
5.997640
 20
1.998480
  0
VERTEX
  8
0
  6
CONTINUOUS
 10
6.021840
 20
2.022240
  0
VERTEX
  8
0
  6
CONTINUOUS
 10
6.020080
 20
1.284800
  0
VERTEX
  8
0
  6
CONTINUOUS
 10
5.995440
 20
1.261480
  0
SEQEND
  8
0
  0
SOLID
  8
0
 62
    15
 10
6.020080
 20
1.284800
 11
6.021840
 21
2.022240
 12
6.042960
 22
1.312520
 13
6.044720
 23
2.049960
  0
POLYLINE
  8
0
  6
CONTINUOUS
 66
     1
 40
0.000000
 41
0.000000
  0
VERTEX
  8
0
  6
CONTINUOUS
 10
6.020080
 20
1.284800
  0
VERTEX
  8
0
  6
CONTINUOUS
 10
6.021840
 20
2.022240
  0
VERTEX
  8
0
  6
CONTINUOUS
 10
6.044720
 20
2.049960
  0
VERTEX
  8
0
  6
CONTINUOUS
 10
6.042960
 20
1.312520
  0
VERTEX
  8
0
  6
CONTINUOUS
 10
6.020080
 20
1.284800
  0
SEQEND
  8
0
  0
SOLID
  8
0
 62
    15
 10
6.042960
 20
1.312520
 11
6.044720
 21
2.049960
 12
6.064080
 22
1.344200
 13
6.066280
 23
2.081200
  0
POLYLINE
  8
0
  6
CONTINUOUS
 66
     1
 40
0.000000
 41
0.000000
  0
VERTEX
  8
0
  6
CONTINUOUS
 10
6.042960
 20
1.312520
  0
VERTEX
  8
0
  6
CONTINUOUS
 10
6.044720
 20
2.049960
  0
VERTEX
  8
0
  6
CONTINUOUS
 10
6.066280
 20
2.081200
  0
VERTEX
  8
0
  6
CONTINUOUS
 10
6.064080
 20
1.344200
  0
VERTEX
  8
0
  6
CONTINUOUS
 10
6.042960
 20
1.312520
  0
SEQEND
  8
0
  0
SOLID
  8
0
 62
    15
 10
6.064080
 20
1.344200
 11
6.066280
 21
2.081200
 12
6.083440
 22
1.379400
 13
6.085200
 23
2.116840
  0
POLYLINE
  8
0
  6
CONTINUOUS
 66
     1
 40
0.000000
 41
0.000000
  0
VERTEX
  8
0
  6
CONTINUOUS
 10
6.064080
 20
1.344200
  0
VERTEX
  8
0
  6
CONTINUOUS
 10
6.066280
 20
2.081200
  0
VERTEX
  8
0
  6
CONTINUOUS
 10
6.085200
 20
2.116840
  0
VERTEX
  8
0
  6
CONTINUOUS
 10
6.083440
 20
1.379400
  0
VERTEX
  8
0
  6
CONTINUOUS
 10
6.064080
 20
1.344200
  0
SEQEND
  8
0
  0
SOLID
  8
0
 62
    15
 10
6.083440
 20
1.379400
 11
6.085200
 21
2.116840
 12
6.100600
 22
1.418120
 13
6.102800
 23
2.155560
  0
POLYLINE
  8
0
  6
CONTINUOUS
 66
     1
 40
0.000000
 41
0.000000
  0
VERTEX
  8
0
  6
CONTINUOUS
 10
6.083440
 20
1.379400
  0
VERTEX
  8
0
  6
CONTINUOUS
 10
6.085200
 20
2.116840
  0
VERTEX
  8
0
  6
CONTINUOUS
 10
6.102800
 20
2.155560
  0
VERTEX
  8
0
  6
CONTINUOUS
 10
6.100600
 20
1.418120
  0
VERTEX
  8
0
  6
CONTINUOUS
 10
6.083440
 20
1.379400
  0
SEQEND
  8
0
  0
SOLID
  8
0
 62
    15
 10
6.100600
 20
1.418120
 11
6.102800
 21
2.155560
 12
6.358440
 22
1.418120
 13
6.360640
 23
2.155560
  0
POLYLINE
  8
0
  6
CONTINUOUS
 66
     1
 40
0.000000
 41
0.000000
  0
VERTEX
  8
0
  6
CONTINUOUS
 10
6.100600
 20
1.418120
  0
VERTEX
  8
0
  6
CONTINUOUS
 10
6.102800
 20
2.155560
  0
VERTEX
  8
0
  6
CONTINUOUS
 10
6.360640
 20
2.155560
  0
VERTEX
  8
0
  6
CONTINUOUS
 10
6.358440
 20
1.418120
  0
VERTEX
  8
0
  6
CONTINUOUS
 10
6.100600
 20
1.418120
  0
SEQEND
  8
0
  0
SOLID
  8
0
 62
    15
 10
6.358440
 20
1.418120
 11
6.360640
 21
2.155560
 12
6.358880
 22
1.418120
 13
6.361080
 23
2.155560
  0
POLYLINE
  8
0
  6
CONTINUOUS
 66
     1
 40
0.000000
 41
0.000000
  0
VERTEX
  8
0
  6
CONTINUOUS
 10
6.358440
 20
1.418120
  0
VERTEX
  8
0
  6
CONTINUOUS
 10
6.360640
 20
2.155560
  0
VERTEX
  8
0
  6
CONTINUOUS
 10
6.361080
 20
2.155560
  0
VERTEX
  8
0
  6
CONTINUOUS
 10
6.358880
 20
1.418120
  0
VERTEX
  8
0
  6
CONTINUOUS
 10
6.358440
 20
1.418120
  0
SEQEND
  8
0
  0
SOLID
  8
0
 62
    15
 10
6.358880
 20
1.418120
 11
6.361080
 21
2.155560
 12
6.368560
 22
1.460800
 13
6.370320
 23
2.197800
  0
POLYLINE
  8
0
  6
CONTINUOUS
 66
     1
 40
0.000000
 41
0.000000
  0
VERTEX
  8
0
  6
CONTINUOUS
 10
6.358880
 20
1.418120
  0
VERTEX
  8
0
  6
CONTINUOUS
 10
6.361080
 20
2.155560
  0
VERTEX
  8
0
  6
CONTINUOUS
 10
6.370320
 20
2.197800
  0
VERTEX
  8
0
  6
CONTINUOUS
 10
6.368560
 20
1.460800
  0
VERTEX
  8
0
  6
CONTINUOUS
 10
6.358880
 20
1.418120
  0
SEQEND
  8
0
  0
SOLID
  8
0
 62
    15
 10
6.368560
 20
1.460800
 11
6.370320
 21
2.197800
 12
6.385720
 22
1.499960
 13
6.387480
 23
2.237400
  0
POLYLINE
  8
0
  6
CONTINUOUS
 66
     1
 40
0.000000
 41
0.000000
  0
VERTEX
  8
0
  6
CONTINUOUS
 10
6.368560
 20
1.460800
  0
VERTEX
  8
0
  6
CONTINUOUS
 10
6.370320
 20
2.197800
  0
VERTEX
  8
0
  6
CONTINUOUS
 10
6.387480
 20
2.237400
  0
VERTEX
  8
0
  6
CONTINUOUS
 10
6.385720
 20
1.499960
  0
VERTEX
  8
0
  6
CONTINUOUS
 10
6.368560
 20
1.460800
  0
SEQEND
  8
0
  0
SOLID
  8
0
 62
    15
 10
6.385720
 20
1.499960
 11
6.387480
 21
2.237400
 12
6.409480
 22
1.535160
 13
6.411240
 23
2.272600
  0
POLYLINE
  8
0
  6
CONTINUOUS
 66
     1
 40
0.000000
 41
0.000000
  0
VERTEX
  8
0
  6
CONTINUOUS
 10
6.385720
 20
1.499960
  0
VERTEX
  8
0
  6
CONTINUOUS
 10
6.387480
 20
2.237400
  0
VERTEX
  8
0
  6
CONTINUOUS
 10
6.411240
 20
2.272600
  0
VERTEX
  8
0
  6
CONTINUOUS
 10
6.409480
 20
1.535160
  0
VERTEX
  8
0
  6
CONTINUOUS
 10
6.385720
 20
1.499960
  0
SEQEND
  8
0
  0
SOLID
  8
0
 62
    15
 10
6.409480
 20
1.535160
 11
6.411240
 21
2.272600
 12
6.438960
 22
1.565960
 13
6.441160
 23
2.302960
  0
POLYLINE
  8
0
  6
CONTINUOUS
 66
     1
 40
0.000000
 41
0.000000
  0
VERTEX
  8
0
  6
CONTINUOUS
 10
6.409480
 20
1.535160
  0
VERTEX
  8
0
  6
CONTINUOUS
 10
6.411240
 20
2.272600
  0
VERTEX
  8
0
  6
CONTINUOUS
 10
6.441160
 20
2.302960
  0
VERTEX
  8
0
  6
CONTINUOUS
 10
6.438960
 20
1.565960
  0
VERTEX
  8
0
  6
CONTINUOUS
 10
6.409480
 20
1.535160
  0
SEQEND
  8
0
  0
SOLID
  8
0
 62
    15
 10
6.438960
 20
1.565960
 11
6.441160
 21
2.302960
 12
6.473720
 22
1.591040
 13
6.475480
 23
2.328040
  0
POLYLINE
  8
0
  6
CONTINUOUS
 66
     1
 40
0.000000
 41
0.000000
  0
VERTEX
  8
0
  6
CONTINUOUS
 10
6.438960
 20
1.565960
  0
VERTEX
  8
0
  6
CONTINUOUS
 10
6.441160
 20
2.302960
  0
VERTEX
  8
0
  6
CONTINUOUS
 10
6.475480
 20
2.328040
  0
VERTEX
  8
0
  6
CONTINUOUS
 10
6.473720
 20
1.591040
  0
VERTEX
  8
0
  6
CONTINUOUS
 10
6.438960
 20
1.565960
  0
SEQEND
  8
0
  0
SOLID
  8
0
 62
    15
 10
6.473720
 20
1.591040
 11
6.475480
 21
2.328040
 12
6.512440
 22
1.609960
 13
6.514200
 23
2.346960
  0
POLYLINE
  8
0
  6
CONTINUOUS
 66
     1
 40
0.000000
 41
0.000000
  0
VERTEX
  8
0
  6
CONTINUOUS
 10
6.473720
 20
1.591040
  0
VERTEX
  8
0
  6
CONTINUOUS
 10
6.475480
 20
2.328040
  0
VERTEX
  8
0
  6
CONTINUOUS
 10
6.514200
 20
2.346960
  0
VERTEX
  8
0
  6
CONTINUOUS
 10
6.512440
 20
1.609960
  0
VERTEX
  8
0
  6
CONTINUOUS
 10
6.473720
 20
1.591040
  0
SEQEND
  8
0
  0
SOLID
  8
0
 62
    15
 10
6.512440
 20
1.609960
 11
6.514200
 21
2.346960
 12
6.554240
 22
1.621840
 13
6.556440
 23
2.358840
  0
POLYLINE
  8
0
  6
CONTINUOUS
 66
     1
 40
0.000000
 41
0.000000
  0
VERTEX
  8
0
  6
CONTINUOUS
 10
6.512440
 20
1.609960
  0
VERTEX
  8
0
  6
CONTINUOUS
 10
6.514200
 20
2.346960
  0
VERTEX
  8
0
  6
CONTINUOUS
 10
6.556440
 20
2.358840
  0
VERTEX
  8
0
  6
CONTINUOUS
 10
6.554240
 20
1.621840
  0
VERTEX
  8
0
  6
CONTINUOUS
 10
6.512440
 20
1.609960
  0
SEQEND
  8
0
  0
SOLID
  8
0
 62
    15
 10
6.554240
 20
1.621840
 11
6.556440
 21
2.358840
 12
6.598680
 22
1.625800
 13
6.600880
 23
2.363240
  0
POLYLINE
  8
0
  6
CONTINUOUS
 66
     1
 40
0.000000
 41
0.000000
  0
VERTEX
  8
0
  6
CONTINUOUS
 10
6.554240
 20
1.621840
  0
VERTEX
  8
0
  6
CONTINUOUS
 10
6.556440
 20
2.358840
  0
VERTEX
  8
0
  6
CONTINUOUS
 10
6.600880
 20
2.363240
  0
VERTEX
  8
0
  6
CONTINUOUS
 10
6.598680
 20
1.625800
  0
VERTEX
  8
0
  6
CONTINUOUS
 10
6.554240
 20
1.621840
  0
SEQEND
  8
0
  0
SOLID
  8
0
 62
    15
 10
6.598680
 20
1.625800
 11
6.600880
 21
2.363240
 12
6.643120
 22
1.621840
 13
6.645320
 23
2.358840
  0
POLYLINE
  8
0
  6
CONTINUOUS
 66
     1
 40
0.000000
 41
0.000000
  0
VERTEX
  8
0
  6
CONTINUOUS
 10
6.598680
 20
1.625800
  0
VERTEX
  8
0
  6
CONTINUOUS
 10
6.600880
 20
2.363240
  0
VERTEX
  8
0
  6
CONTINUOUS
 10
6.645320
 20
2.358840
  0
VERTEX
  8
0
  6
CONTINUOUS
 10
6.643120
 20
1.621840
  0
VERTEX
  8
0
  6
CONTINUOUS
 10
6.598680
 20
1.625800
  0
SEQEND
  8
0
  0
SOLID
  8
0
 62
    15
 10
6.643120
 20
1.621840
 11
6.645320
 21
2.358840
 12
6.684480
 22
1.609960
 13
6.686680
 23
2.346960
  0
POLYLINE
  8
0
  6
CONTINUOUS
 66
     1
 40
0.000000
 41
0.000000
  0
VERTEX
  8
0
  6
CONTINUOUS
 10
6.643120
 20
1.621840
  0
VERTEX
  8
0
  6
CONTINUOUS
 10
6.645320
 20
2.358840
  0
VERTEX
  8
0
  6
CONTINUOUS
 10
6.686680
 20
2.346960
  0
VERTEX
  8
0
  6
CONTINUOUS
 10
6.684480
 20
1.609960
  0
VERTEX
  8
0
  6
CONTINUOUS
 10
6.643120
 20
1.621840
  0
SEQEND
  8
0
  0
SOLID
  8
0
 62
    15
 10
6.684480
 20
1.609960
 11
6.686680
 21
2.346960
 12
6.722760
 22
1.590600
 13
6.724960
 23
2.328040
  0
POLYLINE
  8
0
  6
CONTINUOUS
 66
     1
 40
0.000000
 41
0.000000
  0
VERTEX
  8
0
  6
CONTINUOUS
 10
6.684480
 20
1.609960
  0
VERTEX
  8
0
  6
CONTINUOUS
 10
6.686680
 20
2.346960
  0
VERTEX
  8
0
  6
CONTINUOUS
 10
6.724960
 20
2.328040
  0
VERTEX
  8
0
  6
CONTINUOUS
 10
6.722760
 20
1.590600
  0
VERTEX
  8
0
  6
CONTINUOUS
 10
6.684480
 20
1.609960
  0
SEQEND
  8
0
  0
SOLID
  8
0
 62
    15
 10
6.722760
 20
1.590600
 11
6.724960
 21
2.328040
 12
6.756640
 22
1.565520
 13
6.758400
 23
2.302960
  0
POLYLINE
  8
0
  6
CONTINUOUS
 66
     1
 40
0.000000
 41
0.000000
  0
VERTEX
  8
0
  6
CONTINUOUS
 10
6.722760
 20
1.590600
  0
VERTEX
  8
0
  6
CONTINUOUS
 10
6.724960
 20
2.328040
  0
VERTEX
  8
0
  6
CONTINUOUS
 10
6.758400
 20
2.302960
  0
VERTEX
  8
0
  6
CONTINUOUS
 10
6.756640
 20
1.565520
  0
VERTEX
  8
0
  6
CONTINUOUS
 10
6.722760
 20
1.590600
  0
SEQEND
  8
0
  0
SOLID
  8
0
 62
    15
 10
6.756640
 20
1.565520
 11
6.758400
 21
2.302960
 12
6.785240
 22
1.535160
 13
6.787440
 23
2.272160
  0
POLYLINE
  8
0
  6
CONTINUOUS
 66
     1
 40
0.000000
 41
0.000000
  0
VERTEX
  8
0
  6
CONTINUOUS
 10
6.756640
 20
1.565520
  0
VERTEX
  8
0
  6
CONTINUOUS
 10
6.758400
 20
2.302960
  0
VERTEX
  8
0
  6
CONTINUOUS
 10
6.787440
 20
2.272160
  0
VERTEX
  8
0
  6
CONTINUOUS
 10
6.785240
 20
1.535160
  0
VERTEX
  8
0
  6
CONTINUOUS
 10
6.756640
 20
1.565520
  0
SEQEND
  8
0
  0
SOLID
  8
0
 62
    15
 10
6.785240
 20
1.535160
 11
6.787440
 21
2.272160
 12
6.808120
 22
1.499520
 13
6.810320
 23
2.236960
  0
POLYLINE
  8
0
  6
CONTINUOUS
 66
     1
 40
0.000000
 41
0.000000
  0
VERTEX
  8
0
  6
CONTINUOUS
 10
6.785240
 20
1.535160
  0
VERTEX
  8
0
  6
CONTINUOUS
 10
6.787440
 20
2.272160
  0
VERTEX
  8
0
  6
CONTINUOUS
 10
6.810320
 20
2.236960
  0
VERTEX
  8
0
  6
CONTINUOUS
 10
6.808120
 20
1.499520
  0
VERTEX
  8
0
  6
CONTINUOUS
 10
6.785240
 20
1.535160
  0
SEQEND
  8
0
  0
POLYLINE
  8
0
  6
CONTINUOUS
 66
     1
 40
0.000000
 41
0.000000
  0
VERTEX
  8
0
  6
CONTINUOUS
 10
6.834080
 20
1.417240
  0
VERTEX
  8
0
  6
CONTINUOUS
 10
6.836280
 20
2.154680
  0
VERTEX
  8
0
  6
CONTINUOUS
 10
6.834080
 20
1.417240
  0
SEQEND
  8
0
  0
SOLID
  8
0
 62
    15
 10
6.824840
 20
1.459920
 11
6.827040
 21
2.197360
 12
6.834080
 22
1.417240
 13
6.836280
 23
2.154680
  0
POLYLINE
  8
0
  6
CONTINUOUS
 66
     1
 40
0.000000
 41
0.000000
  0
VERTEX
  8
0
  6
CONTINUOUS
 10
6.824840
 20
1.459920
  0
VERTEX
  8
0
  6
CONTINUOUS
 10
6.827040
 20
2.197360
  0
VERTEX
  8
0
  6
CONTINUOUS
 10
6.836280
 20
2.154680
  0
VERTEX
  8
0
  6
CONTINUOUS
 10
6.834080
 20
1.417240
  0
VERTEX
  8
0
  6
CONTINUOUS
 10
6.824840
 20
1.459920
  0
SEQEND
  8
0
  0
SOLID
  8
0
 62
    15
 10
6.808120
 20
1.499520
 11
6.810320
 21
2.236960
 12
6.824840
 22
1.459920
 13
6.827040
 23
2.197360
  0
POLYLINE
  8
0
  6
CONTINUOUS
 66
     1
 40
0.000000
 41
0.000000
  0
VERTEX
  8
0
  6
CONTINUOUS
 10
6.808120
 20
1.499520
  0
VERTEX
  8
0
  6
CONTINUOUS
 10
6.810320
 20
2.236960
  0
VERTEX
  8
0
  6
CONTINUOUS
 10
6.827040
 20
2.197360
  0
VERTEX
  8
0
  6
CONTINUOUS
 10
6.824840
 20
1.459920
  0
VERTEX
  8
0
  6
CONTINUOUS
 10
6.808120
 20
1.499520
  0
SEQEND
  8
0
  0
SOLID
  8
0
 62
    15
 10
6.834080
 20
1.417240
 11
6.836280
 21
2.154680
 12
7.118760
 22
1.417240
 13
7.120960
 23
2.154680
  0
POLYLINE
  8
0
  6
CONTINUOUS
 66
     1
 40
0.000000
 41
0.000000
  0
VERTEX
  8
0
  6
CONTINUOUS
 10
6.834080
 20
1.417240
  0
VERTEX
  8
0
  6
CONTINUOUS
 10
6.836280
 20
2.154680
  0
VERTEX
  8
0
  6
CONTINUOUS
 10
7.120960
 20
2.154680
  0
VERTEX
  8
0
  6
CONTINUOUS
 10
7.118760
 20
1.417240
  0
VERTEX
  8
0
  6
CONTINUOUS
 10
6.834080
 20
1.417240
  0
SEQEND
  8
0
  0
SOLID
  8
0
 62
    15
 10
7.118760
 20
1.417240
 11
7.120960
 21
2.154680
 12
7.146480
 22
1.397000
 13
7.148680
 23
2.134000
  0
POLYLINE
  8
0
  6
CONTINUOUS
 66
     1
 40
0.000000
 41
0.000000
  0
VERTEX
  8
0
  6
CONTINUOUS
 10
7.118760
 20
1.417240
  0
VERTEX
  8
0
  6
CONTINUOUS
 10
7.120960
 20
2.154680
  0
VERTEX
  8
0
  6
CONTINUOUS
 10
7.148680
 20
2.134000
  0
VERTEX
  8
0
  6
CONTINUOUS
 10
7.146480
 20
1.397000
  0
VERTEX
  8
0
  6
CONTINUOUS
 10
7.118760
 20
1.417240
  0
SEQEND
  8
0
  0
SOLID
  8
0
 62
    15
 10
7.146480
 20
1.397000
 11
7.148680
 21
2.134000
 12
7.182560
 22
1.380280
 13
7.184320
 23
2.117720
  0
POLYLINE
  8
0
  6
CONTINUOUS
 66
     1
 40
0.000000
 41
0.000000
  0
VERTEX
  8
0
  6
CONTINUOUS
 10
7.146480
 20
1.397000
  0
VERTEX
  8
0
  6
CONTINUOUS
 10
7.148680
 20
2.134000
  0
VERTEX
  8
0
  6
CONTINUOUS
 10
7.184320
 20
2.117720
  0
VERTEX
  8
0
  6
CONTINUOUS
 10
7.182560
 20
1.380280
  0
VERTEX
  8
0
  6
CONTINUOUS
 10
7.146480
 20
1.397000
  0
SEQEND
  8
0
  0
SOLID
  8
0
 62
    15
 10
7.182560
 20
1.380280
 11
7.184320
 21
2.117720
 12
7.223920
 22
1.367080
 13
7.226120
 23
2.104520
  0
POLYLINE
  8
0
  6
CONTINUOUS
 66
     1
 40
0.000000
 41
0.000000
  0
VERTEX
  8
0
  6
CONTINUOUS
 10
7.182560
 20
1.380280
  0
VERTEX
  8
0
  6
CONTINUOUS
 10
7.184320
 20
2.117720
  0
VERTEX
  8
0
  6
CONTINUOUS
 10
7.226120
 20
2.104520
  0
VERTEX
  8
0
  6
CONTINUOUS
 10
7.223920
 20
1.367080
  0
VERTEX
  8
0
  6
CONTINUOUS
 10
7.182560
 20
1.380280
  0
SEQEND
  8
0
  0
SOLID
  8
0
 62
    15
 10
7.223920
 20
1.367080
 11
7.226120
 21
2.104520
 12
7.269240
 22
1.356520
 13
7.271440
 23
2.093520
  0
POLYLINE
  8
0
  6
CONTINUOUS
 66
     1
 40
0.000000
 41
0.000000
  0
VERTEX
  8
0
  6
CONTINUOUS
 10
7.223920
 20
1.367080
  0
VERTEX
  8
0
  6
CONTINUOUS
 10
7.226120
 20
2.104520
  0
VERTEX
  8
0
  6
CONTINUOUS
 10
7.271440
 20
2.093520
  0
VERTEX
  8
0
  6
CONTINUOUS
 10
7.269240
 20
1.356520
  0
VERTEX
  8
0
  6
CONTINUOUS
 10
7.223920
 20
1.367080
  0
SEQEND
  8
0
  0
SOLID
  8
0
 62
    15
 10
7.269240
 20
1.356520
 11
7.271440
 21
2.093520
 12
7.360320
 22
1.339800
 13
7.362520
 23
2.077240
  0
POLYLINE
  8
0
  6
CONTINUOUS
 66
     1
 40
0.000000
 41
0.000000
  0
VERTEX
  8
0
  6
CONTINUOUS
 10
7.269240
 20
1.356520
  0
VERTEX
  8
0
  6
CONTINUOUS
 10
7.271440
 20
2.093520
  0
VERTEX
  8
0
  6
CONTINUOUS
 10
7.362520
 20
2.077240
  0
VERTEX
  8
0
  6
CONTINUOUS
 10
7.360320
 20
1.339800
  0
VERTEX
  8
0
  6
CONTINUOUS
 10
7.269240
 20
1.356520
  0
SEQEND
  8
0
  0
SOLID
  8
0
 62
    15
 10
7.360320
 20
1.339800
 11
7.362520
 21
2.077240
 12
7.402120
 22
1.332760
 13
7.404320
 23
2.069760
  0
POLYLINE
  8
0
  6
CONTINUOUS
 66
     1
 40
0.000000
 41
0.000000
  0
VERTEX
  8
0
  6
CONTINUOUS
 10
7.360320
 20
1.339800
  0
VERTEX
  8
0
  6
CONTINUOUS
 10
7.362520
 20
2.077240
  0
VERTEX
  8
0
  6
CONTINUOUS
 10
7.404320
 20
2.069760
  0
VERTEX
  8
0
  6
CONTINUOUS
 10
7.402120
 20
1.332760
  0
VERTEX
  8
0
  6
CONTINUOUS
 10
7.360320
 20
1.339800
  0
SEQEND
  8
0
  0
SOLID
  8
0
 62
    15
 10
7.402120
 20
1.332760
 11
7.404320
 21
2.069760
 12
7.437760
 22
1.324840
 13
7.439960
 23
2.062280
  0
POLYLINE
  8
0
  6
CONTINUOUS
 66
     1
 40
0.000000
 41
0.000000
  0
VERTEX
  8
0
  6
CONTINUOUS
 10
7.402120
 20
1.332760
  0
VERTEX
  8
0
  6
CONTINUOUS
 10
7.404320
 20
2.069760
  0
VERTEX
  8
0
  6
CONTINUOUS
 10
7.439960
 20
2.062280
  0
VERTEX
  8
0
  6
CONTINUOUS
 10
7.437760
 20
1.324840
  0
VERTEX
  8
0
  6
CONTINUOUS
 10
7.402120
 20
1.332760
  0
SEQEND
  8
0
  0
SOLID
  8
0
 62
    15
 10
7.437760
 20
1.324840
 11
7.439960
 21
2.062280
 12
7.472080
 22
1.315600
 13
7.473840
 23
2.053040
  0
POLYLINE
  8
0
  6
CONTINUOUS
 66
     1
 40
0.000000
 41
0.000000
  0
VERTEX
  8
0
  6
CONTINUOUS
 10
7.437760
 20
1.324840
  0
VERTEX
  8
0
  6
CONTINUOUS
 10
7.439960
 20
2.062280
  0
VERTEX
  8
0
  6
CONTINUOUS
 10
7.473840
 20
2.053040
  0
VERTEX
  8
0
  6
CONTINUOUS
 10
7.472080
 20
1.315600
  0
VERTEX
  8
0
  6
CONTINUOUS
 10
7.437760
 20
1.324840
  0
SEQEND
  8
0
  0
SOLID
  8
0
 62
    15
 10
7.472080
 20
1.315600
 11
7.473840
 21
2.053040
 12
7.509480
 22
1.302400
 13
7.511240
 23
2.039840
  0
POLYLINE
  8
0
  6
CONTINUOUS
 66
     1
 40
0.000000
 41
0.000000
  0
VERTEX
  8
0
  6
CONTINUOUS
 10
7.472080
 20
1.315600
  0
VERTEX
  8
0
  6
CONTINUOUS
 10
7.473840
 20
2.053040
  0
VERTEX
  8
0
  6
CONTINUOUS
 10
7.511240
 20
2.039840
  0
VERTEX
  8
0
  6
CONTINUOUS
 10
7.509480
 20
1.302400
  0
VERTEX
  8
0
  6
CONTINUOUS
 10
7.472080
 20
1.315600
  0
SEQEND
  8
0
  0
SOLID
  8
0
 62
    15
 10
7.509480
 20
1.302400
 11
7.511240
 21
2.039840
 12
7.547320
 22
1.282160
 13
7.549520
 23
2.019160
  0
POLYLINE
  8
0
  6
CONTINUOUS
 66
     1
 40
0.000000
 41
0.000000
  0
VERTEX
  8
0
  6
CONTINUOUS
 10
7.509480
 20
1.302400
  0
VERTEX
  8
0
  6
CONTINUOUS
 10
7.511240
 20
2.039840
  0
VERTEX
  8
0
  6
CONTINUOUS
 10
7.549520
 20
2.019160
  0
VERTEX
  8
0
  6
CONTINUOUS
 10
7.547320
 20
1.282160
  0
VERTEX
  8
0
  6
CONTINUOUS
 10
7.509480
 20
1.302400
  0
SEQEND
  8
0
  0
SOLID
  8
0
 62
    15
 10
7.547320
 20
1.282160
 11
7.549520
 21
2.019160
 12
7.583840
 22
1.251360
 13
7.586040
 23
1.988800
  0
POLYLINE
  8
0
  6
CONTINUOUS
 66
     1
 40
0.000000
 41
0.000000
  0
VERTEX
  8
0
  6
CONTINUOUS
 10
7.547320
 20
1.282160
  0
VERTEX
  8
0
  6
CONTINUOUS
 10
7.549520
 20
2.019160
  0
VERTEX
  8
0
  6
CONTINUOUS
 10
7.586040
 20
1.988800
  0
VERTEX
  8
0
  6
CONTINUOUS
 10
7.583840
 20
1.251360
  0
VERTEX
  8
0
  6
CONTINUOUS
 10
7.547320
 20
1.282160
  0
SEQEND
  8
0
  0
SOLID
  8
0
 62
    15
 10
7.583840
 20
1.251360
 11
7.586040
 21
1.988800
 12
7.601000
 22
1.231560
 13
7.602760
 23
1.968560
  0
POLYLINE
  8
0
  6
CONTINUOUS
 66
     1
 40
0.000000
 41
0.000000
  0
VERTEX
  8
0
  6
CONTINUOUS
 10
7.583840
 20
1.251360
  0
VERTEX
  8
0
  6
CONTINUOUS
 10
7.586040
 20
1.988800
  0
VERTEX
  8
0
  6
CONTINUOUS
 10
7.602760
 20
1.968560
  0
VERTEX
  8
0
  6
CONTINUOUS
 10
7.601000
 20
1.231560
  0
VERTEX
  8
0
  6
CONTINUOUS
 10
7.583840
 20
1.251360
  0
SEQEND
  8
0
  0
SOLID
  8
0
 62
    15
 10
7.601000
 20
1.231560
 11
7.602760
 21
1.968560
 12
7.616400
 22
1.207800
 13
7.618600
 23
1.944800
  0
POLYLINE
  8
0
  6
CONTINUOUS
 66
     1
 40
0.000000
 41
0.000000
  0
VERTEX
  8
0
  6
CONTINUOUS
 10
7.601000
 20
1.231560
  0
VERTEX
  8
0
  6
CONTINUOUS
 10
7.602760
 20
1.968560
  0
VERTEX
  8
0
  6
CONTINUOUS
 10
7.618600
 20
1.944800
  0
VERTEX
  8
0
  6
CONTINUOUS
 10
7.616400
 20
1.207800
  0
VERTEX
  8
0
  6
CONTINUOUS
 10
7.601000
 20
1.231560
  0
SEQEND
  8
0
  0
SOLID
  8
0
 62
    15
 10
7.616400
 20
1.207800
 11
7.618600
 21
1.944800
 12
7.630480
 22
1.179640
 13
7.632680
 23
1.917080
  0
POLYLINE
  8
0
  6
CONTINUOUS
 66
     1
 40
0.000000
 41
0.000000
  0
VERTEX
  8
0
  6
CONTINUOUS
 10
7.616400
 20
1.207800
  0
VERTEX
  8
0
  6
CONTINUOUS
 10
7.618600
 20
1.944800
  0
VERTEX
  8
0
  6
CONTINUOUS
 10
7.632680
 20
1.917080
  0
VERTEX
  8
0
  6
CONTINUOUS
 10
7.630480
 20
1.179640
  0
VERTEX
  8
0
  6
CONTINUOUS
 10
7.616400
 20
1.207800
  0
SEQEND
  8
0
  0
SOLID
  8
0
 62
    15
 10
7.642800
 20
1.147080
 11
7.644560
 21
1.884520
 12
7.652480
 22
1.110120
 13
7.654680
 23
1.847120
  0
POLYLINE
  8
0
  6
CONTINUOUS
 66
     1
 40
0.000000
 41
0.000000
  0
VERTEX
  8
0
  6
CONTINUOUS
 10
7.642800
 20
1.147080
  0
VERTEX
  8
0
  6
CONTINUOUS
 10
7.644560
 20
1.884520
  0
VERTEX
  8
0
  6
CONTINUOUS
 10
7.654680
 20
1.847120
  0
VERTEX
  8
0
  6
CONTINUOUS
 10
7.652480
 20
1.110120
  0
VERTEX
  8
0
  6
CONTINUOUS
 10
7.642800
 20
1.147080
  0
SEQEND
  8
0
  0
SOLID
  8
0
 62
    15
 10
7.630480
 20
1.179640
 11
7.632680
 21
1.917080
 12
7.642800
 22
1.147080
 13
7.644560
 23
1.884520
  0
POLYLINE
  8
0
  6
CONTINUOUS
 66
     1
 40
0.000000
 41
0.000000
  0
VERTEX
  8
0
  6
CONTINUOUS
 10
7.630480
 20
1.179640
  0
VERTEX
  8
0
  6
CONTINUOUS
 10
7.632680
 20
1.917080
  0
VERTEX
  8
0
  6
CONTINUOUS
 10
7.644560
 20
1.884520
  0
VERTEX
  8
0
  6
CONTINUOUS
 10
7.642800
 20
1.147080
  0
VERTEX
  8
0
  6
CONTINUOUS
 10
7.630480
 20
1.179640
  0
SEQEND
  8
0
  0
SOLID
  8
0
 62
    15
 10
7.652480
 20
1.110120
 11
7.654680
 21
1.847120
 12
7.659960
 22
1.067440
 13
7.662160
 23
1.804440
  0
POLYLINE
  8
0
  6
CONTINUOUS
 66
     1
 40
0.000000
 41
0.000000
  0
VERTEX
  8
0
  6
CONTINUOUS
 10
7.652480
 20
1.110120
  0
VERTEX
  8
0
  6
CONTINUOUS
 10
7.654680
 20
1.847120
  0
VERTEX
  8
0
  6
CONTINUOUS
 10
7.662160
 20
1.804440
  0
VERTEX
  8
0
  6
CONTINUOUS
 10
7.659960
 20
1.067440
  0
VERTEX
  8
0
  6
CONTINUOUS
 10
7.652480
 20
1.110120
  0
SEQEND
  8
0
  0
SOLID
  8
0
 62
    15
 10
7.659960
 20
1.067440
 11
7.662160
 21
1.804440
 12
7.664800
 22
1.019040
 13
7.667000
 23
1.756480
  0
POLYLINE
  8
0
  6
CONTINUOUS
 66
     1
 40
0.000000
 41
0.000000
  0
VERTEX
  8
0
  6
CONTINUOUS
 10
7.659960
 20
1.067440
  0
VERTEX
  8
0
  6
CONTINUOUS
 10
7.662160
 20
1.804440
  0
VERTEX
  8
0
  6
CONTINUOUS
 10
7.667000
 20
1.756480
  0
VERTEX
  8
0
  6
CONTINUOUS
 10
7.664800
 20
1.019040
  0
VERTEX
  8
0
  6
CONTINUOUS
 10
7.659960
 20
1.067440
  0
SEQEND
  8
0
  0
SOLID
  8
0
 62
    15
 10
7.664800
 20
1.019040
 11
7.667000
 21
1.756480
 12
7.666560
 22
0.964480
 13
7.668760
 23
1.701920
  0
POLYLINE
  8
0
  6
CONTINUOUS
 66
     1
 40
0.000000
 41
0.000000
  0
VERTEX
  8
0
  6
CONTINUOUS
 10
7.664800
 20
1.019040
  0
VERTEX
  8
0
  6
CONTINUOUS
 10
7.667000
 20
1.756480
  0
VERTEX
  8
0
  6
CONTINUOUS
 10
7.668760
 20
1.701920
  0
VERTEX
  8
0
  6
CONTINUOUS
 10
7.666560
 20
0.964480
  0
VERTEX
  8
0
  6
CONTINUOUS
 10
7.664800
 20
1.019040
  0
SEQEND
  8
0
  0
SOLID
  8
0
 62
    15
 10
7.666560
 20
0.964480
 11
7.668760
 21
1.701920
 12
7.666560
 22
0.948200
 13
7.668320
 23
1.685640
  0
POLYLINE
  8
0
  6
CONTINUOUS
 66
     1
 40
0.000000
 41
0.000000
  0
VERTEX
  8
0
  6
CONTINUOUS
 10
7.666560
 20
0.964480
  0
VERTEX
  8
0
  6
CONTINUOUS
 10
7.668760
 20
1.701920
  0
VERTEX
  8
0
  6
CONTINUOUS
 10
7.668320
 20
1.685640
  0
VERTEX
  8
0
  6
CONTINUOUS
 10
7.666560
 20
0.948200
  0
VERTEX
  8
0
  6
CONTINUOUS
 10
7.666560
 20
0.964480
  0
SEQEND
  8
0
  0
POLYLINE
  8
0
  6
CONTINUOUS
 66
     1
 40
0.000000
 41
0.000000
  0
VERTEX
  8
0
  6
CONTINUOUS
 10
7.665240
 20
0.948640
  0
VERTEX
  8
0
  6
CONTINUOUS
 10
3.436400
 20
0.948640
  0
VERTEX
  8
0
  6
CONTINUOUS
 10
3.436400
 20
1.757800
  0
VERTEX
  8
0
  6
CONTINUOUS
 10
4.471280
 20
1.757800
  0
VERTEX
  8
0
  6
CONTINUOUS
 10
4.491080
 20
1.698400
  0
VERTEX
  8
0
  6
CONTINUOUS
 10
4.516600
 20
1.641200
  0
VERTEX
  8
0
  6
CONTINUOUS
 10
4.546520
 20
1.587960
  0
VERTEX
  8
0
  6
CONTINUOUS
 10
4.578200
 20
1.540440
  0
VERTEX
  8
0
  6
CONTINUOUS
 10
4.609880
 20
1.500400
  0
VERTEX
  8
0
  6
CONTINUOUS
 10
4.639360
 20
1.469600
  0
VERTEX
  8
0
  6
CONTINUOUS
 10
4.664440
 20
1.449800
  0
VERTEX
  8
0
  6
CONTINUOUS
 10
4.675000
 20
1.444520
  0
VERTEX
  8
0
  6
CONTINUOUS
 10
4.683800
 20
1.442760
  0
VERTEX
  8
0
  6
CONTINUOUS
 10
4.691720
 20
1.445840
  0
VERTEX
  8
0
  6
CONTINUOUS
 10
4.699640
 20
1.455520
  0
VERTEX
  8
0
  6
CONTINUOUS
 10
4.743640
 20
1.535600
  0
VERTEX
  8
0
  6
CONTINUOUS
 10
4.779280
 20
1.589280
  0
VERTEX
  8
0
  6
CONTINUOUS
 10
4.801720
 20
1.616560
  0
VERTEX
  8
0
  6
CONTINUOUS
 10
4.828560
 20
1.642520
  0
VERTEX
  8
0
  6
CONTINUOUS
 10
4.859800
 20
1.667160
  0
VERTEX
  8
0
  6
CONTINUOUS
 10
4.895880
 20
1.688280
  0
VERTEX
  8
0
  6
CONTINUOUS
 10
4.937240
 20
1.706320
  0
VERTEX
  8
0
  6
CONTINUOUS
 10
4.984320
 20
1.719960
  0
VERTEX
  8
0
  6
CONTINUOUS
 10
5.037560
 20
1.727880
  0
VERTEX
  8
0
  6
CONTINUOUS
 10
5.097400
 20
1.729640
  0
VERTEX
  8
0
  6
CONTINUOUS
 10
5.158120
 20
1.725240
  0
VERTEX
  8
0
  6
CONTINUOUS
 10
5.212680
 20
1.715560
  0
VERTEX
  8
0
  6
CONTINUOUS
 10
5.261960
 20
1.701040
  0
VERTEX
  8
0
  6
CONTINUOUS
 10
5.306400
 20
1.682120
  0
VERTEX
  8
0
  6
CONTINUOUS
 10
5.346880
 20
1.659680
  0
VERTEX
  8
0
  6
CONTINUOUS
 10
5.383400
 20
1.633720
  0
VERTEX
  8
0
  6
CONTINUOUS
 10
5.447640
 20
1.573880
  0
VERTEX
  8
0
  6
CONTINUOUS
 10
5.503520
 20
1.507000
  0
VERTEX
  8
0
  6
CONTINUOUS
 10
5.607360
 20
1.367960
  0
VERTEX
  8
0
  6
CONTINUOUS
 10
5.664120
 20
1.304600
  0
VERTEX
  8
0
  6
CONTINUOUS
 10
5.696240
 20
1.275120
  0
VERTEX
  8
0
  6
CONTINUOUS
 10
5.728360
 20
1.251360
  0
VERTEX
  8
0
  6
CONTINUOUS
 10
5.760480
 20
1.232880
  0
VERTEX
  8
0
  6
CONTINUOUS
 10
5.792600
 20
1.219680
  0
VERTEX
  8
0
  6
CONTINUOUS
 10
5.823840
 20
1.211760
  0
VERTEX
  8
0
  6
CONTINUOUS
 10
5.854640
 20
1.208240
  0
VERTEX
  8
0
  6
CONTINUOUS
 10
5.885000
 20
1.210000
  0
VERTEX
  8
0
  6
CONTINUOUS
 10
5.914040
 20
1.216160
  0
VERTEX
  8
0
  6
CONTINUOUS
 10
5.942640
 20
1.226720
  0
VERTEX
  8
0
  6
CONTINUOUS
 10
5.969480
 20
1.241680
  0
VERTEX
  8
0
  6
CONTINUOUS
 10
5.995440
 20
1.261480
  0
VERTEX
  8
0
  6
CONTINUOUS
 10
6.020080
 20
1.284800
  0
VERTEX
  8
0
  6
CONTINUOUS
 10
6.042960
 20
1.312520
  0
VERTEX
  8
0
  6
CONTINUOUS
 10
6.064080
 20
1.344200
  0
VERTEX
  8
0
  6
CONTINUOUS
 10
6.083440
 20
1.379400
  0
VERTEX
  8
0
  6
CONTINUOUS
 10
6.100600
 20
1.418120
  0
VERTEX
  8
0
  6
CONTINUOUS
 10
6.358880
 20
1.418120
  0
VERTEX
  8
0
  6
CONTINUOUS
 10
6.368560
 20
1.460800
  0
VERTEX
  8
0
  6
CONTINUOUS
 10
6.385720
 20
1.499960
  0
VERTEX
  8
0
  6
CONTINUOUS
 10
6.409480
 20
1.535160
  0
VERTEX
  8
0
  6
CONTINUOUS
 10
6.438960
 20
1.565960
  0
VERTEX
  8
0
  6
CONTINUOUS
 10
6.473720
 20
1.591040
  0
VERTEX
  8
0
  6
CONTINUOUS
 10
6.512440
 20
1.609960
  0
VERTEX
  8
0
  6
CONTINUOUS
 10
6.554240
 20
1.621840
  0
VERTEX
  8
0
  6
CONTINUOUS
 10
6.598680
 20
1.625800
  0
VERTEX
  8
0
  6
CONTINUOUS
 10
6.643120
 20
1.621840
  0
VERTEX
  8
0
  6
CONTINUOUS
 10
6.684480
 20
1.609960
  0
VERTEX
  8
0
  6
CONTINUOUS
 10
6.722760
 20
1.590600
  0
VERTEX
  8
0
  6
CONTINUOUS
 10
6.756640
 20
1.565520
  0
VERTEX
  8
0
  6
CONTINUOUS
 10
6.785240
 20
1.535160
  0
VERTEX
  8
0
  6
CONTINUOUS
 10
6.808120
 20
1.499520
  0
VERTEX
  8
0
  6
CONTINUOUS
 10
6.824840
 20
1.459920
  0
VERTEX
  8
0
  6
CONTINUOUS
 10
6.834080
 20
1.417240
  0
VERTEX
  8
0
  6
CONTINUOUS
 10
7.118760
 20
1.417240
  0
VERTEX
  8
0
  6
CONTINUOUS
 10
7.146480
 20
1.397000
  0
VERTEX
  8
0
  6
CONTINUOUS
 10
7.182560
 20
1.380280
  0
VERTEX
  8
0
  6
CONTINUOUS
 10
7.223920
 20
1.367080
  0
VERTEX
  8
0
  6
CONTINUOUS
 10
7.269240
 20
1.356520
  0
VERTEX
  8
0
  6
CONTINUOUS
 10
7.402120
 20
1.332760
  0
VERTEX
  8
0
  6
CONTINUOUS
 10
7.437760
 20
1.324840
  0
VERTEX
  8
0
  6
CONTINUOUS
 10
7.472080
 20
1.315600
  0
VERTEX
  8
0
  6
CONTINUOUS
 10
7.509480
 20
1.302400
  0
VERTEX
  8
0
  6
CONTINUOUS
 10
7.547320
 20
1.282160
  0
VERTEX
  8
0
  6
CONTINUOUS
 10
7.583840
 20
1.251360
  0
VERTEX
  8
0
  6
CONTINUOUS
 10
7.601000
 20
1.231560
  0
VERTEX
  8
0
  6
CONTINUOUS
 10
7.616400
 20
1.207800
  0
VERTEX
  8
0
  6
CONTINUOUS
 10
7.630480
 20
1.179640
  0
VERTEX
  8
0
  6
CONTINUOUS
 10
7.642800
 20
1.147080
  0
VERTEX
  8
0
  6
CONTINUOUS
 10
7.652480
 20
1.110120
  0
VERTEX
  8
0
  6
CONTINUOUS
 10
7.659960
 20
1.067440
  0
VERTEX
  8
0
  6
CONTINUOUS
 10
7.664800
 20
1.019040
  0
VERTEX
  8
0
  6
CONTINUOUS
 10
7.666560
 20
0.948200
  0
VERTEX
  8
0
  6
CONTINUOUS
 10
7.665240
 20
0.948640
  0
SEQEND
  8
0
  0
SOLID
  8
0
 62
    15
 10
3.261720
 20
2.420440
 11
3.265240
 21
3.164480
 12
3.299120
 22
2.387440
 13
3.302640
 23
3.131480
  0
POLYLINE
  8
0
  6
CONTINUOUS
 66
     1
 40
0.000000
 41
0.000000
  0
VERTEX
  8
0
  6
CONTINUOUS
 10
3.261720
 20
2.420440
  0
VERTEX
  8
0
  6
CONTINUOUS
 10
3.265240
 20
3.164480
  0
VERTEX
  8
0
  6
CONTINUOUS
 10
3.302640
 20
3.131480
  0
VERTEX
  8
0
  6
CONTINUOUS
 10
3.299120
 20
2.387440
  0
VERTEX
  8
0
  6
CONTINUOUS
 10
3.261720
 20
2.420440
  0
SEQEND
  8
0
  0
SOLID
  8
0
 62
    15
 10
2.678720
 20
2.306480
 11
2.682240
 21
3.050520
 12
2.695880
 22
2.356640
 13
2.698960
 23
3.100680
  0
POLYLINE
  8
0
  6
CONTINUOUS
 66
     1
 40
0.000000
 41
0.000000
  0
VERTEX
  8
0
  6
CONTINUOUS
 10
2.678720
 20
2.306480
  0
VERTEX
  8
0
  6
CONTINUOUS
 10
2.682240
 20
3.050520
  0
VERTEX
  8
0
  6
CONTINUOUS
 10
2.698960
 20
3.100680
  0
VERTEX
  8
0
  6
CONTINUOUS
 10
2.695880
 20
2.356640
  0
VERTEX
  8
0
  6
CONTINUOUS
 10
2.678720
 20
2.306480
  0
SEQEND
  8
0
  0
SOLID
  8
0
 62
    15
 10
2.695880
 20
2.356640
 11
2.698960
 21
3.100680
 12
2.721840
 22
2.398880
 13
2.725360
 23
3.142920
  0
POLYLINE
  8
0
  6
CONTINUOUS
 66
     1
 40
0.000000
 41
0.000000
  0
VERTEX
  8
0
  6
CONTINUOUS
 10
2.695880
 20
2.356640
  0
VERTEX
  8
0
  6
CONTINUOUS
 10
2.698960
 20
3.100680
  0
VERTEX
  8
0
  6
CONTINUOUS
 10
2.725360
 20
3.142920
  0
VERTEX
  8
0
  6
CONTINUOUS
 10
2.721840
 20
2.398880
  0
VERTEX
  8
0
  6
CONTINUOUS
 10
2.695880
 20
2.356640
  0
SEQEND
  8
0
  0
SOLID
  8
0
 62
    15
 10
2.721840
 20
2.398880
 11
2.725360
 21
3.142920
 12
2.756600
 22
2.433640
 13
2.760120
 23
3.177680
  0
POLYLINE
  8
0
  6
CONTINUOUS
 66
     1
 40
0.000000
 41
0.000000
  0
VERTEX
  8
0
  6
CONTINUOUS
 10
2.721840
 20
2.398880
  0
VERTEX
  8
0
  6
CONTINUOUS
 10
2.725360
 20
3.142920
  0
VERTEX
  8
0
  6
CONTINUOUS
 10
2.760120
 20
3.177680
  0
VERTEX
  8
0
  6
CONTINUOUS
 10
2.756600
 20
2.433640
  0
VERTEX
  8
0
  6
CONTINUOUS
 10
2.721840
 20
2.398880
  0
SEQEND
  8
0
  0
SOLID
  8
0
 62
    15
 10
2.756600
 20
2.433640
 11
2.760120
 21
3.177680
 12
2.797960
 22
2.461360
 13
2.801480
 23
3.205400
  0
POLYLINE
  8
0
  6
CONTINUOUS
 66
     1
 40
0.000000
 41
0.000000
  0
VERTEX
  8
0
  6
CONTINUOUS
 10
2.756600
 20
2.433640
  0
VERTEX
  8
0
  6
CONTINUOUS
 10
2.760120
 20
3.177680
  0
VERTEX
  8
0
  6
CONTINUOUS
 10
2.801480
 20
3.205400
  0
VERTEX
  8
0
  6
CONTINUOUS
 10
2.797960
 20
2.461360
  0
VERTEX
  8
0
  6
CONTINUOUS
 10
2.756600
 20
2.433640
  0
SEQEND
  8
0
  0
SOLID
  8
0
 62
    15
 10
2.797960
 20
2.461360
 11
2.801480
 21
3.205400
 12
2.845040
 22
2.482040
 13
2.848560
 23
3.226080
  0
POLYLINE
  8
0
  6
CONTINUOUS
 66
     1
 40
0.000000
 41
0.000000
  0
VERTEX
  8
0
  6
CONTINUOUS
 10
2.797960
 20
2.461360
  0
VERTEX
  8
0
  6
CONTINUOUS
 10
2.801480
 20
3.205400
  0
VERTEX
  8
0
  6
CONTINUOUS
 10
2.848560
 20
3.226080
  0
VERTEX
  8
0
  6
CONTINUOUS
 10
2.845040
 20
2.482040
  0
VERTEX
  8
0
  6
CONTINUOUS
 10
2.797960
 20
2.461360
  0
SEQEND
  8
0
  0
SOLID
  8
0
 62
    15
 10
2.845040
 20
2.482040
 11
2.848560
 21
3.226080
 12
2.896080
 22
2.496120
 13
2.899600
 23
3.240160
  0
POLYLINE
  8
0
  6
CONTINUOUS
 66
     1
 40
0.000000
 41
0.000000
  0
VERTEX
  8
0
  6
CONTINUOUS
 10
2.845040
 20
2.482040
  0
VERTEX
  8
0
  6
CONTINUOUS
 10
2.848560
 20
3.226080
  0
VERTEX
  8
0
  6
CONTINUOUS
 10
2.899600
 20
3.240160
  0
VERTEX
  8
0
  6
CONTINUOUS
 10
2.896080
 20
2.496120
  0
VERTEX
  8
0
  6
CONTINUOUS
 10
2.845040
 20
2.482040
  0
SEQEND
  8
0
  0
SOLID
  8
0
 62
    15
 10
2.896080
 20
2.496120
 11
2.899600
 21
3.240160
 12
2.950640
 22
2.503160
 13
2.953720
 23
3.247640
  0
POLYLINE
  8
0
  6
CONTINUOUS
 66
     1
 40
0.000000
 41
0.000000
  0
VERTEX
  8
0
  6
CONTINUOUS
 10
2.896080
 20
2.496120
  0
VERTEX
  8
0
  6
CONTINUOUS
 10
2.899600
 20
3.240160
  0
VERTEX
  8
0
  6
CONTINUOUS
 10
2.953720
 20
3.247640
  0
VERTEX
  8
0
  6
CONTINUOUS
 10
2.950640
 20
2.503160
  0
VERTEX
  8
0
  6
CONTINUOUS
 10
2.896080
 20
2.496120
  0
SEQEND
  8
0
  0
SOLID
  8
0
 62
    15
 10
2.950640
 20
2.503160
 11
2.953720
 21
3.247640
 12
3.006080
 22
2.504480
 13
3.009600
 23
3.248520
  0
POLYLINE
  8
0
  6
CONTINUOUS
 66
     1
 40
0.000000
 41
0.000000
  0
VERTEX
  8
0
  6
CONTINUOUS
 10
2.950640
 20
2.503160
  0
VERTEX
  8
0
  6
CONTINUOUS
 10
2.953720
 20
3.247640
  0
VERTEX
  8
0
  6
CONTINUOUS
 10
3.009600
 20
3.248520
  0
VERTEX
  8
0
  6
CONTINUOUS
 10
3.006080
 20
2.504480
  0
VERTEX
  8
0
  6
CONTINUOUS
 10
2.950640
 20
2.503160
  0
SEQEND
  8
0
  0
SOLID
  8
0
 62
    15
 10
3.006080
 20
2.504480
 11
3.009600
 21
3.248520
 12
3.061960
 22
2.499200
 13
3.065480
 23
3.243240
  0
POLYLINE
  8
0
  6
CONTINUOUS
 66
     1
 40
0.000000
 41
0.000000
  0
VERTEX
  8
0
  6
CONTINUOUS
 10
3.006080
 20
2.504480
  0
VERTEX
  8
0
  6
CONTINUOUS
 10
3.009600
 20
3.248520
  0
VERTEX
  8
0
  6
CONTINUOUS
 10
3.065480
 20
3.243240
  0
VERTEX
  8
0
  6
CONTINUOUS
 10
3.061960
 20
2.499200
  0
VERTEX
  8
0
  6
CONTINUOUS
 10
3.006080
 20
2.504480
  0
SEQEND
  8
0
  0
SOLID
  8
0
 62
    15
 10
3.061960
 20
2.499200
 11
3.065480
 21
3.243240
 12
3.116960
 22
2.487760
 13
3.120480
 23
3.231800
  0
POLYLINE
  8
0
  6
CONTINUOUS
 66
     1
 40
0.000000
 41
0.000000
  0
VERTEX
  8
0
  6
CONTINUOUS
 10
3.061960
 20
2.499200
  0
VERTEX
  8
0
  6
CONTINUOUS
 10
3.065480
 20
3.243240
  0
VERTEX
  8
0
  6
CONTINUOUS
 10
3.120480
 20
3.231800
  0
VERTEX
  8
0
  6
CONTINUOUS
 10
3.116960
 20
2.487760
  0
VERTEX
  8
0
  6
CONTINUOUS
 10
3.061960
 20
2.499200
  0
SEQEND
  8
0
  0
SOLID
  8
0
 62
    15
 10
3.116960
 20
2.487760
 11
3.120480
 21
3.231800
 12
3.169320
 22
2.471040
 13
3.172840
 23
3.215080
  0
POLYLINE
  8
0
  6
CONTINUOUS
 66
     1
 40
0.000000
 41
0.000000
  0
VERTEX
  8
0
  6
CONTINUOUS
 10
3.116960
 20
2.487760
  0
VERTEX
  8
0
  6
CONTINUOUS
 10
3.120480
 20
3.231800
  0
VERTEX
  8
0
  6
CONTINUOUS
 10
3.172840
 20
3.215080
  0
VERTEX
  8
0
  6
CONTINUOUS
 10
3.169320
 20
2.471040
  0
VERTEX
  8
0
  6
CONTINUOUS
 10
3.116960
 20
2.487760
  0
SEQEND
  8
0
  0
SOLID
  8
0
 62
    15
 10
3.169320
 20
2.471040
 11
3.172840
 21
3.215080
 12
3.218160
 22
2.448160
 13
3.221680
 23
3.192640
  0
POLYLINE
  8
0
  6
CONTINUOUS
 66
     1
 40
0.000000
 41
0.000000
  0
VERTEX
  8
0
  6
CONTINUOUS
 10
3.169320
 20
2.471040
  0
VERTEX
  8
0
  6
CONTINUOUS
 10
3.172840
 20
3.215080
  0
VERTEX
  8
0
  6
CONTINUOUS
 10
3.221680
 20
3.192640
  0
VERTEX
  8
0
  6
CONTINUOUS
 10
3.218160
 20
2.448160
  0
VERTEX
  8
0
  6
CONTINUOUS
 10
3.169320
 20
2.471040
  0
SEQEND
  8
0
  0
SOLID
  8
0
 62
    15
 10
3.218160
 20
2.448160
 11
3.221680
 21
3.192640
 12
3.261720
 22
2.420440
 13
3.265240
 23
3.164480
  0
POLYLINE
  8
0
  6
CONTINUOUS
 66
     1
 40
0.000000
 41
0.000000
  0
VERTEX
  8
0
  6
CONTINUOUS
 10
3.218160
 20
2.448160
  0
VERTEX
  8
0
  6
CONTINUOUS
 10
3.221680
 20
3.192640
  0
VERTEX
  8
0
  6
CONTINUOUS
 10
3.265240
 20
3.164480
  0
VERTEX
  8
0
  6
CONTINUOUS
 10
3.261720
 20
2.420440
  0
VERTEX
  8
0
  6
CONTINUOUS
 10
3.218160
 20
2.448160
  0
SEQEND
  8
0
  0
SOLID
  8
0
 62
    15
 10
2.673000
 20
2.248840
 11
2.676520
 21
2.992880
 12
2.678720
 22
2.306480
 13
2.682240
 23
3.050520
  0
POLYLINE
  8
0
  6
CONTINUOUS
 66
     1
 40
0.000000
 41
0.000000
  0
VERTEX
  8
0
  6
CONTINUOUS
 10
2.673000
 20
2.248840
  0
VERTEX
  8
0
  6
CONTINUOUS
 10
2.676520
 20
2.992880
  0
VERTEX
  8
0
  6
CONTINUOUS
 10
2.682240
 20
3.050520
  0
VERTEX
  8
0
  6
CONTINUOUS
 10
2.678720
 20
2.306480
  0
VERTEX
  8
0
  6
CONTINUOUS
 10
2.673000
 20
2.248840
  0
SEQEND
  8
0
  0
SOLID
  8
0
 62
    15
 10
3.299120
 20
2.387440
 11
3.302640
 21
3.131480
 12
3.328600
 22
2.349600
 13
3.332120
 23
3.093640
  0
POLYLINE
  8
0
  6
CONTINUOUS
 66
     1
 40
0.000000
 41
0.000000
  0
VERTEX
  8
0
  6
CONTINUOUS
 10
3.299120
 20
2.387440
  0
VERTEX
  8
0
  6
CONTINUOUS
 10
3.302640
 20
3.131480
  0
VERTEX
  8
0
  6
CONTINUOUS
 10
3.332120
 20
3.093640
  0
VERTEX
  8
0
  6
CONTINUOUS
 10
3.328600
 20
2.349600
  0
VERTEX
  8
0
  6
CONTINUOUS
 10
3.299120
 20
2.387440
  0
SEQEND
  8
0
  0
SOLID
  8
0
 62
    15
 10
3.328600
 20
2.349600
 11
3.332120
 21
3.093640
 12
3.351480
 22
2.310880
 13
3.355000
 23
3.054920
  0
POLYLINE
  8
0
  6
CONTINUOUS
 66
     1
 40
0.000000
 41
0.000000
  0
VERTEX
  8
0
  6
CONTINUOUS
 10
3.328600
 20
2.349600
  0
VERTEX
  8
0
  6
CONTINUOUS
 10
3.332120
 20
3.093640
  0
VERTEX
  8
0
  6
CONTINUOUS
 10
3.355000
 20
3.054920
  0
VERTEX
  8
0
  6
CONTINUOUS
 10
3.351480
 20
2.310880
  0
VERTEX
  8
0
  6
CONTINUOUS
 10
3.328600
 20
2.349600
  0
SEQEND
  8
0
  0
SOLID
  8
0
 62
    15
 10
3.351480
 20
2.310880
 11
3.355000
 21
3.054920
 12
3.370840
 22
2.275240
 13
3.373920
 23
3.019280
  0
POLYLINE
  8
0
  6
CONTINUOUS
 66
     1
 40
0.000000
 41
0.000000
  0
VERTEX
  8
0
  6
CONTINUOUS
 10
3.351480
 20
2.310880
  0
VERTEX
  8
0
  6
CONTINUOUS
 10
3.355000
 20
3.054920
  0
VERTEX
  8
0
  6
CONTINUOUS
 10
3.373920
 20
3.019280
  0
VERTEX
  8
0
  6
CONTINUOUS
 10
3.370840
 20
2.275240
  0
VERTEX
  8
0
  6
CONTINUOUS
 10
3.351480
 20
2.310880
  0
SEQEND
  8
0
  0
SOLID
  8
0
 62
    15
 10
3.370840
 20
2.275240
 11
3.373920
 21
3.019280
 12
3.399880
 22
2.211880
 13
3.402960
 23
2.955920
  0
POLYLINE
  8
0
  6
CONTINUOUS
 66
     1
 40
0.000000
 41
0.000000
  0
VERTEX
  8
0
  6
CONTINUOUS
 10
3.370840
 20
2.275240
  0
VERTEX
  8
0
  6
CONTINUOUS
 10
3.373920
 20
3.019280
  0
VERTEX
  8
0
  6
CONTINUOUS
 10
3.402960
 20
2.955920
  0
VERTEX
  8
0
  6
CONTINUOUS
 10
3.399880
 20
2.211880
  0
VERTEX
  8
0
  6
CONTINUOUS
 10
3.370840
 20
2.275240
  0
SEQEND
  8
0
  0
SOLID
  8
0
 62
    15
 10
3.399880
 20
2.211880
 11
3.402960
 21
2.955920
 12
3.422320
 22
2.157760
 13
3.425840
 23
2.902240
  0
POLYLINE
  8
0
  6
CONTINUOUS
 66
     1
 40
0.000000
 41
0.000000
  0
VERTEX
  8
0
  6
CONTINUOUS
 10
3.399880
 20
2.211880
  0
VERTEX
  8
0
  6
CONTINUOUS
 10
3.402960
 20
2.955920
  0
VERTEX
  8
0
  6
CONTINUOUS
 10
3.425840
 20
2.902240
  0
VERTEX
  8
0
  6
CONTINUOUS
 10
3.422320
 20
2.157760
  0
VERTEX
  8
0
  6
CONTINUOUS
 10
3.399880
 20
2.211880
  0
SEQEND
  8
0
  0
SOLID
  8
0
 62
    15
 10
3.436400
 20
1.757800
 11
3.439480
 21
2.501840
 12
3.436400
 22
0.947760
 13
3.439480
 23
1.691800
  0
POLYLINE
  8
0
  6
CONTINUOUS
 66
     1
 40
0.000000
 41
0.000000
  0
VERTEX
  8
0
  6
CONTINUOUS
 10
3.436400
 20
1.757800
  0
VERTEX
  8
0
  6
CONTINUOUS
 10
3.439480
 20
2.501840
  0
VERTEX
  8
0
  6
CONTINUOUS
 10
3.439480
 20
1.691800
  0
VERTEX
  8
0
  6
CONTINUOUS
 10
3.436400
 20
0.947760
  0
VERTEX
  8
0
  6
CONTINUOUS
 10
3.436400
 20
1.757800
  0
SEQEND
  8
0
  0
SOLID
  8
0
 62
    15
 10
3.444320
 20
2.112000
 11
3.447400
 21
2.856040
 12
3.471600
 22
2.072400
 13
3.475120
 23
2.816440
  0
POLYLINE
  8
0
  6
CONTINUOUS
 66
     1
 40
0.000000
 41
0.000000
  0
VERTEX
  8
0
  6
CONTINUOUS
 10
3.444320
 20
2.112000
  0
VERTEX
  8
0
  6
CONTINUOUS
 10
3.447400
 20
2.856040
  0
VERTEX
  8
0
  6
CONTINUOUS
 10
3.475120
 20
2.816440
  0
VERTEX
  8
0
  6
CONTINUOUS
 10
3.471600
 20
2.072400
  0
VERTEX
  8
0
  6
CONTINUOUS
 10
3.444320
 20
2.112000
  0
SEQEND
  8
0
  0
SOLID
  8
0
 62
    15
 10
3.471600
 20
2.072400
 11
3.475120
 21
2.816440
 12
3.510760
 22
2.037200
 13
3.513840
 23
2.781240
  0
POLYLINE
  8
0
  6
CONTINUOUS
 66
     1
 40
0.000000
 41
0.000000
  0
VERTEX
  8
0
  6
CONTINUOUS
 10
3.471600
 20
2.072400
  0
VERTEX
  8
0
  6
CONTINUOUS
 10
3.475120
 20
2.816440
  0
VERTEX
  8
0
  6
CONTINUOUS
 10
3.513840
 20
2.781240
  0
VERTEX
  8
0
  6
CONTINUOUS
 10
3.510760
 20
2.037200
  0
VERTEX
  8
0
  6
CONTINUOUS
 10
3.471600
 20
2.072400
  0
SEQEND
  8
0
  0
SOLID
  8
0
 62
    15
 10
3.510760
 20
2.037200
 11
3.513840
 21
2.781240
 12
3.536280
 22
2.020480
 13
3.539800
 23
2.764520
  0
POLYLINE
  8
0
  6
CONTINUOUS
 66
     1
 40
0.000000
 41
0.000000
  0
VERTEX
  8
0
  6
CONTINUOUS
 10
3.510760
 20
2.037200
  0
VERTEX
  8
0
  6
CONTINUOUS
 10
3.513840
 20
2.781240
  0
VERTEX
  8
0
  6
CONTINUOUS
 10
3.539800
 20
2.764520
  0
VERTEX
  8
0
  6
CONTINUOUS
 10
3.536280
 20
2.020480
  0
VERTEX
  8
0
  6
CONTINUOUS
 10
3.510760
 20
2.037200
  0
SEQEND
  8
0
  0
SOLID
  8
0
 62
    15
 10
3.536280
 20
2.020480
 11
3.539800
 21
2.764520
 12
3.567520
 22
2.004640
 13
3.570600
 23
2.748680
  0
POLYLINE
  8
0
  6
CONTINUOUS
 66
     1
 40
0.000000
 41
0.000000
  0
VERTEX
  8
0
  6
CONTINUOUS
 10
3.536280
 20
2.020480
  0
VERTEX
  8
0
  6
CONTINUOUS
 10
3.539800
 20
2.764520
  0
VERTEX
  8
0
  6
CONTINUOUS
 10
3.570600
 20
2.748680
  0
VERTEX
  8
0
  6
CONTINUOUS
 10
3.567520
 20
2.004640
  0
VERTEX
  8
0
  6
CONTINUOUS
 10
3.536280
 20
2.020480
  0
SEQEND
  8
0
  0
SOLID
  8
0
 62
    15
 10
3.567520
 20
2.004640
 11
3.570600
 21
2.748680
 12
3.604480
 22
1.988800
 13
3.607560
 23
2.732840
  0
POLYLINE
  8
0
  6
CONTINUOUS
 66
     1
 40
0.000000
 41
0.000000
  0
VERTEX
  8
0
  6
CONTINUOUS
 10
3.567520
 20
2.004640
  0
VERTEX
  8
0
  6
CONTINUOUS
 10
3.570600
 20
2.748680
  0
VERTEX
  8
0
  6
CONTINUOUS
 10
3.607560
 20
2.732840
  0
VERTEX
  8
0
  6
CONTINUOUS
 10
3.604480
 20
1.988800
  0
VERTEX
  8
0
  6
CONTINUOUS
 10
3.567520
 20
2.004640
  0
SEQEND
  8
0
  0
SOLID
  8
0
 62
    15
 10
3.648040
 20
1.972960
 11
3.651560
 21
2.717000
 12
3.648040
 22
1.757800
 13
3.651560
 23
2.501840
  0
POLYLINE
  8
0
  6
CONTINUOUS
 66
     1
 40
0.000000
 41
0.000000
  0
VERTEX
  8
0
  6
CONTINUOUS
 10
3.648040
 20
1.972960
  0
VERTEX
  8
0
  6
CONTINUOUS
 10
3.651560
 20
2.717000
  0
VERTEX
  8
0
  6
CONTINUOUS
 10
3.651560
 20
2.501840
  0
VERTEX
  8
0
  6
CONTINUOUS
 10
3.648040
 20
1.757800
  0
VERTEX
  8
0
  6
CONTINUOUS
 10
3.648040
 20
1.972960
  0
SEQEND
  8
0
  0
SOLID
  8
0
 62
    15
 10
3.604480
 20
1.988800
 11
3.607560
 21
2.732840
 12
3.648040
 22
1.972960
 13
3.651560
 23
2.717000
  0
POLYLINE
  8
0
  6
CONTINUOUS
 66
     1
 40
0.000000
 41
0.000000
  0
VERTEX
  8
0
  6
CONTINUOUS
 10
3.604480
 20
1.988800
  0
VERTEX
  8
0
  6
CONTINUOUS
 10
3.607560
 20
2.732840
  0
VERTEX
  8
0
  6
CONTINUOUS
 10
3.651560
 20
2.717000
  0
VERTEX
  8
0
  6
CONTINUOUS
 10
3.648040
 20
1.972960
  0
VERTEX
  8
0
  6
CONTINUOUS
 10
3.604480
 20
1.988800
  0
SEQEND
  8
0
  0
SOLID
  8
0
 62
    15
 10
3.422320
 20
2.157760
 11
3.425840
 21
2.902240
 12
3.444320
 22
2.112000
 13
3.447400
 23
2.856040
  0
POLYLINE
  8
0
  6
CONTINUOUS
 66
     1
 40
0.000000
 41
0.000000
  0
VERTEX
  8
0
  6
CONTINUOUS
 10
3.422320
 20
2.157760
  0
VERTEX
  8
0
  6
CONTINUOUS
 10
3.425840
 20
2.902240
  0
VERTEX
  8
0
  6
CONTINUOUS
 10
3.447400
 20
2.856040
  0
VERTEX
  8
0
  6
CONTINUOUS
 10
3.444320
 20
2.112000
  0
VERTEX
  8
0
  6
CONTINUOUS
 10
3.422320
 20
2.157760
  0
SEQEND
  8
0
  0
POLYLINE
  8
0
  6
CONTINUOUS
 66
     1
 40
0.000000
 41
0.000000
  0
VERTEX
  8
0
  6
CONTINUOUS
 10
2.673000
 20
0.948200
  0
VERTEX
  8
0
  6
CONTINUOUS
 10
2.673000
 20
2.248840
  0
VERTEX
  8
0
  6
CONTINUOUS
 10
2.678720
 20
2.306480
  0
VERTEX
  8
0
  6
CONTINUOUS
 10
2.695880
 20
2.356640
  0
VERTEX
  8
0
  6
CONTINUOUS
 10
2.721840
 20
2.398880
  0
VERTEX
  8
0
  6
CONTINUOUS
 10
2.756600
 20
2.433640
  0
VERTEX
  8
0
  6
CONTINUOUS
 10
2.797960
 20
2.461360
  0
VERTEX
  8
0
  6
CONTINUOUS
 10
2.845040
 20
2.482040
  0
VERTEX
  8
0
  6
CONTINUOUS
 10
2.896080
 20
2.496120
  0
VERTEX
  8
0
  6
CONTINUOUS
 10
2.950640
 20
2.503160
  0
VERTEX
  8
0
  6
CONTINUOUS
 10
3.006080
 20
2.504480
  0
VERTEX
  8
0
  6
CONTINUOUS
 10
3.061960
 20
2.499200
  0
VERTEX
  8
0
  6
CONTINUOUS
 10
3.116960
 20
2.487760
  0
VERTEX
  8
0
  6
CONTINUOUS
 10
3.169320
 20
2.471040
  0
VERTEX
  8
0
  6
CONTINUOUS
 10
3.218160
 20
2.448160
  0
VERTEX
  8
0
  6
CONTINUOUS
 10
3.261720
 20
2.420440
  0
VERTEX
  8
0
  6
CONTINUOUS
 10
3.299120
 20
2.387440
  0
VERTEX
  8
0
  6
CONTINUOUS
 10
3.328600
 20
2.349600
  0
VERTEX
  8
0
  6
CONTINUOUS
 10
3.351480
 20
2.310880
  0
VERTEX
  8
0
  6
CONTINUOUS
 10
3.370840
 20
2.275240
  0
VERTEX
  8
0
  6
CONTINUOUS
 10
3.399880
 20
2.211880
  0
VERTEX
  8
0
  6
CONTINUOUS
 10
3.422320
 20
2.157760
  0
VERTEX
  8
0
  6
CONTINUOUS
 10
3.444320
 20
2.112000
  0
VERTEX
  8
0
  6
CONTINUOUS
 10
3.471600
 20
2.072400
  0
VERTEX
  8
0
  6
CONTINUOUS
 10
3.510760
 20
2.037200
  0
VERTEX
  8
0
  6
CONTINUOUS
 10
3.536280
 20
2.020480
  0
VERTEX
  8
0
  6
CONTINUOUS
 10
3.567520
 20
2.004640
  0
VERTEX
  8
0
  6
CONTINUOUS
 10
3.604480
 20
1.988800
  0
VERTEX
  8
0
  6
CONTINUOUS
 10
3.648040
 20
1.972960
  0
VERTEX
  8
0
  6
CONTINUOUS
 10
3.648040
 20
1.757800
  0
VERTEX
  8
0
  6
CONTINUOUS
 10
3.436400
 20
1.757800
  0
VERTEX
  8
0
  6
CONTINUOUS
 10
3.436400
 20
0.947760
  0
VERTEX
  8
0
  6
CONTINUOUS
 10
2.673000
 20
0.948200
  0
SEQEND
  8
0
  0
TEXT
  8
0
 10
4.161520
 20
0.719840
 40
0.138102
  1
BA  969 1" x 1-9/16"
 41
1.000000
  7
SN0
 71
     0
 72
     5
 11
5.653847
 21
0.719840
  0
TEXT
  8
0
 10
4.161520
 20
0.528440
 40
0.138102
  1
BA  970 13/16" x 4-1/4"
 41
1.000000
  7
SN0
 71
     0
 72
     5
 11
5.884506
 21
0.528440
  0
TEXT
  8
0
 10
2.742080
 20
1.038840
 40
0.138102
  1
969
 41
1.000000
  7
SN0
 71
     0
 72
     5
 11
3.019299
 21
1.038840
  0
TEXT
  8
0
 10
3.499760
 20
1.038840
 40
0.138102
  1
970
 41
1.000000
  7
SN0
 71
     0
 72
     5
 11
3.776979
 21
1.038840
  0
POLYLINE
  8
0
  6
CONTINUOUS
 66
     1
 40
0.014080
 41
0.014080
  0
VERTEX
  8
0
  6
CONTINUOUS
 10
3.024560
 20
3.802920
  0
VERTEX
  8
0
  6
CONTINUOUS
 10
3.025000
 20
5.118960
  0
VERTEX
  8
0
  6
CONTINUOUS
 10
3.028080
 20
5.147560
  0
VERTEX
  8
0
  6
CONTINUOUS
 10
3.033800
 20
5.174400
  0
VERTEX
  8
0
  6
CONTINUOUS
 10
3.047000
 20
5.211360
  0
VERTEX
  8
0
  6
CONTINUOUS
 10
3.065920
 20
5.243920
  0
VERTEX
  8
0
  6
CONTINUOUS
 10
3.089680
 20
5.272080
  0
VERTEX
  8
0
  6
CONTINUOUS
 10
3.108160
 20
5.288800
  0
VERTEX
  8
0
  6
CONTINUOUS
 10
3.127960
 20
5.303320
  0
VERTEX
  8
0
  6
CONTINUOUS
 10
3.149520
 20
5.316080
  0
VERTEX
  8
0
  6
CONTINUOUS
 10
3.172400
 20
5.327520
  0
VERTEX
  8
0
  6
CONTINUOUS
 10
3.196600
 20
5.337200
  0
VERTEX
  8
0
  6
CONTINUOUS
 10
3.247640
 20
5.350840
  0
VERTEX
  8
0
  6
CONTINUOUS
 10
3.301760
 20
5.358320
  0
VERTEX
  8
0
  6
CONTINUOUS
 10
3.329480
 20
5.359640
  0
VERTEX
  8
0
  6
CONTINUOUS
 10
3.385800
 20
5.357440
  0
VERTEX
  8
0
  6
CONTINUOUS
 10
3.441240
 20
5.349080
  0
VERTEX
  8
0
  6
CONTINUOUS
 10
3.494920
 20
5.335000
  0
VERTEX
  8
0
  6
CONTINUOUS
 10
3.545960
 20
5.315200
  0
VERTEX
  8
0
  6
CONTINUOUS
 10
3.569720
 20
5.303320
  0
VERTEX
  8
0
  6
CONTINUOUS
 10
3.613280
 20
5.275160
  0
VERTEX
  8
0
  6
CONTINUOUS
 10
3.632640
 20
5.259320
  0
VERTEX
  8
0
  6
CONTINUOUS
 10
3.650680
 20
5.242160
  0
VERTEX
  8
0
  6
CONTINUOUS
 10
3.673560
 20
5.214440
  0
VERTEX
  8
0
  6
CONTINUOUS
 10
3.713160
 20
5.147120
  0
VERTEX
  8
0
  6
CONTINUOUS
 10
3.744840
 20
5.081560
  0
VERTEX
  8
0
  6
CONTINUOUS
 10
3.784440
 20
4.989160
  0
VERTEX
  8
0
  6
CONTINUOUS
 10
3.808640
 20
4.946480
  0
VERTEX
  8
0
  6
CONTINUOUS
 10
3.831520
 20
4.918320
  0
VERTEX
  8
0
  6
CONTINUOUS
 10
3.850880
 20
4.900720
  0
VERTEX
  8
0
  6
CONTINUOUS
 10
3.887840
 20
4.875640
  0
VERTEX
  8
0
  6
CONTINUOUS
 10
3.936680
 20
4.851880
  0
VERTEX
  8
0
  6
CONTINUOUS
 10
3.999600
 20
4.828120
  0
VERTEX
  8
0
  6
CONTINUOUS
 10
3.999600
 20
4.612960
  0
VERTEX
  8
0
  6
CONTINUOUS
 10
3.787520
 20
4.612960
  0
VERTEX
  8
0
  6
CONTINUOUS
 10
3.787520
 20
3.802480
  0
VERTEX
  8
0
  6
CONTINUOUS
 10
3.024560
 20
3.802920
  0
SEQEND
  8
0
  0
POLYLINE
  8
0
  6
CONTINUOUS
 66
     1
 40
0.014080
 41
0.014080
  0
VERTEX
  8
0
  6
CONTINUOUS
 10
3.034680
 20
3.802920
  0
VERTEX
  8
0
  6
CONTINUOUS
 10
3.787520
 20
3.802920
  0
SEQEND
  8
0
  0
POLYLINE
  8
0
  6
CONTINUOUS
 66
     1
 40
0.014080
 41
0.014080
  0
VERTEX
  8
0
  6
CONTINUOUS
 10
8.015920
 20
3.803360
  0
VERTEX
  8
0
  6
CONTINUOUS
 10
3.787080
 20
3.803360
  0
VERTEX
  8
0
  6
CONTINUOUS
 10
3.787080
 20
4.612520
  0
VERTEX
  8
0
  6
CONTINUOUS
 10
4.821960
 20
4.612520
  0
VERTEX
  8
0
  6
CONTINUOUS
 10
4.830760
 20
4.582600
  0
VERTEX
  8
0
  6
CONTINUOUS
 10
4.854080
 20
4.524520
  0
VERTEX
  8
0
  6
CONTINUOUS
 10
4.881800
 20
4.469080
  0
VERTEX
  8
0
  6
CONTINUOUS
 10
4.912600
 20
4.418480
  0
VERTEX
  8
0
  6
CONTINUOUS
 10
4.960120
 20
4.355560
  0
VERTEX
  8
0
  6
CONTINUOUS
 10
4.990040
 20
4.324760
  0
VERTEX
  8
0
  6
CONTINUOUS
 10
5.015120
 20
4.304960
  0
VERTEX
  8
0
  6
CONTINUOUS
 10
5.030520
 20
4.298360
  0
VERTEX
  8
0
  6
CONTINUOUS
 10
5.034480
 20
4.297920
  0
VERTEX
  8
0
  6
CONTINUOUS
 10
5.042400
 20
4.301440
  0
VERTEX
  8
0
  6
CONTINUOUS
 10
5.054280
 20
4.317280
  0
VERTEX
  8
0
  6
CONTINUOUS
 10
5.101800
 20
4.403960
  0
VERTEX
  8
0
  6
CONTINUOUS
 10
5.129520
 20
4.444440
  0
VERTEX
  8
0
  6
CONTINUOUS
 10
5.165160
 20
4.484920
  0
VERTEX
  8
0
  6
CONTINUOUS
 10
5.210040
 20
4.521880
  0
VERTEX
  8
0
  6
CONTINUOUS
 10
5.246120
 20
4.543440
  0
VERTEX
  8
0
  6
CONTINUOUS
 10
5.265920
 20
4.553120
  0
VERTEX
  8
0
  6
CONTINUOUS
 10
5.310360
 20
4.568960
  0
VERTEX
  8
0
  6
CONTINUOUS
 10
5.360520
 20
4.579520
  0
VERTEX
  8
0
  6
CONTINUOUS
 10
5.387800
 20
4.583040
  0
VERTEX
  8
0
  6
CONTINUOUS
 10
5.417280
 20
4.584800
  0
VERTEX
  8
0
  6
CONTINUOUS
 10
5.448080
 20
4.584800
  0
VERTEX
  8
0
  6
CONTINUOUS
 10
5.478880
 20
4.583480
  0
VERTEX
  8
0
  6
CONTINUOUS
 10
5.508360
 20
4.580400
  0
VERTEX
  8
0
  6
CONTINUOUS
 10
5.562920
 20
4.570720
  0
VERTEX
  8
0
  6
CONTINUOUS
 10
5.588440
 20
4.564120
  0
VERTEX
  8
0
  6
CONTINUOUS
 10
5.635080
 20
4.546960
  0
VERTEX
  8
0
  6
CONTINUOUS
 10
5.657080
 20
4.537280
  0
VERTEX
  8
0
  6
CONTINUOUS
 10
5.697120
 20
4.514400
  0
VERTEX
  8
0
  6
CONTINUOUS
 10
5.716040
 20
4.502080
  0
VERTEX
  8
0
  6
CONTINUOUS
 10
5.767080
 20
4.459840
  0
VERTEX
  8
0
  6
CONTINUOUS
 10
5.797880
 20
4.428600
  0
VERTEX
  8
0
  6
CONTINUOUS
 10
5.826920
 20
4.396040
  0
VERTEX
  8
0
  6
CONTINUOUS
 10
5.957600
 20
4.223120
  0
VERTEX
  8
0
  6
CONTINUOUS
 10
5.999400
 20
4.174720
  0
VERTEX
  8
0
  6
CONTINUOUS
 10
6.030640
 20
4.143920
  0
VERTEX
  8
0
  6
CONTINUOUS
 10
6.062760
 20
4.117520
  0
VERTEX
  8
0
  6
CONTINUOUS
 10
6.094880
 20
4.096400
  0
VERTEX
  8
0
  6
CONTINUOUS
 10
6.127000
 20
4.080560
  0
VERTEX
  8
0
  6
CONTINUOUS
 10
6.158680
 20
4.070000
  0
VERTEX
  8
0
  6
CONTINUOUS
 10
6.189920
 20
4.064280
  0
VERTEX
  8
0
  6
CONTINUOUS
 10
6.220280
 20
4.063400
  0
VERTEX
  8
0
  6
CONTINUOUS
 10
6.250200
 20
4.067360
  0
VERTEX
  8
0
  6
CONTINUOUS
 10
6.278800
 20
4.075720
  0
VERTEX
  8
0
  6
CONTINUOUS
 10
6.306520
 20
4.088480
  0
VERTEX
  8
0
  6
CONTINUOUS
 10
6.333360
 20
4.106080
  0
VERTEX
  8
0
  6
CONTINUOUS
 10
6.358440
 20
4.127640
  0
VERTEX
  8
0
  6
CONTINUOUS
 10
6.382200
 20
4.153160
  0
VERTEX
  8
0
  6
CONTINUOUS
 10
6.414760
 20
4.198920
  0
VERTEX
  8
0
  6
CONTINUOUS
 10
6.434120
 20
4.234120
  0
VERTEX
  8
0
  6
CONTINUOUS
 10
6.451280
 20
4.273280
  0
VERTEX
  8
0
  6
CONTINUOUS
 10
6.709120
 20
4.273280
  0
VERTEX
  8
0
  6
CONTINUOUS
 10
6.713080
 20
4.294840
  0
VERTEX
  8
0
  6
CONTINUOUS
 10
6.718800
 20
4.315960
  0
VERTEX
  8
0
  6
CONTINUOUS
 10
6.726280
 20
4.335760
  0
VERTEX
  8
0
  6
CONTINUOUS
 10
6.735960
 20
4.355120
  0
VERTEX
  8
0
  6
CONTINUOUS
 10
6.746960
 20
4.373160
  0
VERTEX
  8
0
  6
CONTINUOUS
 10
6.759720
 20
4.390320
  0
VERTEX
  8
0
  6
CONTINUOUS
 10
6.789200
 20
4.421120
  0
VERTEX
  8
0
  6
CONTINUOUS
 10
6.805920
 20
4.434320
  0
VERTEX
  8
0
  6
CONTINUOUS
 10
6.823960
 20
4.446200
  0
VERTEX
  8
0
  6
CONTINUOUS
 10
6.862680
 20
4.465120
  0
VERTEX
  8
0
  6
CONTINUOUS
 10
6.904920
 20
4.477000
  0
VERTEX
  8
0
  6
CONTINUOUS
 10
6.926920
 20
4.480080
  0
VERTEX
  8
0
  6
CONTINUOUS
 10
6.949360
 20
4.480960
  0
VERTEX
  8
0
  6
CONTINUOUS
 10
6.971800
 20
4.480080
  0
VERTEX
  8
0
  6
CONTINUOUS
 10
6.993800
 20
4.477000
  0
VERTEX
  8
0
  6
CONTINUOUS
 10
7.014920
 20
4.471720
  0
VERTEX
  8
0
  6
CONTINUOUS
 10
7.054520
 20
4.456320
  0
VERTEX
  8
0
  6
CONTINUOUS
 10
7.090600
 20
4.433880
  0
VERTEX
  8
0
  6
CONTINUOUS
 10
7.106880
 20
4.420680
  0
VERTEX
  8
0
  6
CONTINUOUS
 10
7.121840
 20
4.406160
  0
VERTEX
  8
0
  6
CONTINUOUS
 10
7.147800
 20
4.372720
  0
VERTEX
  8
0
  6
CONTINUOUS
 10
7.158800
 20
4.354680
  0
VERTEX
  8
0
  6
CONTINUOUS
 10
7.168040
 20
4.335320
  0
VERTEX
  8
0
  6
CONTINUOUS
 10
7.175520
 20
4.315080
  0
VERTEX
  8
0
  6
CONTINUOUS
 10
7.184760
 20
4.272400
  0
VERTEX
  8
0
  6
CONTINUOUS
 10
7.469440
 20
4.272400
  0
VERTEX
  8
0
  6
CONTINUOUS
 10
7.489240
 20
4.256560
  0
VERTEX
  8
0
  6
CONTINUOUS
 10
7.514320
 20
4.242920
  0
VERTEX
  8
0
  6
CONTINUOUS
 10
7.532800
 20
4.235000
  0
VERTEX
  8
0
  6
CONTINUOUS
 10
7.574600
 20
4.221800
  0
VERTEX
  8
0
  6
CONTINUOUS
 10
7.619480
 20
4.211240
  0
VERTEX
  8
0
  6
CONTINUOUS
 10
7.771280
 20
4.183960
  0
VERTEX
  8
0
  6
CONTINUOUS
 10
7.840800
 20
4.165040
  0
VERTEX
  8
0
  6
CONTINUOUS
 10
7.879080
 20
4.148320
  0
VERTEX
  8
0
  6
CONTINUOUS
 10
7.907240
 20
4.130720
  0
VERTEX
  8
0
  6
CONTINUOUS
 10
7.934520
 20
4.106520
  0
VERTEX
  8
0
  6
CONTINUOUS
 10
7.959160
 20
4.074840
  0
VERTEX
  8
0
  6
CONTINUOUS
 10
7.974120
 20
4.049320
  0
VERTEX
  8
0
  6
CONTINUOUS
 10
7.987320
 20
4.018960
  0
VERTEX
  8
0
  6
CONTINUOUS
 10
8.003160
 20
3.964840
  0
VERTEX
  8
0
  6
CONTINUOUS
 10
8.010640
 20
3.922160
  0
VERTEX
  8
0
  6
CONTINUOUS
 10
8.015040
 20
3.874200
  0
VERTEX
  8
0
  6
CONTINUOUS
 10
8.016800
 20
3.803360
  0
VERTEX
  8
0
  6
CONTINUOUS
 10
8.015920
 20
3.803360
  0
SEQEND
  8
0
  0
TEXT
  8
0
 10
4.361720
 20
3.543760
 40
0.138102
  1
BA  969 1" x 1-9/16"
 41
1.000000
  7
SN0
 71
     0
 72
     5
 11
5.854047
 21
3.543760
  0
TEXT
  8
0
 10
4.361720
 20
3.352360
 40
0.138102
  1
BA  970 13/16" x 4-1/4"
 41
1.000000
  7
SN0
 71
     0
 72
     5
 11
6.084706
 21
3.352360
  0
TEXT
  8
0
 10
3.119600
 20
3.889160
 40
0.138102
  1
969
 41
1.000000
  7
SN0
 71
     0
 72
     5
 11
3.396819
 21
3.889160
  0
TEXT
  8
0
 10
3.877280
 20
3.889160
 40
0.138102
  1
970
 41
1.000000
  7
SN0
 71
     0
 72
     5
 11
4.154499
 21
3.889160
  0
ENDSEC
  0
EOF
