  0
SECTION
  2
HEADER
  9
$ACADVER
  1
AC1006
  9
$EXTMIN
 10
2.534400
 20
2.638680
  9
$EXTMAX
 10
6.159560
 20
5.743320
  9
$LTSCALE
 40
0.044000
  9
$PDMODE
 70
    35
  9
$PDSIZE
 40
0.035200
  0
ENDSEC
  0
SECTION
  2
TABLES
  0
TABLE
  2
LTYPE
 70
     9
  0
LTYPE
  2
CONTINUOUS
 70
    64
  3
Solid line
 72
    65
 73
     0
 40
0.000000
  0
LTYPE
  2
DASHED
 70
    64
  3
__ __ __ __ __ __ __ __ __ __ __ __ __ __ __
 72
    65
 73
     2
 40
0.000330
 49
0.000220
 49
-0.000110
  0
LTYPE
  2
HIDDEN
 70
    64
  3
 _ _ _ _ _ _ _ _ _ _ _ _ _ _ _ _ _ _ _ _ _ _
 72
    65
 73
     2
 40
0.000165
 49
0.000110
 49
-0.000055
  0
LTYPE
  2
CENTER
 70
    64
  3
____ _ ____ _ ____ _ ____ _ ____ _ ____ _ ____
 72
    65
 73
     4
 40
0.000880
 49
0.000550
 49
-0.000110
 49
0.000110
 49
-0.000110
  0
LTYPE
  2
PHANTOM
 70
    64
  3
_____ _ _ _____ _ _ _____ _ _ _____ _ _ ____
 72
    65
 73
     6
 40
0.001100
 49
0.000550
 49
-0.000110
 49
0.000110
 49
-0.000110
 49
0.000110
 49
-0.000110
  0
LTYPE
  2
DOT
 70
    64
  3
...............................................
 72
    65
 73
     2
 40
0.000110
 49
0.000000
 49
-0.000110
  0
LTYPE
  2
DASHDOT
 70
    64
  3
__ . __ . __ . __ . __ . __ . __ . __ . __ . __
 72
    65
 73
     4
 40
0.000440
 49
0.000220
 49
-0.000110
 49
0.000000
 49
-0.000110
  0
LTYPE
  2
BORDER
 70
    64
  3
__ __ . __ __ . __ __ . __ __ . __ __ . __ __
 72
    65
 73
     6
 40
0.000770
 49
0.000220
 49
-0.000110
 49
0.000220
 49
-0.000110
 49
0.000000
 49
-0.000110
  0
LTYPE
  2
DIVIDE
 70
    64
  3
__ . . __ . . __ . . __ . . __ . . __ . . __
 72
    65
 73
     6
 40
0.000550
 49
0.000220
 49
-0.000110
 49
0.000000
 49
-0.000110
 49
0.000000
 49
-0.000110
  0
LTYPE
  2
DOTDOT
 70
    64
  3
 . .  . .  . .  . .  . .  . . 
 72
    65
 73
     5
 40
0.000242
 49
-0.000110
 49
0.000000
 49
-0.000110
 49
0.000000
 49
-0.000110
  0
ENDTAB
  0
TABLE
  2
STYLE
 70
     2
  0
STYLE
 70
     0
  2
SN0
 40
0.000000
 41
0.000440
 50
0.000000
 71
     0
 42
0.000000
  3
ROMAND
  0
STYLE
 70
    68
  2
SV0
 40
0.000000
 41
0.000440
 50
0.000000
 71
     0
 42
0.000000
  3
ROMAND
  0
ENDTAB
  0
TABLE
  2
LAYER
 70
     3
  0
LAYER
  2
FOREGROUND
 70
    64
 62
     7
  6
CONTINUOUS
  0
LAYER
  2
BACKGROUND
 70
    65
 62
    -7
  6
CONTINUOUS
  0
LAYER
  2
0
 70
    64
 62
     7
  6
CONTINUOUS
  0
ENDTAB
  0
ENDSEC
  0
SECTION
  2
ENTITIES
  0
POLYLINE
  8
FOREGROUND
  6
CONTINUOUS
 66
     1
 40
0.000000
 41
0.000000
  0
VERTEX
  8
FOREGROUND
  6
CONTINUOUS
 10
0.000000
 20
8.382000
  0
VERTEX
  8
FOREGROUND
  6
CONTINUOUS
 10
8.499920
 20
8.382000
  0
VERTEX
  8
FOREGROUND
  6
CONTINUOUS
 10
8.499920
 20
-2.618000
  0
VERTEX
  8
FOREGROUND
  6
CONTINUOUS
 10
0.000000
 20
-2.618000
  0
VERTEX
  8
FOREGROUND
  6
CONTINUOUS
 10
0.000000
 20
8.382000
  0
SEQEND
  8
0
  0
POLYLINE
  8
FOREGROUND
  6
CONTINUOUS
 66
     1
 40
0.000000
 41
0.000000
  0
VERTEX
  8
FOREGROUND
  6
CONTINUOUS
 10
0.000000
 20
8.382000
  0
VERTEX
  8
FOREGROUND
  6
CONTINUOUS
 10
8.499920
 20
8.382000
  0
VERTEX
  8
FOREGROUND
  6
CONTINUOUS
 10
8.499920
 20
-2.618000
  0
VERTEX
  8
FOREGROUND
  6
CONTINUOUS
 10
0.000000
 20
-2.618000
  0
VERTEX
  8
FOREGROUND
  6
CONTINUOUS
 10
0.000000
 20
8.382000
  0
SEQEND
  8
0
  0
SOLID
  8
0
 62
    15
 10
5.100920
 20
3.375240
 11
5.102680
 21
4.110040
 12
5.147560
 22
3.357200
 13
5.149320
 23
4.092000
  0
POLYLINE
  8
0
  6
CONTINUOUS
 66
     1
 40
0.000000
 41
0.000000
  0
VERTEX
  8
0
  6
CONTINUOUS
 10
5.100920
 20
3.375240
  0
VERTEX
  8
0
  6
CONTINUOUS
 10
5.102680
 20
4.110040
  0
VERTEX
  8
0
  6
CONTINUOUS
 10
5.149320
 20
4.092000
  0
VERTEX
  8
0
  6
CONTINUOUS
 10
5.147560
 20
3.357200
  0
VERTEX
  8
0
  6
CONTINUOUS
 10
5.100920
 20
3.375240
  0
SEQEND
  8
0
  0
SOLID
  8
0
 62
    15
 10
2.535280
 20
3.901040
 11
2.537040
 21
4.635840
 12
3.278880
 22
3.901040
 13
3.280640
 23
4.635840
  0
POLYLINE
  8
0
  6
CONTINUOUS
 66
     1
 40
0.000000
 41
0.000000
  0
VERTEX
  8
0
  6
CONTINUOUS
 10
2.535280
 20
3.901040
  0
VERTEX
  8
0
  6
CONTINUOUS
 10
2.537040
 20
4.635840
  0
VERTEX
  8
0
  6
CONTINUOUS
 10
3.280640
 20
4.635840
  0
VERTEX
  8
0
  6
CONTINUOUS
 10
3.278880
 20
3.901040
  0
VERTEX
  8
0
  6
CONTINUOUS
 10
2.535280
 20
3.901040
  0
SEQEND
  8
0
  0
SOLID
  8
0
 62
    15
 10
3.278880
 20
3.901040
 11
3.280640
 21
4.635840
 12
3.278880
 22
3.767280
 13
3.280640
 23
4.502080
  0
POLYLINE
  8
0
  6
CONTINUOUS
 66
     1
 40
0.000000
 41
0.000000
  0
VERTEX
  8
0
  6
CONTINUOUS
 10
3.278880
 20
3.901040
  0
VERTEX
  8
0
  6
CONTINUOUS
 10
3.280640
 20
4.635840
  0
VERTEX
  8
0
  6
CONTINUOUS
 10
3.280640
 20
4.502080
  0
VERTEX
  8
0
  6
CONTINUOUS
 10
3.278880
 20
3.767280
  0
VERTEX
  8
0
  6
CONTINUOUS
 10
3.278880
 20
3.901040
  0
SEQEND
  8
0
  0
SOLID
  8
0
 62
    15
 10
3.278880
 20
3.767280
 11
3.280640
 21
4.502080
 12
3.336520
 22
3.764200
 13
3.338280
 23
4.499000
  0
POLYLINE
  8
0
  6
CONTINUOUS
 66
     1
 40
0.000000
 41
0.000000
  0
VERTEX
  8
0
  6
CONTINUOUS
 10
3.278880
 20
3.767280
  0
VERTEX
  8
0
  6
CONTINUOUS
 10
3.280640
 20
4.502080
  0
VERTEX
  8
0
  6
CONTINUOUS
 10
3.338280
 20
4.499000
  0
VERTEX
  8
0
  6
CONTINUOUS
 10
3.336520
 20
3.764200
  0
VERTEX
  8
0
  6
CONTINUOUS
 10
3.278880
 20
3.767280
  0
SEQEND
  8
0
  0
SOLID
  8
0
 62
    15
 10
3.336520
 20
3.764200
 11
3.338280
 21
4.499000
 12
3.384920
 22
3.754960
 13
3.386680
 23
4.489760
  0
POLYLINE
  8
0
  6
CONTINUOUS
 66
     1
 40
0.000000
 41
0.000000
  0
VERTEX
  8
0
  6
CONTINUOUS
 10
3.336520
 20
3.764200
  0
VERTEX
  8
0
  6
CONTINUOUS
 10
3.338280
 20
4.499000
  0
VERTEX
  8
0
  6
CONTINUOUS
 10
3.386680
 20
4.489760
  0
VERTEX
  8
0
  6
CONTINUOUS
 10
3.384920
 20
3.754960
  0
VERTEX
  8
0
  6
CONTINUOUS
 10
3.336520
 20
3.764200
  0
SEQEND
  8
0
  0
SOLID
  8
0
 62
    15
 10
3.384920
 20
3.754960
 11
3.386680
 21
4.489760
 12
3.424080
 22
3.739560
 13
3.425840
 23
4.474360
  0
POLYLINE
  8
0
  6
CONTINUOUS
 66
     1
 40
0.000000
 41
0.000000
  0
VERTEX
  8
0
  6
CONTINUOUS
 10
3.384920
 20
3.754960
  0
VERTEX
  8
0
  6
CONTINUOUS
 10
3.386680
 20
4.489760
  0
VERTEX
  8
0
  6
CONTINUOUS
 10
3.425840
 20
4.474360
  0
VERTEX
  8
0
  6
CONTINUOUS
 10
3.424080
 20
3.739560
  0
VERTEX
  8
0
  6
CONTINUOUS
 10
3.384920
 20
3.754960
  0
SEQEND
  8
0
  0
SOLID
  8
0
 62
    15
 10
3.424080
 20
3.739560
 11
3.425840
 21
4.474360
 12
3.454880
 22
3.718880
 13
3.456640
 23
4.453680
  0
POLYLINE
  8
0
  6
CONTINUOUS
 66
     1
 40
0.000000
 41
0.000000
  0
VERTEX
  8
0
  6
CONTINUOUS
 10
3.424080
 20
3.739560
  0
VERTEX
  8
0
  6
CONTINUOUS
 10
3.425840
 20
4.474360
  0
VERTEX
  8
0
  6
CONTINUOUS
 10
3.456640
 20
4.453680
  0
VERTEX
  8
0
  6
CONTINUOUS
 10
3.454880
 20
3.718880
  0
VERTEX
  8
0
  6
CONTINUOUS
 10
3.424080
 20
3.739560
  0
SEQEND
  8
0
  0
SOLID
  8
0
 62
    15
 10
3.454880
 20
3.718880
 11
3.456640
 21
4.453680
 12
3.478200
 22
3.693360
 13
3.479960
 23
4.428160
  0
POLYLINE
  8
0
  6
CONTINUOUS
 66
     1
 40
0.000000
 41
0.000000
  0
VERTEX
  8
0
  6
CONTINUOUS
 10
3.454880
 20
3.718880
  0
VERTEX
  8
0
  6
CONTINUOUS
 10
3.456640
 20
4.453680
  0
VERTEX
  8
0
  6
CONTINUOUS
 10
3.479960
 20
4.428160
  0
VERTEX
  8
0
  6
CONTINUOUS
 10
3.478200
 20
3.693360
  0
VERTEX
  8
0
  6
CONTINUOUS
 10
3.454880
 20
3.718880
  0
SEQEND
  8
0
  0
SOLID
  8
0
 62
    15
 10
3.478200
 20
3.693360
 11
3.479960
 21
4.428160
 12
3.494480
 22
3.663440
 13
3.496240
 23
4.398240
  0
POLYLINE
  8
0
  6
CONTINUOUS
 66
     1
 40
0.000000
 41
0.000000
  0
VERTEX
  8
0
  6
CONTINUOUS
 10
3.478200
 20
3.693360
  0
VERTEX
  8
0
  6
CONTINUOUS
 10
3.479960
 20
4.428160
  0
VERTEX
  8
0
  6
CONTINUOUS
 10
3.496240
 20
4.398240
  0
VERTEX
  8
0
  6
CONTINUOUS
 10
3.494480
 20
3.663440
  0
VERTEX
  8
0
  6
CONTINUOUS
 10
3.478200
 20
3.693360
  0
SEQEND
  8
0
  0
SOLID
  8
0
 62
    15
 10
3.494480
 20
3.663440
 11
3.496240
 21
4.398240
 12
3.504600
 22
3.629560
 13
3.506360
 23
4.364360
  0
POLYLINE
  8
0
  6
CONTINUOUS
 66
     1
 40
0.000000
 41
0.000000
  0
VERTEX
  8
0
  6
CONTINUOUS
 10
3.494480
 20
3.663440
  0
VERTEX
  8
0
  6
CONTINUOUS
 10
3.496240
 20
4.398240
  0
VERTEX
  8
0
  6
CONTINUOUS
 10
3.506360
 20
4.364360
  0
VERTEX
  8
0
  6
CONTINUOUS
 10
3.504600
 20
3.629560
  0
VERTEX
  8
0
  6
CONTINUOUS
 10
3.494480
 20
3.663440
  0
SEQEND
  8
0
  0
SOLID
  8
0
 62
    15
 10
3.504600
 20
3.629560
 11
3.506360
 21
4.364360
 12
3.508560
 22
3.592160
 13
3.510320
 23
4.326960
  0
POLYLINE
  8
0
  6
CONTINUOUS
 66
     1
 40
0.000000
 41
0.000000
  0
VERTEX
  8
0
  6
CONTINUOUS
 10
3.504600
 20
3.629560
  0
VERTEX
  8
0
  6
CONTINUOUS
 10
3.506360
 20
4.364360
  0
VERTEX
  8
0
  6
CONTINUOUS
 10
3.510320
 20
4.326960
  0
VERTEX
  8
0
  6
CONTINUOUS
 10
3.508560
 20
3.592160
  0
VERTEX
  8
0
  6
CONTINUOUS
 10
3.504600
 20
3.629560
  0
SEQEND
  8
0
  0
SOLID
  8
0
 62
    15
 10
3.508560
 20
3.592160
 11
3.510320
 21
4.326960
 12
4.869920
 22
3.592160
 13
4.871680
 23
4.326960
  0
POLYLINE
  8
0
  6
CONTINUOUS
 66
     1
 40
0.000000
 41
0.000000
  0
VERTEX
  8
0
  6
CONTINUOUS
 10
3.508560
 20
3.592160
  0
VERTEX
  8
0
  6
CONTINUOUS
 10
3.510320
 20
4.326960
  0
VERTEX
  8
0
  6
CONTINUOUS
 10
4.871680
 20
4.326960
  0
VERTEX
  8
0
  6
CONTINUOUS
 10
4.869920
 20
3.592160
  0
VERTEX
  8
0
  6
CONTINUOUS
 10
3.508560
 20
3.592160
  0
SEQEND
  8
0
  0
SOLID
  8
0
 62
    15
 10
4.869920
 20
3.592160
 11
4.871680
 21
4.326960
 12
4.891480
 22
3.549920
 13
4.893240
 23
4.284720
  0
POLYLINE
  8
0
  6
CONTINUOUS
 66
     1
 40
0.000000
 41
0.000000
  0
VERTEX
  8
0
  6
CONTINUOUS
 10
4.869920
 20
3.592160
  0
VERTEX
  8
0
  6
CONTINUOUS
 10
4.871680
 20
4.326960
  0
VERTEX
  8
0
  6
CONTINUOUS
 10
4.893240
 20
4.284720
  0
VERTEX
  8
0
  6
CONTINUOUS
 10
4.891480
 20
3.549920
  0
VERTEX
  8
0
  6
CONTINUOUS
 10
4.869920
 20
3.592160
  0
SEQEND
  8
0
  0
SOLID
  8
0
 62
    15
 10
4.891480
 20
3.549920
 11
4.893240
 21
4.284720
 12
4.917000
 22
3.511640
 13
4.918760
 23
4.246880
  0
POLYLINE
  8
0
  6
CONTINUOUS
 66
     1
 40
0.000000
 41
0.000000
  0
VERTEX
  8
0
  6
CONTINUOUS
 10
4.891480
 20
3.549920
  0
VERTEX
  8
0
  6
CONTINUOUS
 10
4.893240
 20
4.284720
  0
VERTEX
  8
0
  6
CONTINUOUS
 10
4.918760
 20
4.246880
  0
VERTEX
  8
0
  6
CONTINUOUS
 10
4.917000
 20
3.511640
  0
VERTEX
  8
0
  6
CONTINUOUS
 10
4.891480
 20
3.549920
  0
SEQEND
  8
0
  0
SOLID
  8
0
 62
    15
 10
4.917000
 20
3.511640
 11
4.918760
 21
4.246880
 12
4.946480
 22
3.477760
 13
4.948240
 23
4.212560
  0
POLYLINE
  8
0
  6
CONTINUOUS
 66
     1
 40
0.000000
 41
0.000000
  0
VERTEX
  8
0
  6
CONTINUOUS
 10
4.917000
 20
3.511640
  0
VERTEX
  8
0
  6
CONTINUOUS
 10
4.918760
 20
4.246880
  0
VERTEX
  8
0
  6
CONTINUOUS
 10
4.948240
 20
4.212560
  0
VERTEX
  8
0
  6
CONTINUOUS
 10
4.946480
 20
3.477760
  0
VERTEX
  8
0
  6
CONTINUOUS
 10
4.917000
 20
3.511640
  0
SEQEND
  8
0
  0
SOLID
  8
0
 62
    15
 10
4.946480
 20
3.477760
 11
4.948240
 21
4.212560
 12
4.979480
 22
3.446960
 13
4.981240
 23
4.181760
  0
POLYLINE
  8
0
  6
CONTINUOUS
 66
     1
 40
0.000000
 41
0.000000
  0
VERTEX
  8
0
  6
CONTINUOUS
 10
4.946480
 20
3.477760
  0
VERTEX
  8
0
  6
CONTINUOUS
 10
4.948240
 20
4.212560
  0
VERTEX
  8
0
  6
CONTINUOUS
 10
4.981240
 20
4.181760
  0
VERTEX
  8
0
  6
CONTINUOUS
 10
4.979480
 20
3.446960
  0
VERTEX
  8
0
  6
CONTINUOUS
 10
4.946480
 20
3.477760
  0
SEQEND
  8
0
  0
SOLID
  8
0
 62
    15
 10
4.979480
 20
3.446960
 11
4.981240
 21
4.181760
 12
5.016440
 22
3.420120
 13
5.018200
 23
4.154920
  0
POLYLINE
  8
0
  6
CONTINUOUS
 66
     1
 40
0.000000
 41
0.000000
  0
VERTEX
  8
0
  6
CONTINUOUS
 10
4.979480
 20
3.446960
  0
VERTEX
  8
0
  6
CONTINUOUS
 10
4.981240
 20
4.181760
  0
VERTEX
  8
0
  6
CONTINUOUS
 10
5.018200
 20
4.154920
  0
VERTEX
  8
0
  6
CONTINUOUS
 10
5.016440
 20
3.420120
  0
VERTEX
  8
0
  6
CONTINUOUS
 10
4.979480
 20
3.446960
  0
SEQEND
  8
0
  0
SOLID
  8
0
 62
    15
 10
5.016440
 20
3.420120
 11
5.018200
 21
4.154920
 12
5.056920
 22
3.395920
 13
5.058680
 23
4.131160
  0
POLYLINE
  8
0
  6
CONTINUOUS
 66
     1
 40
0.000000
 41
0.000000
  0
VERTEX
  8
0
  6
CONTINUOUS
 10
5.016440
 20
3.420120
  0
VERTEX
  8
0
  6
CONTINUOUS
 10
5.018200
 20
4.154920
  0
VERTEX
  8
0
  6
CONTINUOUS
 10
5.058680
 20
4.131160
  0
VERTEX
  8
0
  6
CONTINUOUS
 10
5.056920
 20
3.395920
  0
VERTEX
  8
0
  6
CONTINUOUS
 10
5.016440
 20
3.420120
  0
SEQEND
  8
0
  0
SOLID
  8
0
 62
    15
 10
5.056920
 20
3.395920
 11
5.058680
 21
4.131160
 12
5.100920
 22
3.375240
 13
5.102680
 23
4.110040
  0
POLYLINE
  8
0
  6
CONTINUOUS
 66
     1
 40
0.000000
 41
0.000000
  0
VERTEX
  8
0
  6
CONTINUOUS
 10
5.056920
 20
3.395920
  0
VERTEX
  8
0
  6
CONTINUOUS
 10
5.058680
 20
4.131160
  0
VERTEX
  8
0
  6
CONTINUOUS
 10
5.102680
 20
4.110040
  0
VERTEX
  8
0
  6
CONTINUOUS
 10
5.100920
 20
3.375240
  0
VERTEX
  8
0
  6
CONTINUOUS
 10
5.056920
 20
3.395920
  0
SEQEND
  8
0
  0
SOLID
  8
0
 62
    15
 10
6.045600
 20
3.276680
 11
6.047360
 21
4.011480
 12
6.045600
 22
3.090560
 13
6.047360
 23
3.825360
  0
POLYLINE
  8
0
  6
CONTINUOUS
 66
     1
 40
0.000000
 41
0.000000
  0
VERTEX
  8
0
  6
CONTINUOUS
 10
6.045600
 20
3.276680
  0
VERTEX
  8
0
  6
CONTINUOUS
 10
6.047360
 20
4.011480
  0
VERTEX
  8
0
  6
CONTINUOUS
 10
6.047360
 20
3.825360
  0
VERTEX
  8
0
  6
CONTINUOUS
 10
6.045600
 20
3.090560
  0
VERTEX
  8
0
  6
CONTINUOUS
 10
6.045600
 20
3.276680
  0
SEQEND
  8
0
  0
SOLID
  8
0
 62
    15
 10
5.147560
 20
3.357200
 11
5.149320
 21
4.092000
 12
5.249640
 22
3.328600
 13
5.251400
 23
4.063840
  0
POLYLINE
  8
0
  6
CONTINUOUS
 66
     1
 40
0.000000
 41
0.000000
  0
VERTEX
  8
0
  6
CONTINUOUS
 10
5.147560
 20
3.357200
  0
VERTEX
  8
0
  6
CONTINUOUS
 10
5.149320
 20
4.092000
  0
VERTEX
  8
0
  6
CONTINUOUS
 10
5.251400
 20
4.063840
  0
VERTEX
  8
0
  6
CONTINUOUS
 10
5.249640
 20
3.328600
  0
VERTEX
  8
0
  6
CONTINUOUS
 10
5.147560
 20
3.357200
  0
SEQEND
  8
0
  0
SOLID
  8
0
 62
    15
 10
5.249640
 20
3.328600
 11
5.251400
 21
4.063840
 12
5.361400
 22
3.309240
 13
5.363160
 23
4.044040
  0
POLYLINE
  8
0
  6
CONTINUOUS
 66
     1
 40
0.000000
 41
0.000000
  0
VERTEX
  8
0
  6
CONTINUOUS
 10
5.249640
 20
3.328600
  0
VERTEX
  8
0
  6
CONTINUOUS
 10
5.251400
 20
4.063840
  0
VERTEX
  8
0
  6
CONTINUOUS
 10
5.363160
 20
4.044040
  0
VERTEX
  8
0
  6
CONTINUOUS
 10
5.361400
 20
3.309240
  0
VERTEX
  8
0
  6
CONTINUOUS
 10
5.249640
 20
3.328600
  0
SEQEND
  8
0
  0
SOLID
  8
0
 62
    15
 10
5.361400
 20
3.309240
 11
5.363160
 21
4.044040
 12
5.481960
 22
3.296480
 13
5.483720
 23
4.031720
  0
POLYLINE
  8
0
  6
CONTINUOUS
 66
     1
 40
0.000000
 41
0.000000
  0
VERTEX
  8
0
  6
CONTINUOUS
 10
5.361400
 20
3.309240
  0
VERTEX
  8
0
  6
CONTINUOUS
 10
5.363160
 20
4.044040
  0
VERTEX
  8
0
  6
CONTINUOUS
 10
5.483720
 20
4.031720
  0
VERTEX
  8
0
  6
CONTINUOUS
 10
5.481960
 20
3.296480
  0
VERTEX
  8
0
  6
CONTINUOUS
 10
5.361400
 20
3.309240
  0
SEQEND
  8
0
  0
SOLID
  8
0
 62
    15
 10
5.481960
 20
3.296480
 11
5.483720
 21
4.031720
 12
5.609560
 22
3.289440
 13
5.611320
 23
4.024240
  0
POLYLINE
  8
0
  6
CONTINUOUS
 66
     1
 40
0.000000
 41
0.000000
  0
VERTEX
  8
0
  6
CONTINUOUS
 10
5.481960
 20
3.296480
  0
VERTEX
  8
0
  6
CONTINUOUS
 10
5.483720
 20
4.031720
  0
VERTEX
  8
0
  6
CONTINUOUS
 10
5.611320
 20
4.024240
  0
VERTEX
  8
0
  6
CONTINUOUS
 10
5.609560
 20
3.289440
  0
VERTEX
  8
0
  6
CONTINUOUS
 10
5.481960
 20
3.296480
  0
SEQEND
  8
0
  0
SOLID
  8
0
 62
    15
 10
5.609560
 20
3.289440
 11
5.611320
 21
4.024240
 12
5.616160
 22
3.310560
 13
5.617920
 23
4.045800
  0
POLYLINE
  8
0
  6
CONTINUOUS
 66
     1
 40
0.000000
 41
0.000000
  0
VERTEX
  8
0
  6
CONTINUOUS
 10
5.609560
 20
3.289440
  0
VERTEX
  8
0
  6
CONTINUOUS
 10
5.611320
 20
4.024240
  0
VERTEX
  8
0
  6
CONTINUOUS
 10
5.617920
 20
4.045800
  0
VERTEX
  8
0
  6
CONTINUOUS
 10
5.616160
 20
3.310560
  0
VERTEX
  8
0
  6
CONTINUOUS
 10
5.609560
 20
3.289440
  0
SEQEND
  8
0
  0
SOLID
  8
0
 62
    15
 10
5.616160
 20
3.310560
 11
5.617920
 21
4.045800
 12
5.626720
 22
3.330360
 13
5.628480
 23
4.065160
  0
POLYLINE
  8
0
  6
CONTINUOUS
 66
     1
 40
0.000000
 41
0.000000
  0
VERTEX
  8
0
  6
CONTINUOUS
 10
5.616160
 20
3.310560
  0
VERTEX
  8
0
  6
CONTINUOUS
 10
5.617920
 20
4.045800
  0
VERTEX
  8
0
  6
CONTINUOUS
 10
5.628480
 20
4.065160
  0
VERTEX
  8
0
  6
CONTINUOUS
 10
5.626720
 20
3.330360
  0
VERTEX
  8
0
  6
CONTINUOUS
 10
5.616160
 20
3.310560
  0
SEQEND
  8
0
  0
SOLID
  8
0
 62
    15
 10
5.626720
 20
3.330360
 11
5.628480
 21
4.065160
 12
5.655760
 22
3.362480
 13
5.657520
 23
4.097280
  0
POLYLINE
  8
0
  6
CONTINUOUS
 66
     1
 40
0.000000
 41
0.000000
  0
VERTEX
  8
0
  6
CONTINUOUS
 10
5.626720
 20
3.330360
  0
VERTEX
  8
0
  6
CONTINUOUS
 10
5.628480
 20
4.065160
  0
VERTEX
  8
0
  6
CONTINUOUS
 10
5.657520
 20
4.097280
  0
VERTEX
  8
0
  6
CONTINUOUS
 10
5.655760
 20
3.362480
  0
VERTEX
  8
0
  6
CONTINUOUS
 10
5.626720
 20
3.330360
  0
SEQEND
  8
0
  0
SOLID
  8
0
 62
    15
 10
5.655760
 20
3.362480
 11
5.657520
 21
4.097280
 12
5.693600
 22
3.384040
 13
5.695360
 23
4.118840
  0
POLYLINE
  8
0
  6
CONTINUOUS
 66
     1
 40
0.000000
 41
0.000000
  0
VERTEX
  8
0
  6
CONTINUOUS
 10
5.655760
 20
3.362480
  0
VERTEX
  8
0
  6
CONTINUOUS
 10
5.657520
 20
4.097280
  0
VERTEX
  8
0
  6
CONTINUOUS
 10
5.695360
 20
4.118840
  0
VERTEX
  8
0
  6
CONTINUOUS
 10
5.693600
 20
3.384040
  0
VERTEX
  8
0
  6
CONTINUOUS
 10
5.655760
 20
3.362480
  0
SEQEND
  8
0
  0
SOLID
  8
0
 62
    15
 10
5.693600
 20
3.384040
 11
5.695360
 21
4.118840
 12
5.715160
 22
3.389760
 13
5.716920
 23
4.124560
  0
POLYLINE
  8
0
  6
CONTINUOUS
 66
     1
 40
0.000000
 41
0.000000
  0
VERTEX
  8
0
  6
CONTINUOUS
 10
5.693600
 20
3.384040
  0
VERTEX
  8
0
  6
CONTINUOUS
 10
5.695360
 20
4.118840
  0
VERTEX
  8
0
  6
CONTINUOUS
 10
5.716920
 20
4.124560
  0
VERTEX
  8
0
  6
CONTINUOUS
 10
5.715160
 20
3.389760
  0
VERTEX
  8
0
  6
CONTINUOUS
 10
5.693600
 20
3.384040
  0
SEQEND
  8
0
  0
SOLID
  8
0
 62
    15
 10
5.715160
 20
3.389760
 11
5.716920
 21
4.124560
 12
5.738480
 22
3.391520
 13
5.740240
 23
4.126320
  0
POLYLINE
  8
0
  6
CONTINUOUS
 66
     1
 40
0.000000
 41
0.000000
  0
VERTEX
  8
0
  6
CONTINUOUS
 10
5.715160
 20
3.389760
  0
VERTEX
  8
0
  6
CONTINUOUS
 10
5.716920
 20
4.124560
  0
VERTEX
  8
0
  6
CONTINUOUS
 10
5.740240
 20
4.126320
  0
VERTEX
  8
0
  6
CONTINUOUS
 10
5.738480
 20
3.391520
  0
VERTEX
  8
0
  6
CONTINUOUS
 10
5.715160
 20
3.389760
  0
SEQEND
  8
0
  0
SOLID
  8
0
 62
    15
 10
5.738480
 20
3.391520
 11
5.740240
 21
4.126320
 12
5.762680
 22
3.389320
 13
5.764440
 23
4.124120
  0
POLYLINE
  8
0
  6
CONTINUOUS
 66
     1
 40
0.000000
 41
0.000000
  0
VERTEX
  8
0
  6
CONTINUOUS
 10
5.738480
 20
3.391520
  0
VERTEX
  8
0
  6
CONTINUOUS
 10
5.740240
 20
4.126320
  0
VERTEX
  8
0
  6
CONTINUOUS
 10
5.764440
 20
4.124120
  0
VERTEX
  8
0
  6
CONTINUOUS
 10
5.762680
 20
3.389320
  0
VERTEX
  8
0
  6
CONTINUOUS
 10
5.738480
 20
3.391520
  0
SEQEND
  8
0
  0
SOLID
  8
0
 62
    15
 10
5.762680
 20
3.389320
 11
5.764440
 21
4.124120
 12
5.786000
 22
3.382720
 13
5.787760
 23
4.117520
  0
POLYLINE
  8
0
  6
CONTINUOUS
 66
     1
 40
0.000000
 41
0.000000
  0
VERTEX
  8
0
  6
CONTINUOUS
 10
5.762680
 20
3.389320
  0
VERTEX
  8
0
  6
CONTINUOUS
 10
5.764440
 20
4.124120
  0
VERTEX
  8
0
  6
CONTINUOUS
 10
5.787760
 20
4.117520
  0
VERTEX
  8
0
  6
CONTINUOUS
 10
5.786000
 20
3.382720
  0
VERTEX
  8
0
  6
CONTINUOUS
 10
5.762680
 20
3.389320
  0
SEQEND
  8
0
  0
SOLID
  8
0
 62
    15
 10
5.786000
 20
3.382720
 11
5.787760
 21
4.117520
 12
5.807120
 22
3.372160
 13
5.808880
 23
4.107400
  0
POLYLINE
  8
0
  6
CONTINUOUS
 66
     1
 40
0.000000
 41
0.000000
  0
VERTEX
  8
0
  6
CONTINUOUS
 10
5.786000
 20
3.382720
  0
VERTEX
  8
0
  6
CONTINUOUS
 10
5.787760
 20
4.117520
  0
VERTEX
  8
0
  6
CONTINUOUS
 10
5.808880
 20
4.107400
  0
VERTEX
  8
0
  6
CONTINUOUS
 10
5.807120
 20
3.372160
  0
VERTEX
  8
0
  6
CONTINUOUS
 10
5.786000
 20
3.382720
  0
SEQEND
  8
0
  0
SOLID
  8
0
 62
    15
 10
5.807120
 20
3.372160
 11
5.808880
 21
4.107400
 12
5.826040
 22
3.358520
 13
5.827800
 23
4.093320
  0
POLYLINE
  8
0
  6
CONTINUOUS
 66
     1
 40
0.000000
 41
0.000000
  0
VERTEX
  8
0
  6
CONTINUOUS
 10
5.807120
 20
3.372160
  0
VERTEX
  8
0
  6
CONTINUOUS
 10
5.808880
 20
4.107400
  0
VERTEX
  8
0
  6
CONTINUOUS
 10
5.827800
 20
4.093320
  0
VERTEX
  8
0
  6
CONTINUOUS
 10
5.826040
 20
3.358520
  0
VERTEX
  8
0
  6
CONTINUOUS
 10
5.807120
 20
3.372160
  0
SEQEND
  8
0
  0
SOLID
  8
0
 62
    15
 10
5.826040
 20
3.358520
 11
5.827800
 21
4.093320
 12
5.841880
 22
3.341800
 13
5.843640
 23
4.076600
  0
POLYLINE
  8
0
  6
CONTINUOUS
 66
     1
 40
0.000000
 41
0.000000
  0
VERTEX
  8
0
  6
CONTINUOUS
 10
5.826040
 20
3.358520
  0
VERTEX
  8
0
  6
CONTINUOUS
 10
5.827800
 20
4.093320
  0
VERTEX
  8
0
  6
CONTINUOUS
 10
5.843640
 20
4.076600
  0
VERTEX
  8
0
  6
CONTINUOUS
 10
5.841880
 20
3.341800
  0
VERTEX
  8
0
  6
CONTINUOUS
 10
5.826040
 20
3.358520
  0
SEQEND
  8
0
  0
SOLID
  8
0
 62
    15
 10
5.841880
 20
3.341800
 11
5.843640
 21
4.076600
 12
5.855080
 22
3.322000
 13
5.856840
 23
4.056800
  0
POLYLINE
  8
0
  6
CONTINUOUS
 66
     1
 40
0.000000
 41
0.000000
  0
VERTEX
  8
0
  6
CONTINUOUS
 10
5.841880
 20
3.341800
  0
VERTEX
  8
0
  6
CONTINUOUS
 10
5.843640
 20
4.076600
  0
VERTEX
  8
0
  6
CONTINUOUS
 10
5.856840
 20
4.056800
  0
VERTEX
  8
0
  6
CONTINUOUS
 10
5.855080
 20
3.322000
  0
VERTEX
  8
0
  6
CONTINUOUS
 10
5.841880
 20
3.341800
  0
SEQEND
  8
0
  0
SOLID
  8
0
 62
    15
 10
5.869600
 20
3.276680
 11
5.871360
 21
4.011480
 12
6.046040
 22
3.276680
 13
6.047800
 23
4.011480
  0
POLYLINE
  8
0
  6
CONTINUOUS
 66
     1
 40
0.000000
 41
0.000000
  0
VERTEX
  8
0
  6
CONTINUOUS
 10
5.869600
 20
3.276680
  0
VERTEX
  8
0
  6
CONTINUOUS
 10
5.871360
 20
4.011480
  0
VERTEX
  8
0
  6
CONTINUOUS
 10
6.047800
 20
4.011480
  0
VERTEX
  8
0
  6
CONTINUOUS
 10
6.046040
 20
3.276680
  0
VERTEX
  8
0
  6
CONTINUOUS
 10
5.869600
 20
3.276680
  0
SEQEND
  8
0
  0
SOLID
  8
0
 62
    15
 10
5.864320
 20
3.300440
 11
5.866080
 21
4.035240
 12
5.869600
 22
3.276680
 13
5.871360
 23
4.011480
  0
POLYLINE
  8
0
  6
CONTINUOUS
 66
     1
 40
0.000000
 41
0.000000
  0
VERTEX
  8
0
  6
CONTINUOUS
 10
5.864320
 20
3.300440
  0
VERTEX
  8
0
  6
CONTINUOUS
 10
5.866080
 20
4.035240
  0
VERTEX
  8
0
  6
CONTINUOUS
 10
5.871360
 20
4.011480
  0
VERTEX
  8
0
  6
CONTINUOUS
 10
5.869600
 20
3.276680
  0
VERTEX
  8
0
  6
CONTINUOUS
 10
5.864320
 20
3.300440
  0
SEQEND
  8
0
  0
SOLID
  8
0
 62
    15
 10
5.855080
 20
3.322000
 11
5.856840
 21
4.056800
 12
5.864320
 22
3.300440
 13
5.866080
 23
4.035240
  0
POLYLINE
  8
0
  6
CONTINUOUS
 66
     1
 40
0.000000
 41
0.000000
  0
VERTEX
  8
0
  6
CONTINUOUS
 10
5.855080
 20
3.322000
  0
VERTEX
  8
0
  6
CONTINUOUS
 10
5.856840
 20
4.056800
  0
VERTEX
  8
0
  6
CONTINUOUS
 10
5.866080
 20
4.035240
  0
VERTEX
  8
0
  6
CONTINUOUS
 10
5.864320
 20
3.300440
  0
VERTEX
  8
0
  6
CONTINUOUS
 10
5.855080
 20
3.322000
  0
SEQEND
  8
0
  0
POLYLINE
  8
0
  6
CONTINUOUS
 66
     1
 40
0.000000
 41
0.000000
  0
VERTEX
  8
0
  6
CONTINUOUS
 10
6.045600
 20
3.276680
  0
VERTEX
  8
0
  6
CONTINUOUS
 10
6.045600
 20
3.090560
  0
VERTEX
  8
0
  6
CONTINUOUS
 10
2.535280
 20
3.090560
  0
VERTEX
  8
0
  6
CONTINUOUS
 10
2.535280
 20
3.901040
  0
VERTEX
  8
0
  6
CONTINUOUS
 10
3.278880
 20
3.901040
  0
VERTEX
  8
0
  6
CONTINUOUS
 10
3.278880
 20
3.767280
  0
VERTEX
  8
0
  6
CONTINUOUS
 10
3.336520
 20
3.764200
  0
VERTEX
  8
0
  6
CONTINUOUS
 10
3.384920
 20
3.754960
  0
VERTEX
  8
0
  6
CONTINUOUS
 10
3.424080
 20
3.739560
  0
VERTEX
  8
0
  6
CONTINUOUS
 10
3.454880
 20
3.718880
  0
VERTEX
  8
0
  6
CONTINUOUS
 10
3.478200
 20
3.693360
  0
VERTEX
  8
0
  6
CONTINUOUS
 10
3.494480
 20
3.663440
  0
VERTEX
  8
0
  6
CONTINUOUS
 10
3.504600
 20
3.629560
  0
VERTEX
  8
0
  6
CONTINUOUS
 10
3.508560
 20
3.592160
  0
VERTEX
  8
0
  6
CONTINUOUS
 10
4.869920
 20
3.592160
  0
VERTEX
  8
0
  6
CONTINUOUS
 10
4.891480
 20
3.549920
  0
VERTEX
  8
0
  6
CONTINUOUS
 10
4.917000
 20
3.511640
  0
VERTEX
  8
0
  6
CONTINUOUS
 10
4.946480
 20
3.477760
  0
VERTEX
  8
0
  6
CONTINUOUS
 10
4.979480
 20
3.446960
  0
VERTEX
  8
0
  6
CONTINUOUS
 10
5.016440
 20
3.420120
  0
VERTEX
  8
0
  6
CONTINUOUS
 10
5.056920
 20
3.395920
  0
VERTEX
  8
0
  6
CONTINUOUS
 10
5.100920
 20
3.375240
  0
VERTEX
  8
0
  6
CONTINUOUS
 10
5.147560
 20
3.357200
  0
VERTEX
  8
0
  6
CONTINUOUS
 10
5.249640
 20
3.328600
  0
VERTEX
  8
0
  6
CONTINUOUS
 10
5.361400
 20
3.309240
  0
VERTEX
  8
0
  6
CONTINUOUS
 10
5.481960
 20
3.296480
  0
VERTEX
  8
0
  6
CONTINUOUS
 10
5.609560
 20
3.289440
  0
VERTEX
  8
0
  6
CONTINUOUS
 10
5.616160
 20
3.310560
  0
VERTEX
  8
0
  6
CONTINUOUS
 10
5.626720
 20
3.330360
  0
VERTEX
  8
0
  6
CONTINUOUS
 10
5.655760
 20
3.362480
  0
VERTEX
  8
0
  6
CONTINUOUS
 10
5.693600
 20
3.384040
  0
VERTEX
  8
0
  6
CONTINUOUS
 10
5.715160
 20
3.389760
  0
VERTEX
  8
0
  6
CONTINUOUS
 10
5.738480
 20
3.391520
  0
VERTEX
  8
0
  6
CONTINUOUS
 10
5.762680
 20
3.389320
  0
VERTEX
  8
0
  6
CONTINUOUS
 10
5.786000
 20
3.382720
  0
VERTEX
  8
0
  6
CONTINUOUS
 10
5.807120
 20
3.372160
  0
VERTEX
  8
0
  6
CONTINUOUS
 10
5.826040
 20
3.358520
  0
VERTEX
  8
0
  6
CONTINUOUS
 10
5.841880
 20
3.341800
  0
VERTEX
  8
0
  6
CONTINUOUS
 10
5.855080
 20
3.322000
  0
VERTEX
  8
0
  6
CONTINUOUS
 10
5.864320
 20
3.300440
  0
VERTEX
  8
0
  6
CONTINUOUS
 10
5.869600
 20
3.276680
  0
VERTEX
  8
0
  6
CONTINUOUS
 10
6.046040
 20
3.276680
  0
VERTEX
  8
0
  6
CONTINUOUS
 10
6.045600
 20
3.276680
  0
SEQEND
  8
0
  0
TEXT
  8
0
 10
3.996520
 20
2.873200
 40
0.138078
  1
BA  968
 41
1.000000
  7
SN0
 71
     0
 72
     5
 11
4.586515
 21
2.873200
  0
TEXT
  8
0
 10
3.748360
 20
2.681800
 40
0.138078
  1
13/16" x 3-1/2"
 41
1.000000
  7
SN0
 71
     0
 72
     5
 11
4.833370
 21
2.681800
  0
POLYLINE
  8
0
  6
CONTINUOUS
 66
     1
 40
0.014080
 41
0.014080
  0
VERTEX
  8
0
  6
CONTINUOUS
 10
6.152960
 20
5.111480
  0
VERTEX
  8
0
  6
CONTINUOUS
 10
5.976520
 20
5.111480
  0
VERTEX
  8
0
  6
CONTINUOUS
 10
5.971240
 20
5.134800
  0
VERTEX
  8
0
  6
CONTINUOUS
 10
5.962000
 20
5.156800
  0
VERTEX
  8
0
  6
CONTINUOUS
 10
5.941320
 20
5.184960
  0
VERTEX
  8
0
  6
CONTINUOUS
 10
5.923720
 20
5.200360
  0
VERTEX
  8
0
  6
CONTINUOUS
 10
5.903920
 20
5.212240
  0
VERTEX
  8
0
  6
CONTINUOUS
 10
5.881480
 20
5.221040
  0
VERTEX
  8
0
  6
CONTINUOUS
 10
5.857720
 20
5.225440
  0
VERTEX
  8
0
  6
CONTINUOUS
 10
5.833520
 20
5.225440
  0
VERTEX
  8
0
  6
CONTINUOUS
 10
5.811520
 20
5.221480
  0
VERTEX
  8
0
  6
CONTINUOUS
 10
5.790400
 20
5.214000
  0
VERTEX
  8
0
  6
CONTINUOUS
 10
5.771040
 20
5.203440
  0
VERTEX
  8
0
  6
CONTINUOUS
 10
5.746840
 20
5.182320
  0
VERTEX
  8
0
  6
CONTINUOUS
 10
5.733640
 20
5.164720
  0
VERTEX
  8
0
  6
CONTINUOUS
 10
5.723520
 20
5.145360
  0
VERTEX
  8
0
  6
CONTINUOUS
 10
5.716480
 20
5.124240
  0
VERTEX
  8
0
  6
CONTINUOUS
 10
5.588880
 20
5.131280
  0
VERTEX
  8
0
  6
CONTINUOUS
 10
5.497800
 20
5.140080
  0
VERTEX
  8
0
  6
CONTINUOUS
 10
5.411120
 20
5.152400
  0
VERTEX
  8
0
  6
CONTINUOUS
 10
5.329720
 20
5.169560
  0
VERTEX
  8
0
  6
CONTINUOUS
 10
5.279120
 20
5.183640
  0
VERTEX
  8
0
  6
CONTINUOUS
 10
5.230720
 20
5.200360
  0
VERTEX
  8
0
  6
CONTINUOUS
 10
5.185400
 20
5.219720
  0
VERTEX
  8
0
  6
CONTINUOUS
 10
5.143160
 20
5.242160
  0
VERTEX
  8
0
  6
CONTINUOUS
 10
5.104440
 20
5.267680
  0
VERTEX
  8
0
  6
CONTINUOUS
 10
5.069240
 20
5.296280
  0
VERTEX
  8
0
  6
CONTINUOUS
 10
5.038000
 20
5.328840
  0
VERTEX
  8
0
  6
CONTINUOUS
 10
5.010280
 20
5.364920
  0
VERTEX
  8
0
  6
CONTINUOUS
 10
4.997960
 20
5.384280
  0
VERTEX
  8
0
  6
CONTINUOUS
 10
4.976840
 20
5.426520
  0
VERTEX
  8
0
  6
CONTINUOUS
 10
3.615480
 20
5.426520
  0
VERTEX
  8
0
  6
CONTINUOUS
 10
3.611520
 20
5.463920
  0
VERTEX
  8
0
  6
CONTINUOUS
 10
3.601840
 20
5.497800
  0
VERTEX
  8
0
  6
CONTINUOUS
 10
3.585560
 20
5.528160
  0
VERTEX
  8
0
  6
CONTINUOUS
 10
3.562240
 20
5.553680
  0
VERTEX
  8
0
  6
CONTINUOUS
 10
3.547720
 20
5.564680
  0
VERTEX
  8
0
  6
CONTINUOUS
 10
3.522200
 20
5.578760
  0
VERTEX
  8
0
  6
CONTINUOUS
 10
3.491840
 20
5.589320
  0
VERTEX
  8
0
  6
CONTINUOUS
 10
3.456640
 20
5.597240
  0
VERTEX
  8
0
  6
CONTINUOUS
 10
3.415720
 20
5.601200
  0
VERTEX
  8
0
  6
CONTINUOUS
 10
3.385800
 20
5.602080
  0
VERTEX
  8
0
  6
CONTINUOUS
 10
3.385800
 20
5.735840
  0
VERTEX
  8
0
  6
CONTINUOUS
 10
2.642200
 20
5.735840
  0
VERTEX
  8
0
  6
CONTINUOUS
 10
2.642200
 20
4.925360
  0
VERTEX
  8
0
  6
CONTINUOUS
 10
6.152520
 20
4.925360
  0
VERTEX
  8
0
  6
CONTINUOUS
 10
6.152960
 20
5.111480
  0
SEQEND
  8
0
  0
TEXT
  8
0
 10
4.102560
 20
5.206960
 40
0.138078
  1
BA  968
 41
1.000000
  7
SN0
 71
     0
 72
     5
 11
4.692555
 21
5.206960
  0
TEXT
  8
0
 10
3.854400
 20
5.015120
 40
0.138078
  1
13/16" x 3-1/2"
 41
1.000000
  7
SN0
 71
     0
 72
     5
 11
4.939410
 21
5.015120
  0
ENDSEC
  0
EOF
