  0
SECTION
  2
HEADER
  9
$ACADVER
  1
AC1006
  9
$EXTMIN
 10
3.221680
 20
0.476080
  9
$EXTMAX
 10
7.960480
 20
2.760560
  9
$LTSCALE
 40
0.044000
  9
$PDMODE
 70
    35
  9
$PDSIZE
 40
0.035200
  0
ENDSEC
  0
SECTION
  2
TABLES
  0
TABLE
  2
LTYPE
 70
     9
  0
LTYPE
  2
CONTINUOUS
 70
    64
  3
Solid line
 72
    65
 73
     0
 40
0.000000
  0
LTYPE
  2
DASHED
 70
    64
  3
__ __ __ __ __ __ __ __ __ __ __ __ __ __ __
 72
    65
 73
     2
 40
0.000330
 49
0.000220
 49
-0.000110
  0
LTYPE
  2
HIDDEN
 70
    64
  3
 _ _ _ _ _ _ _ _ _ _ _ _ _ _ _ _ _ _ _ _ _ _
 72
    65
 73
     2
 40
0.000165
 49
0.000110
 49
-0.000055
  0
LTYPE
  2
CENTER
 70
    64
  3
____ _ ____ _ ____ _ ____ _ ____ _ ____ _ ____
 72
    65
 73
     4
 40
0.000880
 49
0.000550
 49
-0.000110
 49
0.000110
 49
-0.000110
  0
LTYPE
  2
PHANTOM
 70
    64
  3
_____ _ _ _____ _ _ _____ _ _ _____ _ _ ____
 72
    65
 73
     6
 40
0.001100
 49
0.000550
 49
-0.000110
 49
0.000110
 49
-0.000110
 49
0.000110
 49
-0.000110
  0
LTYPE
  2
DOT
 70
    64
  3
...............................................
 72
    65
 73
     2
 40
0.000110
 49
0.000000
 49
-0.000110
  0
LTYPE
  2
DASHDOT
 70
    64
  3
__ . __ . __ . __ . __ . __ . __ . __ . __ . __
 72
    65
 73
     4
 40
0.000440
 49
0.000220
 49
-0.000110
 49
0.000000
 49
-0.000110
  0
LTYPE
  2
BORDER
 70
    64
  3
__ __ . __ __ . __ __ . __ __ . __ __ . __ __
 72
    65
 73
     6
 40
0.000770
 49
0.000220
 49
-0.000110
 49
0.000220
 49
-0.000110
 49
0.000000
 49
-0.000110
  0
LTYPE
  2
DIVIDE
 70
    64
  3
__ . . __ . . __ . . __ . . __ . . __ . . __
 72
    65
 73
     6
 40
0.000550
 49
0.000220
 49
-0.000110
 49
0.000000
 49
-0.000110
 49
0.000000
 49
-0.000110
  0
LTYPE
  2
DOTDOT
 70
    64
  3
 . .  . .  . .  . .  . .  . . 
 72
    65
 73
     5
 40
0.000242
 49
-0.000110
 49
0.000000
 49
-0.000110
 49
0.000000
 49
-0.000110
  0
ENDTAB
  0
TABLE
  2
STYLE
 70
     2
  0
STYLE
 70
     0
  2
SN0
 40
0.000000
 41
0.000440
 50
0.000000
 71
     0
 42
0.000000
  3
ROMAND
  0
STYLE
 70
    68
  2
SV0
 40
0.000000
 41
0.000440
 50
0.000000
 71
     0
 42
0.000000
  3
ROMAND
  0
ENDTAB
  0
TABLE
  2
LAYER
 70
     3
  0
LAYER
  2
FOREGROUND
 70
    64
 62
     7
  6
CONTINUOUS
  0
LAYER
  2
BACKGROUND
 70
    65
 62
    -7
  6
CONTINUOUS
  0
LAYER
  2
0
 70
    64
 62
     7
  6
CONTINUOUS
  0
ENDTAB
  0
ENDSEC
  0
SECTION
  2
ENTITIES
  0
POLYLINE
  8
FOREGROUND
  6
CONTINUOUS
 66
     1
 40
0.000000
 41
0.000000
  0
VERTEX
  8
FOREGROUND
  6
CONTINUOUS
 10
0.000000
 20
3.236640
  0
VERTEX
  8
FOREGROUND
  6
CONTINUOUS
 10
8.499920
 20
3.236640
  0
VERTEX
  8
FOREGROUND
  6
CONTINUOUS
 10
8.499920
 20
-7.763360
  0
VERTEX
  8
FOREGROUND
  6
CONTINUOUS
 10
0.000000
 20
-7.763360
  0
VERTEX
  8
FOREGROUND
  6
CONTINUOUS
 10
0.000000
 20
3.236640
  0
SEQEND
  8
0
  0
POLYLINE
  8
FOREGROUND
  6
CONTINUOUS
 66
     1
 40
0.000000
 41
0.000000
  0
VERTEX
  8
FOREGROUND
  6
CONTINUOUS
 10
0.000000
 20
3.236640
  0
VERTEX
  8
FOREGROUND
  6
CONTINUOUS
 10
8.499920
 20
3.236640
  0
VERTEX
  8
FOREGROUND
  6
CONTINUOUS
 10
8.499920
 20
-7.763360
  0
VERTEX
  8
FOREGROUND
  6
CONTINUOUS
 10
0.000000
 20
-7.763360
  0
VERTEX
  8
FOREGROUND
  6
CONTINUOUS
 10
0.000000
 20
3.236640
  0
SEQEND
  8
0
  0
SOLID
  8
0
 62
    15
 10
4.485800
 20
1.960200
 11
4.489320
 21
2.705560
 12
4.573800
 22
1.912240
 13
4.577320
 23
2.657600
  0
POLYLINE
  8
0
  6
CONTINUOUS
 66
     1
 40
0.000000
 41
0.000000
  0
VERTEX
  8
0
  6
CONTINUOUS
 10
4.485800
 20
1.960200
  0
VERTEX
  8
0
  6
CONTINUOUS
 10
4.489320
 20
2.705560
  0
VERTEX
  8
0
  6
CONTINUOUS
 10
4.577320
 20
2.657600
  0
VERTEX
  8
0
  6
CONTINUOUS
 10
4.573800
 20
1.912240
  0
VERTEX
  8
0
  6
CONTINUOUS
 10
4.485800
 20
1.960200
  0
SEQEND
  8
0
  0
SOLID
  8
0
 62
    15
 10
3.833280
 20
2.014760
 11
3.836800
 21
2.760120
 12
3.851760
 22
1.769240
 13
3.855280
 23
2.514600
  0
POLYLINE
  8
0
  6
CONTINUOUS
 66
     1
 40
0.000000
 41
0.000000
  0
VERTEX
  8
0
  6
CONTINUOUS
 10
3.833280
 20
2.014760
  0
VERTEX
  8
0
  6
CONTINUOUS
 10
3.836800
 20
2.760120
  0
VERTEX
  8
0
  6
CONTINUOUS
 10
3.855280
 20
2.514600
  0
VERTEX
  8
0
  6
CONTINUOUS
 10
3.851760
 20
1.769240
  0
VERTEX
  8
0
  6
CONTINUOUS
 10
3.833280
 20
2.014760
  0
SEQEND
  8
0
  0
SOLID
  8
0
 62
    15
 10
3.851760
 20
1.769240
 11
3.855280
 21
2.514600
 12
3.902360
 22
1.769240
 13
3.905880
 23
2.514600
  0
POLYLINE
  8
0
  6
CONTINUOUS
 66
     1
 40
0.000000
 41
0.000000
  0
VERTEX
  8
0
  6
CONTINUOUS
 10
3.851760
 20
1.769240
  0
VERTEX
  8
0
  6
CONTINUOUS
 10
3.855280
 20
2.514600
  0
VERTEX
  8
0
  6
CONTINUOUS
 10
3.905880
 20
2.514600
  0
VERTEX
  8
0
  6
CONTINUOUS
 10
3.902360
 20
1.769240
  0
VERTEX
  8
0
  6
CONTINUOUS
 10
3.851760
 20
1.769240
  0
SEQEND
  8
0
  0
SOLID
  8
0
 62
    15
 10
3.902360
 20
1.769240
 11
3.905880
 21
2.514600
 12
3.938440
 22
1.823800
 13
3.941520
 23
2.569160
  0
POLYLINE
  8
0
  6
CONTINUOUS
 66
     1
 40
0.000000
 41
0.000000
  0
VERTEX
  8
0
  6
CONTINUOUS
 10
3.902360
 20
1.769240
  0
VERTEX
  8
0
  6
CONTINUOUS
 10
3.905880
 20
2.514600
  0
VERTEX
  8
0
  6
CONTINUOUS
 10
3.941520
 20
2.569160
  0
VERTEX
  8
0
  6
CONTINUOUS
 10
3.938440
 20
1.823800
  0
VERTEX
  8
0
  6
CONTINUOUS
 10
3.902360
 20
1.769240
  0
SEQEND
  8
0
  0
SOLID
  8
0
 62
    15
 10
3.938440
 20
1.823800
 11
3.941520
 21
2.569160
 12
3.975400
 22
1.870440
 13
3.978920
 23
2.615800
  0
POLYLINE
  8
0
  6
CONTINUOUS
 66
     1
 40
0.000000
 41
0.000000
  0
VERTEX
  8
0
  6
CONTINUOUS
 10
3.938440
 20
1.823800
  0
VERTEX
  8
0
  6
CONTINUOUS
 10
3.941520
 20
2.569160
  0
VERTEX
  8
0
  6
CONTINUOUS
 10
3.978920
 20
2.615800
  0
VERTEX
  8
0
  6
CONTINUOUS
 10
3.975400
 20
1.870440
  0
VERTEX
  8
0
  6
CONTINUOUS
 10
3.938440
 20
1.823800
  0
SEQEND
  8
0
  0
SOLID
  8
0
 62
    15
 10
3.975400
 20
1.870440
 11
3.978920
 21
2.615800
 12
4.014120
 22
1.910480
 13
4.017640
 23
2.655400
  0
POLYLINE
  8
0
  6
CONTINUOUS
 66
     1
 40
0.000000
 41
0.000000
  0
VERTEX
  8
0
  6
CONTINUOUS
 10
3.975400
 20
1.870440
  0
VERTEX
  8
0
  6
CONTINUOUS
 10
3.978920
 20
2.615800
  0
VERTEX
  8
0
  6
CONTINUOUS
 10
4.017640
 20
2.655400
  0
VERTEX
  8
0
  6
CONTINUOUS
 10
4.014120
 20
1.910480
  0
VERTEX
  8
0
  6
CONTINUOUS
 10
3.975400
 20
1.870440
  0
SEQEND
  8
0
  0
SOLID
  8
0
 62
    15
 10
4.014120
 20
1.910480
 11
4.017640
 21
2.655400
 12
4.053720
 22
1.943040
 13
4.057240
 23
2.688400
  0
POLYLINE
  8
0
  6
CONTINUOUS
 66
     1
 40
0.000000
 41
0.000000
  0
VERTEX
  8
0
  6
CONTINUOUS
 10
4.014120
 20
1.910480
  0
VERTEX
  8
0
  6
CONTINUOUS
 10
4.017640
 20
2.655400
  0
VERTEX
  8
0
  6
CONTINUOUS
 10
4.057240
 20
2.688400
  0
VERTEX
  8
0
  6
CONTINUOUS
 10
4.053720
 20
1.943040
  0
VERTEX
  8
0
  6
CONTINUOUS
 10
4.014120
 20
1.910480
  0
SEQEND
  8
0
  0
SOLID
  8
0
 62
    15
 10
4.053720
 20
1.943040
 11
4.057240
 21
2.688400
 12
4.094640
 22
1.969440
 13
4.098160
 23
2.714800
  0
POLYLINE
  8
0
  6
CONTINUOUS
 66
     1
 40
0.000000
 41
0.000000
  0
VERTEX
  8
0
  6
CONTINUOUS
 10
4.053720
 20
1.943040
  0
VERTEX
  8
0
  6
CONTINUOUS
 10
4.057240
 20
2.688400
  0
VERTEX
  8
0
  6
CONTINUOUS
 10
4.098160
 20
2.714800
  0
VERTEX
  8
0
  6
CONTINUOUS
 10
4.094640
 20
1.969440
  0
VERTEX
  8
0
  6
CONTINUOUS
 10
4.053720
 20
1.943040
  0
SEQEND
  8
0
  0
SOLID
  8
0
 62
    15
 10
4.094640
 20
1.969440
 11
4.098160
 21
2.714800
 12
4.136000
 22
1.989240
 13
4.139520
 23
2.734600
  0
POLYLINE
  8
0
  6
CONTINUOUS
 66
     1
 40
0.000000
 41
0.000000
  0
VERTEX
  8
0
  6
CONTINUOUS
 10
4.094640
 20
1.969440
  0
VERTEX
  8
0
  6
CONTINUOUS
 10
4.098160
 20
2.714800
  0
VERTEX
  8
0
  6
CONTINUOUS
 10
4.139520
 20
2.734600
  0
VERTEX
  8
0
  6
CONTINUOUS
 10
4.136000
 20
1.989240
  0
VERTEX
  8
0
  6
CONTINUOUS
 10
4.094640
 20
1.969440
  0
SEQEND
  8
0
  0
SOLID
  8
0
 62
    15
 10
4.136000
 20
1.989240
 11
4.139520
 21
2.734600
 12
4.178680
 22
2.003320
 13
4.181760
 23
2.748680
  0
POLYLINE
  8
0
  6
CONTINUOUS
 66
     1
 40
0.000000
 41
0.000000
  0
VERTEX
  8
0
  6
CONTINUOUS
 10
4.136000
 20
1.989240
  0
VERTEX
  8
0
  6
CONTINUOUS
 10
4.139520
 20
2.734600
  0
VERTEX
  8
0
  6
CONTINUOUS
 10
4.181760
 20
2.748680
  0
VERTEX
  8
0
  6
CONTINUOUS
 10
4.178680
 20
2.003320
  0
VERTEX
  8
0
  6
CONTINUOUS
 10
4.136000
 20
1.989240
  0
SEQEND
  8
0
  0
SOLID
  8
0
 62
    15
 10
4.178680
 20
2.003320
 11
4.181760
 21
2.748680
 12
4.221360
 22
2.011680
 13
4.224880
 23
2.756600
  0
POLYLINE
  8
0
  6
CONTINUOUS
 66
     1
 40
0.000000
 41
0.000000
  0
VERTEX
  8
0
  6
CONTINUOUS
 10
4.178680
 20
2.003320
  0
VERTEX
  8
0
  6
CONTINUOUS
 10
4.181760
 20
2.748680
  0
VERTEX
  8
0
  6
CONTINUOUS
 10
4.224880
 20
2.756600
  0
VERTEX
  8
0
  6
CONTINUOUS
 10
4.221360
 20
2.011680
  0
VERTEX
  8
0
  6
CONTINUOUS
 10
4.178680
 20
2.003320
  0
SEQEND
  8
0
  0
SOLID
  8
0
 62
    15
 10
4.221360
 20
2.011680
 11
4.224880
 21
2.756600
 12
4.308920
 22
2.012560
 13
4.312000
 23
2.757920
  0
POLYLINE
  8
0
  6
CONTINUOUS
 66
     1
 40
0.000000
 41
0.000000
  0
VERTEX
  8
0
  6
CONTINUOUS
 10
4.221360
 20
2.011680
  0
VERTEX
  8
0
  6
CONTINUOUS
 10
4.224880
 20
2.756600
  0
VERTEX
  8
0
  6
CONTINUOUS
 10
4.312000
 20
2.757920
  0
VERTEX
  8
0
  6
CONTINUOUS
 10
4.308920
 20
2.012560
  0
VERTEX
  8
0
  6
CONTINUOUS
 10
4.221360
 20
2.011680
  0
SEQEND
  8
0
  0
SOLID
  8
0
 62
    15
 10
4.308920
 20
2.012560
 11
4.312000
 21
2.757920
 12
4.397360
 22
1.994520
 13
4.400880
 23
2.739880
  0
POLYLINE
  8
0
  6
CONTINUOUS
 66
     1
 40
0.000000
 41
0.000000
  0
VERTEX
  8
0
  6
CONTINUOUS
 10
4.308920
 20
2.012560
  0
VERTEX
  8
0
  6
CONTINUOUS
 10
4.312000
 20
2.757920
  0
VERTEX
  8
0
  6
CONTINUOUS
 10
4.400880
 20
2.739880
  0
VERTEX
  8
0
  6
CONTINUOUS
 10
4.397360
 20
1.994520
  0
VERTEX
  8
0
  6
CONTINUOUS
 10
4.308920
 20
2.012560
  0
SEQEND
  8
0
  0
SOLID
  8
0
 62
    15
 10
4.397360
 20
1.994520
 11
4.400880
 21
2.739880
 12
4.485800
 22
1.960200
 13
4.489320
 23
2.705560
  0
POLYLINE
  8
0
  6
CONTINUOUS
 66
     1
 40
0.000000
 41
0.000000
  0
VERTEX
  8
0
  6
CONTINUOUS
 10
4.397360
 20
1.994520
  0
VERTEX
  8
0
  6
CONTINUOUS
 10
4.400880
 20
2.739880
  0
VERTEX
  8
0
  6
CONTINUOUS
 10
4.489320
 20
2.705560
  0
VERTEX
  8
0
  6
CONTINUOUS
 10
4.485800
 20
1.960200
  0
VERTEX
  8
0
  6
CONTINUOUS
 10
4.397360
 20
1.994520
  0
SEQEND
  8
0
  0
SOLID
  8
0
 62
    15
 10
3.224320
 20
2.014760
 11
3.227400
 21
2.760120
 12
3.833280
 22
2.014760
 13
3.836800
 23
2.760120
  0
POLYLINE
  8
0
  6
CONTINUOUS
 66
     1
 40
0.000000
 41
0.000000
  0
VERTEX
  8
0
  6
CONTINUOUS
 10
3.224320
 20
2.014760
  0
VERTEX
  8
0
  6
CONTINUOUS
 10
3.227400
 20
2.760120
  0
VERTEX
  8
0
  6
CONTINUOUS
 10
3.836800
 20
2.760120
  0
VERTEX
  8
0
  6
CONTINUOUS
 10
3.833280
 20
2.014760
  0
VERTEX
  8
0
  6
CONTINUOUS
 10
3.224320
 20
2.014760
  0
SEQEND
  8
0
  0
SOLID
  8
0
 62
    15
 10
4.573800
 20
1.912240
 11
4.577320
 21
2.657600
 12
4.660040
 22
1.853280
 13
4.663560
 23
2.598640
  0
POLYLINE
  8
0
  6
CONTINUOUS
 66
     1
 40
0.000000
 41
0.000000
  0
VERTEX
  8
0
  6
CONTINUOUS
 10
4.573800
 20
1.912240
  0
VERTEX
  8
0
  6
CONTINUOUS
 10
4.577320
 20
2.657600
  0
VERTEX
  8
0
  6
CONTINUOUS
 10
4.663560
 20
2.598640
  0
VERTEX
  8
0
  6
CONTINUOUS
 10
4.660040
 20
1.853280
  0
VERTEX
  8
0
  6
CONTINUOUS
 10
4.573800
 20
1.912240
  0
SEQEND
  8
0
  0
SOLID
  8
0
 62
    15
 10
4.660040
 20
1.853280
 11
4.663560
 21
2.598640
 12
4.743640
 22
1.785520
 13
4.746720
 23
2.530880
  0
POLYLINE
  8
0
  6
CONTINUOUS
 66
     1
 40
0.000000
 41
0.000000
  0
VERTEX
  8
0
  6
CONTINUOUS
 10
4.660040
 20
1.853280
  0
VERTEX
  8
0
  6
CONTINUOUS
 10
4.663560
 20
2.598640
  0
VERTEX
  8
0
  6
CONTINUOUS
 10
4.746720
 20
2.530880
  0
VERTEX
  8
0
  6
CONTINUOUS
 10
4.743640
 20
1.785520
  0
VERTEX
  8
0
  6
CONTINUOUS
 10
4.660040
 20
1.853280
  0
SEQEND
  8
0
  0
SOLID
  8
0
 62
    15
 10
4.743640
 20
1.785520
 11
4.746720
 21
2.530880
 12
4.823280
 22
1.711160
 13
4.826360
 23
2.456520
  0
POLYLINE
  8
0
  6
CONTINUOUS
 66
     1
 40
0.000000
 41
0.000000
  0
VERTEX
  8
0
  6
CONTINUOUS
 10
4.743640
 20
1.785520
  0
VERTEX
  8
0
  6
CONTINUOUS
 10
4.746720
 20
2.530880
  0
VERTEX
  8
0
  6
CONTINUOUS
 10
4.826360
 20
2.456520
  0
VERTEX
  8
0
  6
CONTINUOUS
 10
4.823280
 20
1.711160
  0
VERTEX
  8
0
  6
CONTINUOUS
 10
4.743640
 20
1.785520
  0
SEQEND
  8
0
  0
SOLID
  8
0
 62
    15
 10
4.823280
 20
1.711160
 11
4.826360
 21
2.456520
 12
4.898520
 22
1.633720
 13
4.901600
 23
2.379080
  0
POLYLINE
  8
0
  6
CONTINUOUS
 66
     1
 40
0.000000
 41
0.000000
  0
VERTEX
  8
0
  6
CONTINUOUS
 10
4.823280
 20
1.711160
  0
VERTEX
  8
0
  6
CONTINUOUS
 10
4.826360
 20
2.456520
  0
VERTEX
  8
0
  6
CONTINUOUS
 10
4.901600
 20
2.379080
  0
VERTEX
  8
0
  6
CONTINUOUS
 10
4.898520
 20
1.633720
  0
VERTEX
  8
0
  6
CONTINUOUS
 10
4.823280
 20
1.711160
  0
SEQEND
  8
0
  0
SOLID
  8
0
 62
    15
 10
4.898520
 20
1.633720
 11
4.901600
 21
2.379080
 12
4.968040
 22
1.554520
 13
4.971560
 23
2.299880
  0
POLYLINE
  8
0
  6
CONTINUOUS
 66
     1
 40
0.000000
 41
0.000000
  0
VERTEX
  8
0
  6
CONTINUOUS
 10
4.898520
 20
1.633720
  0
VERTEX
  8
0
  6
CONTINUOUS
 10
4.901600
 20
2.379080
  0
VERTEX
  8
0
  6
CONTINUOUS
 10
4.971560
 20
2.299880
  0
VERTEX
  8
0
  6
CONTINUOUS
 10
4.968040
 20
1.554520
  0
VERTEX
  8
0
  6
CONTINUOUS
 10
4.898520
 20
1.633720
  0
SEQEND
  8
0
  0
SOLID
  8
0
 62
    15
 10
4.968040
 20
1.554520
 11
4.971560
 21
2.299880
 12
5.031400
 22
1.477080
 13
5.034480
 23
2.222440
  0
POLYLINE
  8
0
  6
CONTINUOUS
 66
     1
 40
0.000000
 41
0.000000
  0
VERTEX
  8
0
  6
CONTINUOUS
 10
4.968040
 20
1.554520
  0
VERTEX
  8
0
  6
CONTINUOUS
 10
4.971560
 20
2.299880
  0
VERTEX
  8
0
  6
CONTINUOUS
 10
5.034480
 20
2.222440
  0
VERTEX
  8
0
  6
CONTINUOUS
 10
5.031400
 20
1.477080
  0
VERTEX
  8
0
  6
CONTINUOUS
 10
4.968040
 20
1.554520
  0
SEQEND
  8
0
  0
SOLID
  8
0
 62
    15
 10
5.031400
 20
1.477080
 11
5.034480
 21
2.222440
 12
5.086840
 22
1.403600
 13
5.090360
 23
2.148960
  0
POLYLINE
  8
0
  6
CONTINUOUS
 66
     1
 40
0.000000
 41
0.000000
  0
VERTEX
  8
0
  6
CONTINUOUS
 10
5.031400
 20
1.477080
  0
VERTEX
  8
0
  6
CONTINUOUS
 10
5.034480
 20
2.222440
  0
VERTEX
  8
0
  6
CONTINUOUS
 10
5.090360
 20
2.148960
  0
VERTEX
  8
0
  6
CONTINUOUS
 10
5.086840
 20
1.403600
  0
VERTEX
  8
0
  6
CONTINUOUS
 10
5.031400
 20
1.477080
  0
SEQEND
  8
0
  0
SOLID
  8
0
 62
    15
 10
5.086840
 20
1.403600
 11
5.090360
 21
2.148960
 12
5.133920
 22
1.336280
 13
5.137440
 23
2.081640
  0
POLYLINE
  8
0
  6
CONTINUOUS
 66
     1
 40
0.000000
 41
0.000000
  0
VERTEX
  8
0
  6
CONTINUOUS
 10
5.086840
 20
1.403600
  0
VERTEX
  8
0
  6
CONTINUOUS
 10
5.090360
 20
2.148960
  0
VERTEX
  8
0
  6
CONTINUOUS
 10
5.137440
 20
2.081640
  0
VERTEX
  8
0
  6
CONTINUOUS
 10
5.133920
 20
1.336280
  0
VERTEX
  8
0
  6
CONTINUOUS
 10
5.086840
 20
1.403600
  0
SEQEND
  8
0
  0
SOLID
  8
0
 62
    15
 10
5.470080
 20
1.179640
 11
5.473600
 21
1.925000
 12
5.470080
 22
0.954360
 13
5.473600
 23
1.699720
  0
POLYLINE
  8
0
  6
CONTINUOUS
 66
     1
 40
0.000000
 41
0.000000
  0
VERTEX
  8
0
  6
CONTINUOUS
 10
5.470080
 20
1.179640
  0
VERTEX
  8
0
  6
CONTINUOUS
 10
5.473600
 20
1.925000
  0
VERTEX
  8
0
  6
CONTINUOUS
 10
5.473600
 20
1.699720
  0
VERTEX
  8
0
  6
CONTINUOUS
 10
5.470080
 20
0.954360
  0
VERTEX
  8
0
  6
CONTINUOUS
 10
5.470080
 20
1.179640
  0
SEQEND
  8
0
  0
SOLID
  8
0
 62
    15
 10
5.303320
 20
1.179640
 11
5.306840
 21
1.925000
 12
5.470080
 22
1.179640
 13
5.473600
 23
1.925000
  0
POLYLINE
  8
0
  6
CONTINUOUS
 66
     1
 40
0.000000
 41
0.000000
  0
VERTEX
  8
0
  6
CONTINUOUS
 10
5.303320
 20
1.179640
  0
VERTEX
  8
0
  6
CONTINUOUS
 10
5.306840
 20
1.925000
  0
VERTEX
  8
0
  6
CONTINUOUS
 10
5.473600
 20
1.925000
  0
VERTEX
  8
0
  6
CONTINUOUS
 10
5.470080
 20
1.179640
  0
VERTEX
  8
0
  6
CONTINUOUS
 10
5.303320
 20
1.179640
  0
SEQEND
  8
0
  0
SOLID
  8
0
 62
    15
 10
5.293200
 20
1.336280
 11
5.296280
 21
2.081640
 12
5.303320
 22
1.179640
 13
5.306840
 23
1.925000
  0
POLYLINE
  8
0
  6
CONTINUOUS
 66
     1
 40
0.000000
 41
0.000000
  0
VERTEX
  8
0
  6
CONTINUOUS
 10
5.293200
 20
1.336280
  0
VERTEX
  8
0
  6
CONTINUOUS
 10
5.296280
 20
2.081640
  0
VERTEX
  8
0
  6
CONTINUOUS
 10
5.306840
 20
1.925000
  0
VERTEX
  8
0
  6
CONTINUOUS
 10
5.303320
 20
1.179640
  0
VERTEX
  8
0
  6
CONTINUOUS
 10
5.293200
 20
1.336280
  0
SEQEND
  8
0
  0
SOLID
  8
0
 62
    15
 10
5.133920
 20
1.336280
 11
5.137440
 21
2.081640
 12
5.293200
 22
1.336280
 13
5.296280
 23
2.081640
  0
POLYLINE
  8
0
  6
CONTINUOUS
 66
     1
 40
0.000000
 41
0.000000
  0
VERTEX
  8
0
  6
CONTINUOUS
 10
5.133920
 20
1.336280
  0
VERTEX
  8
0
  6
CONTINUOUS
 10
5.137440
 20
2.081640
  0
VERTEX
  8
0
  6
CONTINUOUS
 10
5.296280
 20
2.081640
  0
VERTEX
  8
0
  6
CONTINUOUS
 10
5.293200
 20
1.336280
  0
VERTEX
  8
0
  6
CONTINUOUS
 10
5.133920
 20
1.336280
  0
SEQEND
  8
0
  0
SOLID
  8
0
 62
    15
 10
3.222560
 20
2.014760
 11
3.226080
 21
2.760120
 12
3.224320
 22
2.014760
 13
3.227400
 23
2.760120
  0
POLYLINE
  8
0
  6
CONTINUOUS
 66
     1
 40
0.000000
 41
0.000000
  0
VERTEX
  8
0
  6
CONTINUOUS
 10
3.222560
 20
2.014760
  0
VERTEX
  8
0
  6
CONTINUOUS
 10
3.226080
 20
2.760120
  0
VERTEX
  8
0
  6
CONTINUOUS
 10
3.227400
 20
2.760120
  0
VERTEX
  8
0
  6
CONTINUOUS
 10
3.224320
 20
2.014760
  0
VERTEX
  8
0
  6
CONTINUOUS
 10
3.222560
 20
2.014760
  0
SEQEND
  8
0
  0
POLYLINE
  8
0
  6
CONTINUOUS
 66
     1
 40
0.000000
 41
0.000000
  0
VERTEX
  8
0
  6
CONTINUOUS
 10
3.224320
 20
2.014760
  0
VERTEX
  8
0
  6
CONTINUOUS
 10
3.833280
 20
2.014760
  0
VERTEX
  8
0
  6
CONTINUOUS
 10
3.851760
 20
1.769240
  0
VERTEX
  8
0
  6
CONTINUOUS
 10
3.902360
 20
1.769240
  0
VERTEX
  8
0
  6
CONTINUOUS
 10
3.938440
 20
1.823800
  0
VERTEX
  8
0
  6
CONTINUOUS
 10
3.975400
 20
1.870440
  0
VERTEX
  8
0
  6
CONTINUOUS
 10
4.014120
 20
1.910480
  0
VERTEX
  8
0
  6
CONTINUOUS
 10
4.053720
 20
1.943040
  0
VERTEX
  8
0
  6
CONTINUOUS
 10
4.094640
 20
1.969440
  0
VERTEX
  8
0
  6
CONTINUOUS
 10
4.136000
 20
1.989240
  0
VERTEX
  8
0
  6
CONTINUOUS
 10
4.178680
 20
2.003320
  0
VERTEX
  8
0
  6
CONTINUOUS
 10
4.221360
 20
2.011680
  0
VERTEX
  8
0
  6
CONTINUOUS
 10
4.308920
 20
2.012560
  0
VERTEX
  8
0
  6
CONTINUOUS
 10
4.397360
 20
1.994520
  0
VERTEX
  8
0
  6
CONTINUOUS
 10
4.485800
 20
1.960200
  0
VERTEX
  8
0
  6
CONTINUOUS
 10
4.573800
 20
1.912240
  0
VERTEX
  8
0
  6
CONTINUOUS
 10
4.660040
 20
1.853280
  0
VERTEX
  8
0
  6
CONTINUOUS
 10
4.743640
 20
1.785520
  0
VERTEX
  8
0
  6
CONTINUOUS
 10
4.823280
 20
1.711160
  0
VERTEX
  8
0
  6
CONTINUOUS
 10
4.898520
 20
1.633720
  0
VERTEX
  8
0
  6
CONTINUOUS
 10
4.968040
 20
1.554520
  0
VERTEX
  8
0
  6
CONTINUOUS
 10
5.031400
 20
1.477080
  0
VERTEX
  8
0
  6
CONTINUOUS
 10
5.086840
 20
1.403600
  0
VERTEX
  8
0
  6
CONTINUOUS
 10
5.133920
 20
1.336280
  0
VERTEX
  8
0
  6
CONTINUOUS
 10
5.293200
 20
1.336280
  0
VERTEX
  8
0
  6
CONTINUOUS
 10
5.303320
 20
1.179640
  0
VERTEX
  8
0
  6
CONTINUOUS
 10
5.470080
 20
1.179640
  0
VERTEX
  8
0
  6
CONTINUOUS
 10
5.470080
 20
0.954360
  0
VERTEX
  8
0
  6
CONTINUOUS
 10
3.222560
 20
0.954360
  0
VERTEX
  8
0
  6
CONTINUOUS
 10
3.222560
 20
2.014760
  0
VERTEX
  8
0
  6
CONTINUOUS
 10
3.224320
 20
2.014760
  0
SEQEND
  8
0
  0
TEXT
  8
0
 10
4.052840
 20
0.714120
 40
0.138141
  1
BA  967
 41
1.000000
  7
SN0
 71
     0
 72
     5
 11
4.642821
 21
0.714120
  0
TEXT
  8
0
 10
3.776960
 20
0.522280
 40
0.138141
  1
1-1/16" x 2-1/4"
 41
1.000000
  7
SN0
 71
     0
 72
     5
 11
4.917115
 21
0.522280
  0
POLYLINE
  8
0
  6
CONTINUOUS
 66
     1
 40
0.014080
 41
0.014080
  0
VERTEX
  8
0
  6
CONTINUOUS
 10
5.707240
 20
2.640000
  0
VERTEX
  8
0
  6
CONTINUOUS
 10
6.316640
 20
2.640000
  0
VERTEX
  8
0
  6
CONTINUOUS
 10
6.335120
 20
2.394480
  0
VERTEX
  8
0
  6
CONTINUOUS
 10
6.385720
 20
2.394480
  0
VERTEX
  8
0
  6
CONTINUOUS
 10
6.421800
 20
2.449040
  0
VERTEX
  8
0
  6
CONTINUOUS
 10
6.459200
 20
2.496120
  0
VERTEX
  8
0
  6
CONTINUOUS
 10
6.497480
 20
2.535720
  0
VERTEX
  8
0
  6
CONTINUOUS
 10
6.537520
 20
2.568280
  0
VERTEX
  8
0
  6
CONTINUOUS
 10
6.557320
 20
2.582360
  0
VERTEX
  8
0
  6
CONTINUOUS
 10
6.598680
 20
2.605240
  0
VERTEX
  8
0
  6
CONTINUOUS
 10
6.640480
 20
2.622400
  0
VERTEX
  8
0
  6
CONTINUOUS
 10
6.683160
 20
2.633400
  0
VERTEX
  8
0
  6
CONTINUOUS
 10
6.726280
 20
2.639120
  0
VERTEX
  8
0
  6
CONTINUOUS
 10
6.770280
 20
2.639560
  0
VERTEX
  8
0
  6
CONTINUOUS
 10
6.814280
 20
2.635160
  0
VERTEX
  8
0
  6
CONTINUOUS
 10
6.858280
 20
2.625920
  0
VERTEX
  8
0
  6
CONTINUOUS
 10
6.902720
 20
2.612720
  0
VERTEX
  8
0
  6
CONTINUOUS
 10
6.947160
 20
2.595560
  0
VERTEX
  8
0
  6
CONTINUOUS
 10
6.991160
 20
2.574880
  0
VERTEX
  8
0
  6
CONTINUOUS
 10
7.057160
 20
2.537920
  0
VERTEX
  8
0
  6
CONTINUOUS
 10
7.143400
 20
2.478520
  0
VERTEX
  8
0
  6
CONTINUOUS
 10
7.226560
 20
2.410760
  0
VERTEX
  8
0
  6
CONTINUOUS
 10
7.306200
 20
2.336840
  0
VERTEX
  8
0
  6
CONTINUOUS
 10
7.381440
 20
2.258960
  0
VERTEX
  8
0
  6
CONTINUOUS
 10
7.451400
 20
2.180200
  0
VERTEX
  8
0
  6
CONTINUOUS
 10
7.543360
 20
2.065360
  0
VERTEX
  8
0
  6
CONTINUOUS
 10
7.617280
 20
1.961960
  0
VERTEX
  8
0
  6
CONTINUOUS
 10
7.776120
 20
1.961960
  0
VERTEX
  8
0
  6
CONTINUOUS
 10
7.786680
 20
1.804880
  0
VERTEX
  8
0
  6
CONTINUOUS
 10
7.953440
 20
1.804880
  0
VERTEX
  8
0
  6
CONTINUOUS
 10
7.953440
 20
1.579600
  0
VERTEX
  8
0
  6
CONTINUOUS
 10
5.705920
 20
1.579600
  0
VERTEX
  8
0
  6
CONTINUOUS
 10
5.705920
 20
2.640000
  0
VERTEX
  8
0
  6
CONTINUOUS
 10
5.707240
 20
2.640000
  0
SEQEND
  8
0
  0
TEXT
  8
0
 10
6.534440
 20
1.837440
 40
0.138141
  1
BA  967
 41
1.000000
  7
SN0
 71
     0
 72
     5
 11
7.124421
 21
1.837440
  0
TEXT
  8
0
 10
6.258560
 20
1.646040
 40
0.138141
  1
1-1/16" x 2-1/4"
 41
1.000000
  7
SN0
 71
     0
 72
     5
 11
7.398715
 21
1.646040
  0
ENDSEC
  0
EOF
