  0
SECTION
  2
HEADER
  9
$ACADVER
  1
AC1006
  9
$EXTMIN
 10
2.923360
 20
0.462880
  9
$EXTMAX
 10
7.780520
 20
6.512440
  9
$LTSCALE
 40
0.044000
  9
$PDMODE
 70
    35
  9
$PDSIZE
 40
0.035200
  0
ENDSEC
  0
SECTION
  2
TABLES
  0
TABLE
  2
LTYPE
 70
     9
  0
LTYPE
  2
CONTINUOUS
 70
    64
  3
Solid line
 72
    65
 73
     0
 40
0.000000
  0
LTYPE
  2
DASHED
 70
    64
  3
__ __ __ __ __ __ __ __ __ __ __ __ __ __ __
 72
    65
 73
     2
 40
0.000330
 49
0.000220
 49
-0.000110
  0
LTYPE
  2
HIDDEN
 70
    64
  3
 _ _ _ _ _ _ _ _ _ _ _ _ _ _ _ _ _ _ _ _ _ _
 72
    65
 73
     2
 40
0.000165
 49
0.000110
 49
-0.000055
  0
LTYPE
  2
CENTER
 70
    64
  3
____ _ ____ _ ____ _ ____ _ ____ _ ____ _ ____
 72
    65
 73
     4
 40
0.000880
 49
0.000550
 49
-0.000110
 49
0.000110
 49
-0.000110
  0
LTYPE
  2
PHANTOM
 70
    64
  3
_____ _ _ _____ _ _ _____ _ _ _____ _ _ ____
 72
    65
 73
     6
 40
0.001100
 49
0.000550
 49
-0.000110
 49
0.000110
 49
-0.000110
 49
0.000110
 49
-0.000110
  0
LTYPE
  2
DOT
 70
    64
  3
...............................................
 72
    65
 73
     2
 40
0.000110
 49
0.000000
 49
-0.000110
  0
LTYPE
  2
DASHDOT
 70
    64
  3
__ . __ . __ . __ . __ . __ . __ . __ . __ . __
 72
    65
 73
     4
 40
0.000440
 49
0.000220
 49
-0.000110
 49
0.000000
 49
-0.000110
  0
LTYPE
  2
BORDER
 70
    64
  3
__ __ . __ __ . __ __ . __ __ . __ __ . __ __
 72
    65
 73
     6
 40
0.000770
 49
0.000220
 49
-0.000110
 49
0.000220
 49
-0.000110
 49
0.000000
 49
-0.000110
  0
LTYPE
  2
DIVIDE
 70
    64
  3
__ . . __ . . __ . . __ . . __ . . __ . . __
 72
    65
 73
     6
 40
0.000550
 49
0.000220
 49
-0.000110
 49
0.000000
 49
-0.000110
 49
0.000000
 49
-0.000110
  0
LTYPE
  2
DOTDOT
 70
    64
  3
 . .  . .  . .  . .  . .  . . 
 72
    65
 73
     5
 40
0.000242
 49
-0.000110
 49
0.000000
 49
-0.000110
 49
0.000000
 49
-0.000110
  0
ENDTAB
  0
TABLE
  2
STYLE
 70
     2
  0
STYLE
 70
     0
  2
SN0
 40
0.000000
 41
0.000440
 50
0.000000
 71
     0
 42
0.000000
  3
ROMAND
  0
STYLE
 70
    68
  2
SV0
 40
0.000000
 41
0.000440
 50
0.000000
 71
     0
 42
0.000000
  3
ROMAND
  0
ENDTAB
  0
TABLE
  2
LAYER
 70
     3
  0
LAYER
  2
FOREGROUND
 70
    64
 62
     7
  6
CONTINUOUS
  0
LAYER
  2
BACKGROUND
 70
    65
 62
    -7
  6
CONTINUOUS
  0
LAYER
  2
0
 70
    64
 62
     7
  6
CONTINUOUS
  0
ENDTAB
  0
ENDSEC
  0
SECTION
  2
ENTITIES
  0
POLYLINE
  8
FOREGROUND
  6
CONTINUOUS
 66
     1
 40
0.000000
 41
0.000000
  0
VERTEX
  8
FOREGROUND
  6
CONTINUOUS
 10
0.000000
 20
6.975320
  0
VERTEX
  8
FOREGROUND
  6
CONTINUOUS
 10
8.499920
 20
6.975320
  0
VERTEX
  8
FOREGROUND
  6
CONTINUOUS
 10
8.499920
 20
-4.024680
  0
VERTEX
  8
FOREGROUND
  6
CONTINUOUS
 10
0.000000
 20
-4.024680
  0
VERTEX
  8
FOREGROUND
  6
CONTINUOUS
 10
0.000000
 20
6.975320
  0
SEQEND
  8
0
  0
POLYLINE
  8
FOREGROUND
  6
CONTINUOUS
 66
     1
 40
0.000000
 41
0.000000
  0
VERTEX
  8
FOREGROUND
  6
CONTINUOUS
 10
0.000000
 20
6.975320
  0
VERTEX
  8
FOREGROUND
  6
CONTINUOUS
 10
8.499920
 20
6.975320
  0
VERTEX
  8
FOREGROUND
  6
CONTINUOUS
 10
8.499920
 20
-4.024680
  0
VERTEX
  8
FOREGROUND
  6
CONTINUOUS
 10
0.000000
 20
-4.024680
  0
VERTEX
  8
FOREGROUND
  6
CONTINUOUS
 10
0.000000
 20
6.975320
  0
SEQEND
  8
0
  0
SOLID
  8
0
 62
    15
 10
3.725040
 20
4.073960
 11
4.363920
 21
3.708760
 12
3.792800
 22
3.925680
 13
4.431680
 23
3.560480
  0
POLYLINE
  8
0
  6
CONTINUOUS
 66
     1
 40
0.000000
 41
0.000000
  0
VERTEX
  8
0
  6
CONTINUOUS
 10
3.725040
 20
4.073960
  0
VERTEX
  8
0
  6
CONTINUOUS
 10
4.363920
 20
3.708760
  0
VERTEX
  8
0
  6
CONTINUOUS
 10
4.431680
 20
3.560480
  0
VERTEX
  8
0
  6
CONTINUOUS
 10
3.792800
 20
3.925680
  0
VERTEX
  8
0
  6
CONTINUOUS
 10
3.725040
 20
4.073960
  0
SEQEND
  8
0
  0
SOLID
  8
0
 62
    15
 10
4.386800
 20
5.634640
 11
5.025680
 21
5.269440
 12
4.294840
 22
5.620120
 13
4.933720
 23
5.254920
  0
POLYLINE
  8
0
  6
CONTINUOUS
 66
     1
 40
0.000000
 41
0.000000
  0
VERTEX
  8
0
  6
CONTINUOUS
 10
4.386800
 20
5.634640
  0
VERTEX
  8
0
  6
CONTINUOUS
 10
5.025680
 20
5.269440
  0
VERTEX
  8
0
  6
CONTINUOUS
 10
4.933720
 20
5.254920
  0
VERTEX
  8
0
  6
CONTINUOUS
 10
4.294840
 20
5.620120
  0
VERTEX
  8
0
  6
CONTINUOUS
 10
4.386800
 20
5.634640
  0
SEQEND
  8
0
  0
SOLID
  8
0
 62
    15
 10
4.294840
 20
5.620120
 11
4.933720
 21
5.254920
 12
4.208160
 22
5.599440
 13
4.847040
 23
5.234240
  0
POLYLINE
  8
0
  6
CONTINUOUS
 66
     1
 40
0.000000
 41
0.000000
  0
VERTEX
  8
0
  6
CONTINUOUS
 10
4.294840
 20
5.620120
  0
VERTEX
  8
0
  6
CONTINUOUS
 10
4.933720
 20
5.254920
  0
VERTEX
  8
0
  6
CONTINUOUS
 10
4.847040
 20
5.234240
  0
VERTEX
  8
0
  6
CONTINUOUS
 10
4.208160
 20
5.599440
  0
VERTEX
  8
0
  6
CONTINUOUS
 10
4.294840
 20
5.620120
  0
SEQEND
  8
0
  0
SOLID
  8
0
 62
    15
 10
4.208160
 20
5.599440
 11
4.847040
 21
5.234240
 12
4.126760
 22
5.571720
 13
4.765640
 23
5.206520
  0
POLYLINE
  8
0
  6
CONTINUOUS
 66
     1
 40
0.000000
 41
0.000000
  0
VERTEX
  8
0
  6
CONTINUOUS
 10
4.208160
 20
5.599440
  0
VERTEX
  8
0
  6
CONTINUOUS
 10
4.847040
 20
5.234240
  0
VERTEX
  8
0
  6
CONTINUOUS
 10
4.765640
 20
5.206520
  0
VERTEX
  8
0
  6
CONTINUOUS
 10
4.126760
 20
5.571720
  0
VERTEX
  8
0
  6
CONTINUOUS
 10
4.208160
 20
5.599440
  0
SEQEND
  8
0
  0
SOLID
  8
0
 62
    15
 10
4.126760
 20
5.571720
 11
4.765640
 21
5.206520
 12
4.050640
 22
5.538720
 13
4.689520
 23
5.173520
  0
POLYLINE
  8
0
  6
CONTINUOUS
 66
     1
 40
0.000000
 41
0.000000
  0
VERTEX
  8
0
  6
CONTINUOUS
 10
4.126760
 20
5.571720
  0
VERTEX
  8
0
  6
CONTINUOUS
 10
4.765640
 20
5.206520
  0
VERTEX
  8
0
  6
CONTINUOUS
 10
4.689520
 20
5.173520
  0
VERTEX
  8
0
  6
CONTINUOUS
 10
4.050640
 20
5.538720
  0
VERTEX
  8
0
  6
CONTINUOUS
 10
4.126760
 20
5.571720
  0
SEQEND
  8
0
  0
SOLID
  8
0
 62
    15
 10
4.050640
 20
5.538720
 11
4.689520
 21
5.173520
 12
3.980240
 22
5.499560
 13
4.618680
 23
5.134360
  0
POLYLINE
  8
0
  6
CONTINUOUS
 66
     1
 40
0.000000
 41
0.000000
  0
VERTEX
  8
0
  6
CONTINUOUS
 10
4.050640
 20
5.538720
  0
VERTEX
  8
0
  6
CONTINUOUS
 10
4.689520
 20
5.173520
  0
VERTEX
  8
0
  6
CONTINUOUS
 10
4.618680
 20
5.134360
  0
VERTEX
  8
0
  6
CONTINUOUS
 10
3.980240
 20
5.499560
  0
VERTEX
  8
0
  6
CONTINUOUS
 10
4.050640
 20
5.538720
  0
SEQEND
  8
0
  0
SOLID
  8
0
 62
    15
 10
3.980240
 20
5.499560
 11
4.618680
 21
5.134360
 12
3.855280
 22
5.406280
 13
4.494160
 23
5.041080
  0
POLYLINE
  8
0
  6
CONTINUOUS
 66
     1
 40
0.000000
 41
0.000000
  0
VERTEX
  8
0
  6
CONTINUOUS
 10
3.980240
 20
5.499560
  0
VERTEX
  8
0
  6
CONTINUOUS
 10
4.618680
 20
5.134360
  0
VERTEX
  8
0
  6
CONTINUOUS
 10
4.494160
 20
5.041080
  0
VERTEX
  8
0
  6
CONTINUOUS
 10
3.855280
 20
5.406280
  0
VERTEX
  8
0
  6
CONTINUOUS
 10
3.980240
 20
5.499560
  0
SEQEND
  8
0
  0
SOLID
  8
0
 62
    15
 10
3.855280
 20
5.406280
 11
4.494160
 21
5.041080
 12
3.753200
 22
5.294080
 13
4.392080
 23
4.928880
  0
POLYLINE
  8
0
  6
CONTINUOUS
 66
     1
 40
0.000000
 41
0.000000
  0
VERTEX
  8
0
  6
CONTINUOUS
 10
3.855280
 20
5.406280
  0
VERTEX
  8
0
  6
CONTINUOUS
 10
4.494160
 20
5.041080
  0
VERTEX
  8
0
  6
CONTINUOUS
 10
4.392080
 20
4.928880
  0
VERTEX
  8
0
  6
CONTINUOUS
 10
3.753200
 20
5.294080
  0
VERTEX
  8
0
  6
CONTINUOUS
 10
3.855280
 20
5.406280
  0
SEQEND
  8
0
  0
SOLID
  8
0
 62
    15
 10
3.753200
 20
5.294080
 11
4.392080
 21
4.928880
 12
3.673560
 22
5.166480
 13
4.312440
 23
4.801280
  0
POLYLINE
  8
0
  6
CONTINUOUS
 66
     1
 40
0.000000
 41
0.000000
  0
VERTEX
  8
0
  6
CONTINUOUS
 10
3.753200
 20
5.294080
  0
VERTEX
  8
0
  6
CONTINUOUS
 10
4.392080
 20
4.928880
  0
VERTEX
  8
0
  6
CONTINUOUS
 10
4.312440
 20
4.801280
  0
VERTEX
  8
0
  6
CONTINUOUS
 10
3.673560
 20
5.166480
  0
VERTEX
  8
0
  6
CONTINUOUS
 10
3.753200
 20
5.294080
  0
SEQEND
  8
0
  0
SOLID
  8
0
 62
    15
 10
3.673560
 20
5.166480
 11
4.312440
 21
4.801280
 12
3.617240
 22
5.025680
 13
4.256120
 23
4.660480
  0
POLYLINE
  8
0
  6
CONTINUOUS
 66
     1
 40
0.000000
 41
0.000000
  0
VERTEX
  8
0
  6
CONTINUOUS
 10
3.673560
 20
5.166480
  0
VERTEX
  8
0
  6
CONTINUOUS
 10
4.312440
 20
4.801280
  0
VERTEX
  8
0
  6
CONTINUOUS
 10
4.256120
 20
4.660480
  0
VERTEX
  8
0
  6
CONTINUOUS
 10
3.617240
 20
5.025680
  0
VERTEX
  8
0
  6
CONTINUOUS
 10
3.673560
 20
5.166480
  0
SEQEND
  8
0
  0
SOLID
  8
0
 62
    15
 10
3.617240
 20
5.025680
 11
4.256120
 21
4.660480
 12
3.584680
 22
4.874320
 13
4.223560
 23
4.509120
  0
POLYLINE
  8
0
  6
CONTINUOUS
 66
     1
 40
0.000000
 41
0.000000
  0
VERTEX
  8
0
  6
CONTINUOUS
 10
3.617240
 20
5.025680
  0
VERTEX
  8
0
  6
CONTINUOUS
 10
4.256120
 20
4.660480
  0
VERTEX
  8
0
  6
CONTINUOUS
 10
4.223560
 20
4.509120
  0
VERTEX
  8
0
  6
CONTINUOUS
 10
3.584680
 20
4.874320
  0
VERTEX
  8
0
  6
CONTINUOUS
 10
3.617240
 20
5.025680
  0
SEQEND
  8
0
  0
SOLID
  8
0
 62
    15
 10
3.584680
 20
4.874320
 11
4.223560
 21
4.509120
 12
3.575880
 22
4.715920
 13
4.214760
 23
4.350720
  0
POLYLINE
  8
0
  6
CONTINUOUS
 66
     1
 40
0.000000
 41
0.000000
  0
VERTEX
  8
0
  6
CONTINUOUS
 10
3.584680
 20
4.874320
  0
VERTEX
  8
0
  6
CONTINUOUS
 10
4.223560
 20
4.509120
  0
VERTEX
  8
0
  6
CONTINUOUS
 10
4.214760
 20
4.350720
  0
VERTEX
  8
0
  6
CONTINUOUS
 10
3.575880
 20
4.715920
  0
VERTEX
  8
0
  6
CONTINUOUS
 10
3.584680
 20
4.874320
  0
SEQEND
  8
0
  0
SOLID
  8
0
 62
    15
 10
3.575880
 20
4.715920
 11
4.214760
 21
4.350720
 12
3.588640
 22
4.553560
 13
4.227080
 23
4.188360
  0
POLYLINE
  8
0
  6
CONTINUOUS
 66
     1
 40
0.000000
 41
0.000000
  0
VERTEX
  8
0
  6
CONTINUOUS
 10
3.575880
 20
4.715920
  0
VERTEX
  8
0
  6
CONTINUOUS
 10
4.214760
 20
4.350720
  0
VERTEX
  8
0
  6
CONTINUOUS
 10
4.227080
 20
4.188360
  0
VERTEX
  8
0
  6
CONTINUOUS
 10
3.588640
 20
4.553560
  0
VERTEX
  8
0
  6
CONTINUOUS
 10
3.575880
 20
4.715920
  0
SEQEND
  8
0
  0
SOLID
  8
0
 62
    15
 10
3.588640
 20
4.553560
 11
4.227080
 21
4.188360
 12
3.619440
 22
4.390760
 13
4.258320
 23
4.025560
  0
POLYLINE
  8
0
  6
CONTINUOUS
 66
     1
 40
0.000000
 41
0.000000
  0
VERTEX
  8
0
  6
CONTINUOUS
 10
3.588640
 20
4.553560
  0
VERTEX
  8
0
  6
CONTINUOUS
 10
4.227080
 20
4.188360
  0
VERTEX
  8
0
  6
CONTINUOUS
 10
4.258320
 20
4.025560
  0
VERTEX
  8
0
  6
CONTINUOUS
 10
3.619440
 20
4.390760
  0
VERTEX
  8
0
  6
CONTINUOUS
 10
3.588640
 20
4.553560
  0
SEQEND
  8
0
  0
SOLID
  8
0
 62
    15
 10
3.619440
 20
4.390760
 11
4.258320
 21
4.025560
 12
3.666080
 22
4.229720
 13
4.304960
 23
3.864520
  0
POLYLINE
  8
0
  6
CONTINUOUS
 66
     1
 40
0.000000
 41
0.000000
  0
VERTEX
  8
0
  6
CONTINUOUS
 10
3.619440
 20
4.390760
  0
VERTEX
  8
0
  6
CONTINUOUS
 10
4.258320
 20
4.025560
  0
VERTEX
  8
0
  6
CONTINUOUS
 10
4.304960
 20
3.864520
  0
VERTEX
  8
0
  6
CONTINUOUS
 10
3.666080
 20
4.229720
  0
VERTEX
  8
0
  6
CONTINUOUS
 10
3.619440
 20
4.390760
  0
SEQEND
  8
0
  0
SOLID
  8
0
 62
    15
 10
3.666080
 20
4.229720
 11
4.304960
 21
3.864520
 12
3.725040
 22
4.073960
 13
4.363920
 23
3.708760
  0
POLYLINE
  8
0
  6
CONTINUOUS
 66
     1
 40
0.000000
 41
0.000000
  0
VERTEX
  8
0
  6
CONTINUOUS
 10
3.666080
 20
4.229720
  0
VERTEX
  8
0
  6
CONTINUOUS
 10
4.304960
 20
3.864520
  0
VERTEX
  8
0
  6
CONTINUOUS
 10
4.363920
 20
3.708760
  0
VERTEX
  8
0
  6
CONTINUOUS
 10
3.725040
 20
4.073960
  0
VERTEX
  8
0
  6
CONTINUOUS
 10
3.666080
 20
4.229720
  0
SEQEND
  8
0
  0
SOLID
  8
0
 62
    15
 10
4.484040
 20
5.642120
 11
5.122920
 21
5.276920
 12
4.386800
 22
5.634640
 13
5.025680
 23
5.269440
  0
POLYLINE
  8
0
  6
CONTINUOUS
 66
     1
 40
0.000000
 41
0.000000
  0
VERTEX
  8
0
  6
CONTINUOUS
 10
4.484040
 20
5.642120
  0
VERTEX
  8
0
  6
CONTINUOUS
 10
5.122920
 20
5.276920
  0
VERTEX
  8
0
  6
CONTINUOUS
 10
5.025680
 20
5.269440
  0
VERTEX
  8
0
  6
CONTINUOUS
 10
4.386800
 20
5.634640
  0
VERTEX
  8
0
  6
CONTINUOUS
 10
4.484040
 20
5.642120
  0
SEQEND
  8
0
  0
SOLID
  8
0
 62
    15
 10
3.792800
 20
3.925680
 11
4.431680
 21
3.560480
 12
3.867160
 22
3.787960
 13
4.506040
 23
3.422760
  0
POLYLINE
  8
0
  6
CONTINUOUS
 66
     1
 40
0.000000
 41
0.000000
  0
VERTEX
  8
0
  6
CONTINUOUS
 10
3.792800
 20
3.925680
  0
VERTEX
  8
0
  6
CONTINUOUS
 10
4.431680
 20
3.560480
  0
VERTEX
  8
0
  6
CONTINUOUS
 10
4.506040
 20
3.422760
  0
VERTEX
  8
0
  6
CONTINUOUS
 10
3.867160
 20
3.787960
  0
VERTEX
  8
0
  6
CONTINUOUS
 10
3.792800
 20
3.925680
  0
SEQEND
  8
0
  0
SOLID
  8
0
 62
    15
 10
3.867160
 20
3.787960
 11
4.506040
 21
3.422760
 12
3.944600
 22
3.663440
 13
4.583480
 23
3.298240
  0
POLYLINE
  8
0
  6
CONTINUOUS
 66
     1
 40
0.000000
 41
0.000000
  0
VERTEX
  8
0
  6
CONTINUOUS
 10
3.867160
 20
3.787960
  0
VERTEX
  8
0
  6
CONTINUOUS
 10
4.506040
 20
3.422760
  0
VERTEX
  8
0
  6
CONTINUOUS
 10
4.583480
 20
3.298240
  0
VERTEX
  8
0
  6
CONTINUOUS
 10
3.944600
 20
3.663440
  0
VERTEX
  8
0
  6
CONTINUOUS
 10
3.867160
 20
3.787960
  0
SEQEND
  8
0
  0
SOLID
  8
0
 62
    15
 10
3.944600
 20
3.663440
 11
4.583480
 21
3.298240
 12
4.026880
 22
3.541120
 13
4.665760
 23
3.175480
  0
POLYLINE
  8
0
  6
CONTINUOUS
 66
     1
 40
0.000000
 41
0.000000
  0
VERTEX
  8
0
  6
CONTINUOUS
 10
3.944600
 20
3.663440
  0
VERTEX
  8
0
  6
CONTINUOUS
 10
4.583480
 20
3.298240
  0
VERTEX
  8
0
  6
CONTINUOUS
 10
4.665760
 20
3.175480
  0
VERTEX
  8
0
  6
CONTINUOUS
 10
4.026880
 20
3.541120
  0
VERTEX
  8
0
  6
CONTINUOUS
 10
3.944600
 20
3.663440
  0
SEQEND
  8
0
  0
SOLID
  8
0
 62
    15
 10
4.026880
 20
3.541120
 11
4.665760
 21
3.175480
 12
4.115320
 22
3.406480
 13
4.754200
 23
3.041280
  0
POLYLINE
  8
0
  6
CONTINUOUS
 66
     1
 40
0.000000
 41
0.000000
  0
VERTEX
  8
0
  6
CONTINUOUS
 10
4.026880
 20
3.541120
  0
VERTEX
  8
0
  6
CONTINUOUS
 10
4.665760
 20
3.175480
  0
VERTEX
  8
0
  6
CONTINUOUS
 10
4.754200
 20
3.041280
  0
VERTEX
  8
0
  6
CONTINUOUS
 10
4.115320
 20
3.406480
  0
VERTEX
  8
0
  6
CONTINUOUS
 10
4.026880
 20
3.541120
  0
SEQEND
  8
0
  0
SOLID
  8
0
 62
    15
 10
4.115320
 20
3.406480
 11
4.754200
 21
3.041280
 12
4.204200
 22
3.259960
 13
4.843080
 23
2.894760
  0
POLYLINE
  8
0
  6
CONTINUOUS
 66
     1
 40
0.000000
 41
0.000000
  0
VERTEX
  8
0
  6
CONTINUOUS
 10
4.115320
 20
3.406480
  0
VERTEX
  8
0
  6
CONTINUOUS
 10
4.754200
 20
3.041280
  0
VERTEX
  8
0
  6
CONTINUOUS
 10
4.843080
 20
2.894760
  0
VERTEX
  8
0
  6
CONTINUOUS
 10
4.204200
 20
3.259960
  0
VERTEX
  8
0
  6
CONTINUOUS
 10
4.115320
 20
3.406480
  0
SEQEND
  8
0
  0
SOLID
  8
0
 62
    15
 10
4.204200
 20
3.259960
 11
4.843080
 21
2.894760
 12
4.288680
 22
3.101560
 13
4.927560
 23
2.736360
  0
POLYLINE
  8
0
  6
CONTINUOUS
 66
     1
 40
0.000000
 41
0.000000
  0
VERTEX
  8
0
  6
CONTINUOUS
 10
4.204200
 20
3.259960
  0
VERTEX
  8
0
  6
CONTINUOUS
 10
4.843080
 20
2.894760
  0
VERTEX
  8
0
  6
CONTINUOUS
 10
4.927560
 20
2.736360
  0
VERTEX
  8
0
  6
CONTINUOUS
 10
4.288680
 20
3.101560
  0
VERTEX
  8
0
  6
CONTINUOUS
 10
4.204200
 20
3.259960
  0
SEQEND
  8
0
  0
SOLID
  8
0
 62
    15
 10
4.288680
 20
3.101560
 11
4.927560
 21
2.736360
 12
4.363480
 22
2.930400
 13
5.002360
 23
2.565200
  0
POLYLINE
  8
0
  6
CONTINUOUS
 66
     1
 40
0.000000
 41
0.000000
  0
VERTEX
  8
0
  6
CONTINUOUS
 10
4.288680
 20
3.101560
  0
VERTEX
  8
0
  6
CONTINUOUS
 10
4.927560
 20
2.736360
  0
VERTEX
  8
0
  6
CONTINUOUS
 10
5.002360
 20
2.565200
  0
VERTEX
  8
0
  6
CONTINUOUS
 10
4.363480
 20
2.930400
  0
VERTEX
  8
0
  6
CONTINUOUS
 10
4.288680
 20
3.101560
  0
SEQEND
  8
0
  0
SOLID
  8
0
 62
    15
 10
4.363480
 20
2.930400
 11
5.002360
 21
2.565200
 12
4.423320
 22
2.746920
 13
5.062200
 23
2.381720
  0
POLYLINE
  8
0
  6
CONTINUOUS
 66
     1
 40
0.000000
 41
0.000000
  0
VERTEX
  8
0
  6
CONTINUOUS
 10
4.363480
 20
2.930400
  0
VERTEX
  8
0
  6
CONTINUOUS
 10
5.002360
 20
2.565200
  0
VERTEX
  8
0
  6
CONTINUOUS
 10
5.062200
 20
2.381720
  0
VERTEX
  8
0
  6
CONTINUOUS
 10
4.423320
 20
2.746920
  0
VERTEX
  8
0
  6
CONTINUOUS
 10
4.363480
 20
2.930400
  0
SEQEND
  8
0
  0
SOLID
  8
0
 62
    15
 10
4.423320
 20
2.746920
 11
5.062200
 21
2.381720
 12
4.462920
 22
2.551120
 13
5.101800
 23
2.185920
  0
POLYLINE
  8
0
  6
CONTINUOUS
 66
     1
 40
0.000000
 41
0.000000
  0
VERTEX
  8
0
  6
CONTINUOUS
 10
4.423320
 20
2.746920
  0
VERTEX
  8
0
  6
CONTINUOUS
 10
5.062200
 20
2.381720
  0
VERTEX
  8
0
  6
CONTINUOUS
 10
5.101800
 20
2.185920
  0
VERTEX
  8
0
  6
CONTINUOUS
 10
4.462920
 20
2.551120
  0
VERTEX
  8
0
  6
CONTINUOUS
 10
4.423320
 20
2.746920
  0
SEQEND
  8
0
  0
SOLID
  8
0
 62
    15
 10
4.462920
 20
2.551120
 11
5.101800
 21
2.185920
 12
4.473480
 22
2.448160
 13
5.112360
 23
2.082960
  0
POLYLINE
  8
0
  6
CONTINUOUS
 66
     1
 40
0.000000
 41
0.000000
  0
VERTEX
  8
0
  6
CONTINUOUS
 10
4.462920
 20
2.551120
  0
VERTEX
  8
0
  6
CONTINUOUS
 10
5.101800
 20
2.185920
  0
VERTEX
  8
0
  6
CONTINUOUS
 10
5.112360
 20
2.082960
  0
VERTEX
  8
0
  6
CONTINUOUS
 10
4.473480
 20
2.448160
  0
VERTEX
  8
0
  6
CONTINUOUS
 10
4.462920
 20
2.551120
  0
SEQEND
  8
0
  0
SOLID
  8
0
 62
    15
 10
4.473480
 20
2.448160
 11
5.112360
 21
2.082960
 12
4.477440
 22
2.342120
 13
5.116320
 23
1.976920
  0
POLYLINE
  8
0
  6
CONTINUOUS
 66
     1
 40
0.000000
 41
0.000000
  0
VERTEX
  8
0
  6
CONTINUOUS
 10
4.473480
 20
2.448160
  0
VERTEX
  8
0
  6
CONTINUOUS
 10
5.112360
 20
2.082960
  0
VERTEX
  8
0
  6
CONTINUOUS
 10
5.116320
 20
1.976920
  0
VERTEX
  8
0
  6
CONTINUOUS
 10
4.477440
 20
2.342120
  0
VERTEX
  8
0
  6
CONTINUOUS
 10
4.473480
 20
2.448160
  0
SEQEND
  8
0
  0
SOLID
  8
0
 62
    15
 10
4.477440
 20
1.344200
 11
5.116320
 21
0.979000
 12
2.923800
 22
1.344200
 13
3.562680
 23
0.979000
  0
POLYLINE
  8
0
  6
CONTINUOUS
 66
     1
 40
0.000000
 41
0.000000
  0
VERTEX
  8
0
  6
CONTINUOUS
 10
4.477440
 20
1.344200
  0
VERTEX
  8
0
  6
CONTINUOUS
 10
5.116320
 20
0.979000
  0
VERTEX
  8
0
  6
CONTINUOUS
 10
3.562680
 20
0.979000
  0
VERTEX
  8
0
  6
CONTINUOUS
 10
2.923800
 20
1.344200
  0
VERTEX
  8
0
  6
CONTINUOUS
 10
4.477440
 20
1.344200
  0
SEQEND
  8
0
  0
SOLID
  8
0
 62
    15
 10
4.477440
 20
2.342120
 11
5.116320
 21
1.976920
 12
4.477440
 22
1.344200
 13
5.116320
 23
0.979000
  0
POLYLINE
  8
0
  6
CONTINUOUS
 66
     1
 40
0.000000
 41
0.000000
  0
VERTEX
  8
0
  6
CONTINUOUS
 10
4.477440
 20
2.342120
  0
VERTEX
  8
0
  6
CONTINUOUS
 10
5.116320
 20
1.976920
  0
VERTEX
  8
0
  6
CONTINUOUS
 10
5.116320
 20
0.979000
  0
VERTEX
  8
0
  6
CONTINUOUS
 10
4.477440
 20
1.344200
  0
VERTEX
  8
0
  6
CONTINUOUS
 10
4.477440
 20
2.342120
  0
SEQEND
  8
0
  0
SOLID
  8
0
 62
    15
 10
4.484040
 20
6.511560
 11
5.122920
 21
6.146360
 12
4.484040
 22
5.643440
 13
5.122920
 23
5.278240
  0
POLYLINE
  8
0
  6
CONTINUOUS
 66
     1
 40
0.000000
 41
0.000000
  0
VERTEX
  8
0
  6
CONTINUOUS
 10
4.484040
 20
6.511560
  0
VERTEX
  8
0
  6
CONTINUOUS
 10
5.122920
 20
6.146360
  0
VERTEX
  8
0
  6
CONTINUOUS
 10
5.122920
 20
5.278240
  0
VERTEX
  8
0
  6
CONTINUOUS
 10
4.484040
 20
5.643440
  0
VERTEX
  8
0
  6
CONTINUOUS
 10
4.484040
 20
6.511560
  0
SEQEND
  8
0
  0
SOLID
  8
0
 62
    15
 10
4.484040
 20
5.643440
 11
5.122920
 21
5.278240
 12
4.484040
 22
5.642120
 13
5.122920
 23
5.276920
  0
POLYLINE
  8
0
  6
CONTINUOUS
 66
     1
 40
0.000000
 41
0.000000
  0
VERTEX
  8
0
  6
CONTINUOUS
 10
4.484040
 20
5.643440
  0
VERTEX
  8
0
  6
CONTINUOUS
 10
5.122920
 20
5.278240
  0
VERTEX
  8
0
  6
CONTINUOUS
 10
5.122920
 20
5.276920
  0
VERTEX
  8
0
  6
CONTINUOUS
 10
4.484040
 20
5.642120
  0
VERTEX
  8
0
  6
CONTINUOUS
 10
4.484040
 20
5.643440
  0
SEQEND
  8
0
  0
POLYLINE
  8
0
  6
CONTINUOUS
 66
     1
 40
0.000000
 41
0.000000
  0
VERTEX
  8
0
  6
CONTINUOUS
 10
4.484040
 20
5.642120
  0
VERTEX
  8
0
  6
CONTINUOUS
 10
4.386800
 20
5.634640
  0
VERTEX
  8
0
  6
CONTINUOUS
 10
4.294840
 20
5.620120
  0
VERTEX
  8
0
  6
CONTINUOUS
 10
4.208160
 20
5.599440
  0
VERTEX
  8
0
  6
CONTINUOUS
 10
4.126760
 20
5.571720
  0
VERTEX
  8
0
  6
CONTINUOUS
 10
4.050640
 20
5.538720
  0
VERTEX
  8
0
  6
CONTINUOUS
 10
3.980240
 20
5.499560
  0
VERTEX
  8
0
  6
CONTINUOUS
 10
3.855280
 20
5.406280
  0
VERTEX
  8
0
  6
CONTINUOUS
 10
3.753200
 20
5.294080
  0
VERTEX
  8
0
  6
CONTINUOUS
 10
3.673560
 20
5.166480
  0
VERTEX
  8
0
  6
CONTINUOUS
 10
3.617240
 20
5.025680
  0
VERTEX
  8
0
  6
CONTINUOUS
 10
3.584680
 20
4.874320
  0
VERTEX
  8
0
  6
CONTINUOUS
 10
3.575880
 20
4.715920
  0
VERTEX
  8
0
  6
CONTINUOUS
 10
3.588640
 20
4.553560
  0
VERTEX
  8
0
  6
CONTINUOUS
 10
3.619440
 20
4.390760
  0
VERTEX
  8
0
  6
CONTINUOUS
 10
3.666080
 20
4.229720
  0
VERTEX
  8
0
  6
CONTINUOUS
 10
3.725040
 20
4.073960
  0
VERTEX
  8
0
  6
CONTINUOUS
 10
3.792800
 20
3.925680
  0
VERTEX
  8
0
  6
CONTINUOUS
 10
3.867160
 20
3.787960
  0
VERTEX
  8
0
  6
CONTINUOUS
 10
3.944600
 20
3.663440
  0
VERTEX
  8
0
  6
CONTINUOUS
 10
4.026880
 20
3.541120
  0
VERTEX
  8
0
  6
CONTINUOUS
 10
4.115320
 20
3.406480
  0
VERTEX
  8
0
  6
CONTINUOUS
 10
4.204200
 20
3.259960
  0
VERTEX
  8
0
  6
CONTINUOUS
 10
4.288680
 20
3.101560
  0
VERTEX
  8
0
  6
CONTINUOUS
 10
4.363480
 20
2.930400
  0
VERTEX
  8
0
  6
CONTINUOUS
 10
4.423320
 20
2.746920
  0
VERTEX
  8
0
  6
CONTINUOUS
 10
4.462920
 20
2.551120
  0
VERTEX
  8
0
  6
CONTINUOUS
 10
4.473480
 20
2.448160
  0
VERTEX
  8
0
  6
CONTINUOUS
 10
4.477440
 20
2.342120
  0
VERTEX
  8
0
  6
CONTINUOUS
 10
4.477440
 20
1.344200
  0
VERTEX
  8
0
  6
CONTINUOUS
 10
2.923800
 20
1.344200
  0
VERTEX
  8
0
  6
CONTINUOUS
 10
2.923800
 20
6.511560
  0
VERTEX
  8
0
  6
CONTINUOUS
 10
4.484040
 20
6.511560
  0
VERTEX
  8
0
  6
CONTINUOUS
 10
4.484040
 20
5.643440
  0
VERTEX
  8
0
  6
CONTINUOUS
 10
4.484040
 20
5.642120
  0
SEQEND
  8
0
  0
TEXT
  8
0
 10
3.728560
 20
0.700920
 40
0.138086
  1
BA  965
 41
1.000000
  7
SN0
 71
     0
 72
     5
 11
4.318997
 21
0.700920
  0
TEXT
  8
0
 10
3.406480
 20
0.509080
 40
0.138086
  1
1-9/16" x 5-3/16"
 41
1.000000
  7
SN0
 71
     0
 72
     5
 11
4.639078
 21
0.509080
  0
POLYLINE
  8
0
  6
CONTINUOUS
 66
     1
 40
0.014080
 41
0.014080
  0
VERTEX
  8
0
  6
CONTINUOUS
 10
7.773480
 20
5.555000
  0
VERTEX
  8
0
  6
CONTINUOUS
 10
7.724200
 20
5.552360
  0
VERTEX
  8
0
  6
CONTINUOUS
 10
7.629600
 20
5.541360
  0
VERTEX
  8
0
  6
CONTINUOUS
 10
7.539840
 20
5.523320
  0
VERTEX
  8
0
  6
CONTINUOUS
 10
7.455800
 20
5.499120
  0
VERTEX
  8
0
  6
CONTINUOUS
 10
7.377040
 20
5.468760
  0
VERTEX
  8
0
  6
CONTINUOUS
 10
7.304000
 20
5.432680
  0
VERTEX
  8
0
  6
CONTINUOUS
 10
7.235800
 20
5.390880
  0
VERTEX
  8
0
  6
CONTINUOUS
 10
7.173760
 20
5.344240
  0
VERTEX
  8
0
  6
CONTINUOUS
 10
7.117000
 20
5.292760
  0
VERTEX
  8
0
  6
CONTINUOUS
 10
7.065520
 20
5.236440
  0
VERTEX
  8
0
  6
CONTINUOUS
 10
7.020200
 20
5.176600
  0
VERTEX
  8
0
  6
CONTINUOUS
 10
6.999520
 20
5.144920
  0
VERTEX
  8
0
  6
CONTINUOUS
 10
6.962560
 20
5.079360
  0
VERTEX
  8
0
  6
CONTINUOUS
 10
6.946280
 20
5.045040
  0
VERTEX
  8
0
  6
CONTINUOUS
 10
6.918120
 20
4.974640
  0
VERTEX
  8
0
  6
CONTINUOUS
 10
6.906240
 20
4.938560
  0
VERTEX
  8
0
  6
CONTINUOUS
 10
6.886880
 20
4.863760
  0
VERTEX
  8
0
  6
CONTINUOUS
 10
6.873680
 20
4.787200
  0
VERTEX
  8
0
  6
CONTINUOUS
 10
6.866200
 20
4.708440
  0
VERTEX
  8
0
  6
CONTINUOUS
 10
6.864880
 20
4.628800
  0
VERTEX
  8
0
  6
CONTINUOUS
 10
6.868840
 20
4.548280
  0
VERTEX
  8
0
  6
CONTINUOUS
 10
6.872360
 20
4.507360
  0
VERTEX
  8
0
  6
CONTINUOUS
 10
6.883800
 20
4.425960
  0
VERTEX
  8
0
  6
CONTINUOUS
 10
6.899200
 20
4.344560
  0
VERTEX
  8
0
  6
CONTINUOUS
 10
6.919000
 20
4.263160
  0
VERTEX
  8
0
  6
CONTINUOUS
 10
6.942320
 20
4.183080
  0
VERTEX
  8
0
  6
CONTINUOUS
 10
6.968720
 20
4.103440
  0
VERTEX
  8
0
  6
CONTINUOUS
 10
7.014040
 20
3.986840
  0
VERTEX
  8
0
  6
CONTINUOUS
 10
7.064200
 20
3.874640
  0
VERTEX
  8
0
  6
CONTINUOUS
 10
7.118760
 20
3.768160
  0
VERTEX
  8
0
  6
CONTINUOUS
 10
7.175520
 20
3.668280
  0
VERTEX
  8
0
  6
CONTINUOUS
 10
7.253400
 20
3.546840
  0
VERTEX
  8
0
  6
CONTINUOUS
 10
7.382320
 20
3.354120
  0
VERTEX
  8
0
  6
CONTINUOUS
 10
7.471640
 20
3.210680
  0
VERTEX
  8
0
  6
CONTINUOUS
 10
7.536760
 20
3.094960
  0
VERTEX
  8
0
  6
CONTINUOUS
 10
7.578120
 20
3.014440
  0
VERTEX
  8
0
  6
CONTINUOUS
 10
7.635320
 20
2.887280
  0
VERTEX
  8
0
  6
CONTINUOUS
 10
7.669200
 20
2.798840
  0
VERTEX
  8
0
  6
CONTINUOUS
 10
7.699120
 20
2.706880
  0
VERTEX
  8
0
  6
CONTINUOUS
 10
7.724200
 20
2.612280
  0
VERTEX
  8
0
  6
CONTINUOUS
 10
7.735200
 20
2.563440
  0
VERTEX
  8
0
  6
CONTINUOUS
 10
7.744440
 20
2.514160
  0
VERTEX
  8
0
  6
CONTINUOUS
 10
7.758080
 20
2.412960
  0
VERTEX
  8
0
  6
CONTINUOUS
 10
7.762920
 20
2.361040
  0
VERTEX
  8
0
  6
CONTINUOUS
 10
7.765560
 20
2.308240
  0
VERTEX
  8
0
  6
CONTINUOUS
 10
7.766440
 20
2.255000
  0
VERTEX
  8
0
  6
CONTINUOUS
 10
7.766440
 20
1.257520
  0
VERTEX
  8
0
  6
CONTINUOUS
 10
6.213240
 20
1.257520
  0
VERTEX
  8
0
  6
CONTINUOUS
 10
6.213240
 20
6.424880
  0
VERTEX
  8
0
  6
CONTINUOUS
 10
7.773040
 20
6.424880
  0
VERTEX
  8
0
  6
CONTINUOUS
 10
7.773480
 20
5.555000
  0
SEQEND
  8
0
  0
TEXT
  8
0
 10
6.695040
 20
1.521080
 40
0.138086
  1
BA  965
 41
1.000000
  7
SN0
 71
     0
 72
     5
 11
7.285477
 21
1.521080
  0
TEXT
  8
0
 10
6.372960
 20
1.329680
 40
0.138086
  1
1-9/16" x 5-3/16"
 41
1.000000
  7
SN0
 71
     0
 72
     5
 11
7.605558
 21
1.329680
  0
ENDSEC
  0
EOF
