  0
SECTION
  2
HEADER
  9
$ACADVER
  1
AC1006
  9
$EXTMIN
 10
2.300760
 20
3.133680
  9
$EXTMAX
 10
6.354040
 20
6.497040
  9
$LTSCALE
 40
0.044000
  9
$PDMODE
 70
    35
  9
$PDSIZE
 40
0.035200
  0
ENDSEC
  0
SECTION
  2
TABLES
  0
TABLE
  2
LTYPE
 70
     9
  0
LTYPE
  2
CONTINUOUS
 70
    64
  3
Solid line
 72
    65
 73
     0
 40
0.000000
  0
LTYPE
  2
DASHED
 70
    64
  3
__ __ __ __ __ __ __ __ __ __ __ __ __ __ __
 72
    65
 73
     2
 40
0.000330
 49
0.000220
 49
-0.000110
  0
LTYPE
  2
HIDDEN
 70
    64
  3
 _ _ _ _ _ _ _ _ _ _ _ _ _ _ _ _ _ _ _ _ _ _
 72
    65
 73
     2
 40
0.000165
 49
0.000110
 49
-0.000055
  0
LTYPE
  2
CENTER
 70
    64
  3
____ _ ____ _ ____ _ ____ _ ____ _ ____ _ ____
 72
    65
 73
     4
 40
0.000880
 49
0.000550
 49
-0.000110
 49
0.000110
 49
-0.000110
  0
LTYPE
  2
PHANTOM
 70
    64
  3
_____ _ _ _____ _ _ _____ _ _ _____ _ _ ____
 72
    65
 73
     6
 40
0.001100
 49
0.000550
 49
-0.000110
 49
0.000110
 49
-0.000110
 49
0.000110
 49
-0.000110
  0
LTYPE
  2
DOT
 70
    64
  3
...............................................
 72
    65
 73
     2
 40
0.000110
 49
0.000000
 49
-0.000110
  0
LTYPE
  2
DASHDOT
 70
    64
  3
__ . __ . __ . __ . __ . __ . __ . __ . __ . __
 72
    65
 73
     4
 40
0.000440
 49
0.000220
 49
-0.000110
 49
0.000000
 49
-0.000110
  0
LTYPE
  2
BORDER
 70
    64
  3
__ __ . __ __ . __ __ . __ __ . __ __ . __ __
 72
    65
 73
     6
 40
0.000770
 49
0.000220
 49
-0.000110
 49
0.000220
 49
-0.000110
 49
0.000000
 49
-0.000110
  0
LTYPE
  2
DIVIDE
 70
    64
  3
__ . . __ . . __ . . __ . . __ . . __ . . __
 72
    65
 73
     6
 40
0.000550
 49
0.000220
 49
-0.000110
 49
0.000000
 49
-0.000110
 49
0.000000
 49
-0.000110
  0
LTYPE
  2
DOTDOT
 70
    64
  3
 . .  . .  . .  . .  . .  . . 
 72
    65
 73
     5
 40
0.000242
 49
-0.000110
 49
0.000000
 49
-0.000110
 49
0.000000
 49
-0.000110
  0
ENDTAB
  0
TABLE
  2
STYLE
 70
     2
  0
STYLE
 70
     0
  2
SN0
 40
0.000000
 41
0.000440
 50
0.000000
 71
     0
 42
0.000000
  3
ROMAND
  0
STYLE
 70
    68
  2
SV0
 40
0.000000
 41
0.000440
 50
0.000000
 71
     0
 42
0.000000
  3
ROMAND
  0
ENDTAB
  0
TABLE
  2
LAYER
 70
     3
  0
LAYER
  2
FOREGROUND
 70
    64
 62
     7
  6
CONTINUOUS
  0
LAYER
  2
BACKGROUND
 70
    65
 62
    -7
  6
CONTINUOUS
  0
LAYER
  2
0
 70
    64
 62
     7
  6
CONTINUOUS
  0
ENDTAB
  0
ENDSEC
  0
SECTION
  2
ENTITIES
  0
POLYLINE
  8
FOREGROUND
  6
CONTINUOUS
 66
     1
 40
0.000000
 41
0.000000
  0
VERTEX
  8
FOREGROUND
  6
CONTINUOUS
 10
0.000000
 20
9.630720
  0
VERTEX
  8
FOREGROUND
  6
CONTINUOUS
 10
8.499920
 20
9.630720
  0
VERTEX
  8
FOREGROUND
  6
CONTINUOUS
 10
8.499920
 20
-1.369280
  0
VERTEX
  8
FOREGROUND
  6
CONTINUOUS
 10
0.000000
 20
-1.369280
  0
VERTEX
  8
FOREGROUND
  6
CONTINUOUS
 10
0.000000
 20
9.630720
  0
SEQEND
  8
0
  0
POLYLINE
  8
FOREGROUND
  6
CONTINUOUS
 66
     1
 40
0.000000
 41
0.000000
  0
VERTEX
  8
FOREGROUND
  6
CONTINUOUS
 10
0.000000
 20
9.630720
  0
VERTEX
  8
FOREGROUND
  6
CONTINUOUS
 10
8.499920
 20
9.630720
  0
VERTEX
  8
FOREGROUND
  6
CONTINUOUS
 10
8.499920
 20
-1.369280
  0
VERTEX
  8
FOREGROUND
  6
CONTINUOUS
 10
0.000000
 20
-1.369280
  0
VERTEX
  8
FOREGROUND
  6
CONTINUOUS
 10
0.000000
 20
9.630720
  0
SEQEND
  8
0
  0
SOLID
  8
0
 62
    15
 10
2.304720
 20
3.584680
 11
2.301640
 21
4.328720
 12
2.304720
 22
4.578640
 13
2.301640
 23
5.322680
  0
POLYLINE
  8
0
  6
CONTINUOUS
 66
     1
 40
0.000000
 41
0.000000
  0
VERTEX
  8
0
  6
CONTINUOUS
 10
2.304720
 20
3.584680
  0
VERTEX
  8
0
  6
CONTINUOUS
 10
2.301640
 20
4.328720
  0
VERTEX
  8
0
  6
CONTINUOUS
 10
2.301640
 20
5.322680
  0
VERTEX
  8
0
  6
CONTINUOUS
 10
2.304720
 20
4.578640
  0
VERTEX
  8
0
  6
CONTINUOUS
 10
2.304720
 20
3.584680
  0
SEQEND
  8
0
  0
SOLID
  8
0
 62
    15
 10
3.303960
 20
4.578640
 11
3.300880
 21
5.322680
 12
3.433760
 22
4.449280
 13
3.430680
 23
5.192880
  0
POLYLINE
  8
0
  6
CONTINUOUS
 66
     1
 40
0.000000
 41
0.000000
  0
VERTEX
  8
0
  6
CONTINUOUS
 10
3.303960
 20
4.578640
  0
VERTEX
  8
0
  6
CONTINUOUS
 10
3.300880
 20
5.322680
  0
VERTEX
  8
0
  6
CONTINUOUS
 10
3.430680
 20
5.192880
  0
VERTEX
  8
0
  6
CONTINUOUS
 10
3.433760
 20
4.449280
  0
VERTEX
  8
0
  6
CONTINUOUS
 10
3.303960
 20
4.578640
  0
SEQEND
  8
0
  0
SOLID
  8
0
 62
    15
 10
3.433760
 20
4.449280
 11
3.430680
 21
5.192880
 12
5.041960
 22
4.449280
 13
5.038880
 23
5.192880
  0
POLYLINE
  8
0
  6
CONTINUOUS
 66
     1
 40
0.000000
 41
0.000000
  0
VERTEX
  8
0
  6
CONTINUOUS
 10
3.433760
 20
4.449280
  0
VERTEX
  8
0
  6
CONTINUOUS
 10
3.430680
 20
5.192880
  0
VERTEX
  8
0
  6
CONTINUOUS
 10
5.038880
 20
5.192880
  0
VERTEX
  8
0
  6
CONTINUOUS
 10
5.041960
 20
4.449280
  0
VERTEX
  8
0
  6
CONTINUOUS
 10
3.433760
 20
4.449280
  0
SEQEND
  8
0
  0
SOLID
  8
0
 62
    15
 10
5.041520
 20
4.449280
 11
5.038880
 21
5.193320
 12
5.171320
 22
4.579080
 13
5.168240
 23
5.322680
  0
POLYLINE
  8
0
  6
CONTINUOUS
 66
     1
 40
0.000000
 41
0.000000
  0
VERTEX
  8
0
  6
CONTINUOUS
 10
5.041520
 20
4.449280
  0
VERTEX
  8
0
  6
CONTINUOUS
 10
5.038880
 20
5.193320
  0
VERTEX
  8
0
  6
CONTINUOUS
 10
5.168240
 20
5.322680
  0
VERTEX
  8
0
  6
CONTINUOUS
 10
5.171320
 20
4.579080
  0
VERTEX
  8
0
  6
CONTINUOUS
 10
5.041520
 20
4.449280
  0
SEQEND
  8
0
  0
SOLID
  8
0
 62
    15
 10
5.171320
 20
4.579080
 11
5.168240
 21
5.322680
 12
6.172760
 22
4.579080
 13
6.169680
 23
5.322680
  0
POLYLINE
  8
0
  6
CONTINUOUS
 66
     1
 40
0.000000
 41
0.000000
  0
VERTEX
  8
0
  6
CONTINUOUS
 10
5.171320
 20
4.579080
  0
VERTEX
  8
0
  6
CONTINUOUS
 10
5.168240
 20
5.322680
  0
VERTEX
  8
0
  6
CONTINUOUS
 10
6.169680
 20
5.322680
  0
VERTEX
  8
0
  6
CONTINUOUS
 10
6.172760
 20
4.579080
  0
VERTEX
  8
0
  6
CONTINUOUS
 10
5.171320
 20
4.579080
  0
SEQEND
  8
0
  0
SOLID
  8
0
 62
    15
 10
6.172760
 20
4.579080
 11
6.169680
 21
5.322680
 12
6.299920
 22
4.451920
 13
6.296840
 23
5.195520
  0
POLYLINE
  8
0
  6
CONTINUOUS
 66
     1
 40
0.000000
 41
0.000000
  0
VERTEX
  8
0
  6
CONTINUOUS
 10
6.172760
 20
4.579080
  0
VERTEX
  8
0
  6
CONTINUOUS
 10
6.169680
 20
5.322680
  0
VERTEX
  8
0
  6
CONTINUOUS
 10
6.296840
 20
5.195520
  0
VERTEX
  8
0
  6
CONTINUOUS
 10
6.299920
 20
4.451920
  0
VERTEX
  8
0
  6
CONTINUOUS
 10
6.172760
 20
4.579080
  0
SEQEND
  8
0
  0
SOLID
  8
0
 62
    15
 10
2.304720
 20
4.578640
 11
2.301640
 21
5.322680
 12
3.303960
 22
4.578640
 13
3.300880
 23
5.322680
  0
POLYLINE
  8
0
  6
CONTINUOUS
 66
     1
 40
0.000000
 41
0.000000
  0
VERTEX
  8
0
  6
CONTINUOUS
 10
2.304720
 20
4.578640
  0
VERTEX
  8
0
  6
CONTINUOUS
 10
2.301640
 20
5.322680
  0
VERTEX
  8
0
  6
CONTINUOUS
 10
3.300880
 20
5.322680
  0
VERTEX
  8
0
  6
CONTINUOUS
 10
3.303960
 20
4.578640
  0
VERTEX
  8
0
  6
CONTINUOUS
 10
2.304720
 20
4.578640
  0
SEQEND
  8
0
  0
POLYLINE
  8
0
  6
CONTINUOUS
 66
     1
 40
0.000000
 41
0.000000
  0
VERTEX
  8
0
  6
CONTINUOUS
 10
6.173200
 20
3.584680
  0
VERTEX
  8
0
  6
CONTINUOUS
 10
2.304720
 20
3.584680
  0
VERTEX
  8
0
  6
CONTINUOUS
 10
2.304720
 20
4.578640
  0
VERTEX
  8
0
  6
CONTINUOUS
 10
3.303960
 20
4.578640
  0
VERTEX
  8
0
  6
CONTINUOUS
 10
3.433760
 20
4.449280
  0
VERTEX
  8
0
  6
CONTINUOUS
 10
5.041960
 20
4.449280
  0
VERTEX
  8
0
  6
CONTINUOUS
 10
5.041520
 20
4.449280
  0
VERTEX
  8
0
  6
CONTINUOUS
 10
5.171320
 20
4.579080
  0
VERTEX
  8
0
  6
CONTINUOUS
 10
6.172760
 20
4.579080
  0
VERTEX
  8
0
  6
CONTINUOUS
 10
6.299920
 20
4.451920
  0
VERTEX
  8
0
  6
CONTINUOUS
 10
6.299920
 20
3.584240
  0
VERTEX
  8
0
  6
CONTINUOUS
 10
6.179800
 20
3.584240
  0
VERTEX
  8
0
  6
CONTINUOUS
 10
6.173200
 20
3.584680
  0
SEQEND
  8
0
  0
TEXT
  8
0
 10
4.028640
 20
3.373040
 40
0.138036
  1
BA 964
 41
1.000000
  7
SN0
 71
     0
 72
     5
 11
4.572793
 21
3.373040
  0
TEXT
  8
0
 10
4.061640
 20
3.181200
 40
0.138036
  1
1" x 4"
 41
1.000000
  7
SN0
 71
     0
 72
     5
 11
4.538103
 21
3.181200
  0
POLYLINE
  8
0
  6
CONTINUOUS
 66
     1
 40
0.014080
 41
0.014080
  0
VERTEX
  8
0
  6
CONTINUOUS
 10
6.226880
 20
5.494720
  0
VERTEX
  8
0
  6
CONTINUOUS
 10
6.347000
 20
5.494720
  0
VERTEX
  8
0
  6
CONTINUOUS
 10
6.347000
 20
6.362400
  0
VERTEX
  8
0
  6
CONTINUOUS
 10
6.219840
 20
6.489560
  0
VERTEX
  8
0
  6
CONTINUOUS
 10
5.217960
 20
6.489560
  0
VERTEX
  8
0
  6
CONTINUOUS
 10
5.088600
 20
6.359760
  0
VERTEX
  8
0
  6
CONTINUOUS
 10
5.089040
 20
6.359320
  0
VERTEX
  8
0
  6
CONTINUOUS
 10
4.989160
 20
6.359320
  0
VERTEX
  8
0
  6
CONTINUOUS
 10
3.480400
 20
6.359320
  0
VERTEX
  8
0
  6
CONTINUOUS
 10
3.351040
 20
6.489120
  0
VERTEX
  8
0
  6
CONTINUOUS
 10
2.351360
 20
6.489120
  0
VERTEX
  8
0
  6
CONTINUOUS
 10
2.351360
 20
5.495160
  0
VERTEX
  8
0
  6
CONTINUOUS
 10
6.219840
 20
5.495160
  0
VERTEX
  8
0
  6
CONTINUOUS
 10
6.226880
 20
5.494720
  0
SEQEND
  8
0
  0
TEXT
  8
0
 10
4.077040
 20
5.822080
 40
0.138036
  1
BA 964
 41
1.000000
  7
SN0
 71
     0
 72
     5
 11
4.621193
 21
5.822080
  0
TEXT
  8
0
 10
4.110480
 20
5.630680
 40
0.138036
  1
1" x 4"
 41
1.000000
  7
SN0
 71
     0
 72
     5
 11
4.586943
 21
5.630680
  0
ENDSEC
  0
EOF
