  0
SECTION
  2
HEADER
  9
$ACADVER
  1
AC1006
  9
$EXTMIN
 10
1.824240
 20
0.483560
  9
$EXTMAX
 10
7.087960
 20
7.709680
  9
$LTSCALE
 40
0.044000
  9
$PDMODE
 70
    35
  9
$PDSIZE
 40
0.035200
  0
ENDSEC
  0
SECTION
  2
TABLES
  0
TABLE
  2
LTYPE
 70
     9
  0
LTYPE
  2
CONTINUOUS
 70
    64
  3
Solid line
 72
    65
 73
     0
 40
0.000000
  0
LTYPE
  2
DASHED
 70
    64
  3
__ __ __ __ __ __ __ __ __ __ __ __ __ __ __
 72
    65
 73
     2
 40
0.000330
 49
0.000220
 49
-0.000110
  0
LTYPE
  2
HIDDEN
 70
    64
  3
 _ _ _ _ _ _ _ _ _ _ _ _ _ _ _ _ _ _ _ _ _ _
 72
    65
 73
     2
 40
0.000165
 49
0.000110
 49
-0.000055
  0
LTYPE
  2
CENTER
 70
    64
  3
____ _ ____ _ ____ _ ____ _ ____ _ ____ _ ____
 72
    65
 73
     4
 40
0.000880
 49
0.000550
 49
-0.000110
 49
0.000110
 49
-0.000110
  0
LTYPE
  2
PHANTOM
 70
    64
  3
_____ _ _ _____ _ _ _____ _ _ _____ _ _ ____
 72
    65
 73
     6
 40
0.001100
 49
0.000550
 49
-0.000110
 49
0.000110
 49
-0.000110
 49
0.000110
 49
-0.000110
  0
LTYPE
  2
DOT
 70
    64
  3
...............................................
 72
    65
 73
     2
 40
0.000110
 49
0.000000
 49
-0.000110
  0
LTYPE
  2
DASHDOT
 70
    64
  3
__ . __ . __ . __ . __ . __ . __ . __ . __ . __
 72
    65
 73
     4
 40
0.000440
 49
0.000220
 49
-0.000110
 49
0.000000
 49
-0.000110
  0
LTYPE
  2
BORDER
 70
    64
  3
__ __ . __ __ . __ __ . __ __ . __ __ . __ __
 72
    65
 73
     6
 40
0.000770
 49
0.000220
 49
-0.000110
 49
0.000220
 49
-0.000110
 49
0.000000
 49
-0.000110
  0
LTYPE
  2
DIVIDE
 70
    64
  3
__ . . __ . . __ . . __ . . __ . . __ . . __
 72
    65
 73
     6
 40
0.000550
 49
0.000220
 49
-0.000110
 49
0.000000
 49
-0.000110
 49
0.000000
 49
-0.000110
  0
LTYPE
  2
DOTDOT
 70
    64
  3
 . .  . .  . .  . .  . .  . . 
 72
    65
 73
     5
 40
0.000242
 49
-0.000110
 49
0.000000
 49
-0.000110
 49
0.000000
 49
-0.000110
  0
ENDTAB
  0
TABLE
  2
STYLE
 70
     2
  0
STYLE
 70
     0
  2
SN0
 40
0.000000
 41
0.000440
 50
0.000000
 71
     0
 42
0.000000
  3
ROMAND
  0
STYLE
 70
    68
  2
SV0
 40
0.000000
 41
0.000440
 50
0.000000
 71
     0
 42
0.000000
  3
ROMAND
  0
ENDTAB
  0
TABLE
  2
LAYER
 70
     3
  0
LAYER
  2
FOREGROUND
 70
    64
 62
     7
  6
CONTINUOUS
  0
LAYER
  2
BACKGROUND
 70
    65
 62
    -7
  6
CONTINUOUS
  0
LAYER
  2
0
 70
    64
 62
     7
  6
CONTINUOUS
  0
ENDTAB
  0
ENDSEC
  0
SECTION
  2
ENTITIES
  0
POLYLINE
  8
FOREGROUND
  6
CONTINUOUS
 66
     1
 40
0.000000
 41
0.000000
  0
VERTEX
  8
FOREGROUND
  6
CONTINUOUS
 10
0.000000
 20
8.193240
  0
VERTEX
  8
FOREGROUND
  6
CONTINUOUS
 10
8.499920
 20
8.193240
  0
VERTEX
  8
FOREGROUND
  6
CONTINUOUS
 10
8.499920
 20
-2.806760
  0
VERTEX
  8
FOREGROUND
  6
CONTINUOUS
 10
0.000000
 20
-2.806760
  0
VERTEX
  8
FOREGROUND
  6
CONTINUOUS
 10
0.000000
 20
8.193240
  0
SEQEND
  8
0
  0
POLYLINE
  8
FOREGROUND
  6
CONTINUOUS
 66
     1
 40
0.000000
 41
0.000000
  0
VERTEX
  8
FOREGROUND
  6
CONTINUOUS
 10
0.000000
 20
8.193240
  0
VERTEX
  8
FOREGROUND
  6
CONTINUOUS
 10
8.499920
 20
8.193240
  0
VERTEX
  8
FOREGROUND
  6
CONTINUOUS
 10
8.499920
 20
-2.806760
  0
VERTEX
  8
FOREGROUND
  6
CONTINUOUS
 10
0.000000
 20
-2.806760
  0
VERTEX
  8
FOREGROUND
  6
CONTINUOUS
 10
0.000000
 20
8.193240
  0
SEQEND
  8
0
  0
SOLID
  8
0
 62
    15
 10
4.600200
 20
3.958680
 11
5.254040
 21
4.335320
 12
4.601520
 22
3.958680
 13
5.255800
 23
4.335320
  0
POLYLINE
  8
0
  6
CONTINUOUS
 66
     1
 40
0.000000
 41
0.000000
  0
VERTEX
  8
0
  6
CONTINUOUS
 10
4.600200
 20
3.958680
  0
VERTEX
  8
0
  6
CONTINUOUS
 10
5.254040
 20
4.335320
  0
VERTEX
  8
0
  6
CONTINUOUS
 10
5.255800
 20
4.335320
  0
VERTEX
  8
0
  6
CONTINUOUS
 10
4.601520
 20
3.958680
  0
VERTEX
  8
0
  6
CONTINUOUS
 10
4.600200
 20
3.958680
  0
SEQEND
  8
0
  0
SOLID
  8
0
 62
    15
 10
4.354240
 20
6.207960
 11
5.008520
 21
6.584160
 12
4.600640
 22
6.207960
 13
5.254920
 23
6.584160
  0
POLYLINE
  8
0
  6
CONTINUOUS
 66
     1
 40
0.000000
 41
0.000000
  0
VERTEX
  8
0
  6
CONTINUOUS
 10
4.354240
 20
6.207960
  0
VERTEX
  8
0
  6
CONTINUOUS
 10
5.008520
 20
6.584160
  0
VERTEX
  8
0
  6
CONTINUOUS
 10
5.254920
 20
6.584160
  0
VERTEX
  8
0
  6
CONTINUOUS
 10
4.600640
 20
6.207960
  0
VERTEX
  8
0
  6
CONTINUOUS
 10
4.354240
 20
6.207960
  0
SEQEND
  8
0
  0
SOLID
  8
0
 62
    15
 10
4.107400
 20
5.959360
 11
4.761680
 21
6.335560
 12
4.354240
 22
5.959360
 13
5.008520
 23
6.335560
  0
POLYLINE
  8
0
  6
CONTINUOUS
 66
     1
 40
0.000000
 41
0.000000
  0
VERTEX
  8
0
  6
CONTINUOUS
 10
4.107400
 20
5.959360
  0
VERTEX
  8
0
  6
CONTINUOUS
 10
4.761680
 20
6.335560
  0
VERTEX
  8
0
  6
CONTINUOUS
 10
5.008520
 20
6.335560
  0
VERTEX
  8
0
  6
CONTINUOUS
 10
4.354240
 20
5.959360
  0
VERTEX
  8
0
  6
CONTINUOUS
 10
4.107400
 20
5.959360
  0
SEQEND
  8
0
  0
SOLID
  8
0
 62
    15
 10
4.600200
 20
4.959240
 11
5.254480
 21
5.335440
 12
4.600200
 22
4.958800
 13
5.254040
 23
5.335000
  0
POLYLINE
  8
0
  6
CONTINUOUS
 66
     1
 40
0.000000
 41
0.000000
  0
VERTEX
  8
0
  6
CONTINUOUS
 10
4.600200
 20
4.959240
  0
VERTEX
  8
0
  6
CONTINUOUS
 10
5.254480
 20
5.335440
  0
VERTEX
  8
0
  6
CONTINUOUS
 10
5.254040
 20
5.335000
  0
VERTEX
  8
0
  6
CONTINUOUS
 10
4.600200
 20
4.958800
  0
VERTEX
  8
0
  6
CONTINUOUS
 10
4.600200
 20
4.959240
  0
SEQEND
  8
0
  0
SOLID
  8
0
 62
    15
 10
4.600200
 20
1.959320
 11
5.254480
 21
2.335520
 12
4.601080
 22
1.959760
 13
5.255360
 23
2.335960
  0
POLYLINE
  8
0
  6
CONTINUOUS
 66
     1
 40
0.000000
 41
0.000000
  0
VERTEX
  8
0
  6
CONTINUOUS
 10
4.600200
 20
1.959320
  0
VERTEX
  8
0
  6
CONTINUOUS
 10
5.254480
 20
2.335520
  0
VERTEX
  8
0
  6
CONTINUOUS
 10
5.255360
 20
2.335960
  0
VERTEX
  8
0
  6
CONTINUOUS
 10
4.601080
 20
1.959760
  0
VERTEX
  8
0
  6
CONTINUOUS
 10
4.600200
 20
1.959320
  0
SEQEND
  8
0
  0
SOLID
  8
0
 62
    15
 10
4.359080
 20
1.207360
 11
5.013360
 21
1.583560
 12
4.359080
 22
0.959200
 13
5.013360
 23
1.335400
  0
POLYLINE
  8
0
  6
CONTINUOUS
 66
     1
 40
0.000000
 41
0.000000
  0
VERTEX
  8
0
  6
CONTINUOUS
 10
4.359080
 20
1.207360
  0
VERTEX
  8
0
  6
CONTINUOUS
 10
5.013360
 20
1.583560
  0
VERTEX
  8
0
  6
CONTINUOUS
 10
5.013360
 20
1.335400
  0
VERTEX
  8
0
  6
CONTINUOUS
 10
4.359080
 20
0.959200
  0
VERTEX
  8
0
  6
CONTINUOUS
 10
4.359080
 20
1.207360
  0
SEQEND
  8
0
  0
SOLID
  8
0
 62
    15
 10
4.601080
 20
1.959760
 11
5.255360
 21
2.335960
 12
4.848800
 22
0.959640
 13
5.503080
 23
1.336280
  0
POLYLINE
  8
0
  6
CONTINUOUS
 66
     1
 40
0.000000
 41
0.000000
  0
VERTEX
  8
0
  6
CONTINUOUS
 10
4.601080
 20
1.959760
  0
VERTEX
  8
0
  6
CONTINUOUS
 10
5.255360
 20
2.335960
  0
VERTEX
  8
0
  6
CONTINUOUS
 10
5.503080
 20
1.336280
  0
VERTEX
  8
0
  6
CONTINUOUS
 10
4.848800
 20
0.959640
  0
VERTEX
  8
0
  6
CONTINUOUS
 10
4.601080
 20
1.959760
  0
SEQEND
  8
0
  0
SOLID
  8
0
 62
    15
 10
4.600200
 20
2.959440
 11
5.254480
 21
3.335640
 12
4.847920
 22
1.959320
 13
5.502200
 23
2.335520
  0
POLYLINE
  8
0
  6
CONTINUOUS
 66
     1
 40
0.000000
 41
0.000000
  0
VERTEX
  8
0
  6
CONTINUOUS
 10
4.600200
 20
2.959440
  0
VERTEX
  8
0
  6
CONTINUOUS
 10
5.254480
 20
3.335640
  0
VERTEX
  8
0
  6
CONTINUOUS
 10
5.502200
 20
2.335520
  0
VERTEX
  8
0
  6
CONTINUOUS
 10
4.847920
 20
1.959320
  0
VERTEX
  8
0
  6
CONTINUOUS
 10
4.600200
 20
2.959440
  0
SEQEND
  8
0
  0
SOLID
  8
0
 62
    15
 10
4.601520
 20
3.958680
 11
5.255800
 21
4.335320
 12
4.849240
 22
2.959000
 13
5.503520
 23
3.335200
  0
POLYLINE
  8
0
  6
CONTINUOUS
 66
     1
 40
0.000000
 41
0.000000
  0
VERTEX
  8
0
  6
CONTINUOUS
 10
4.601520
 20
3.958680
  0
VERTEX
  8
0
  6
CONTINUOUS
 10
5.255800
 20
4.335320
  0
VERTEX
  8
0
  6
CONTINUOUS
 10
5.503520
 20
3.335200
  0
VERTEX
  8
0
  6
CONTINUOUS
 10
4.849240
 20
2.959000
  0
VERTEX
  8
0
  6
CONTINUOUS
 10
4.601520
 20
3.958680
  0
SEQEND
  8
0
  0
SOLID
  8
0
 62
    15
 10
4.600200
 20
4.958800
 11
5.254040
 21
5.335000
 12
4.847920
 22
3.958680
 13
5.502200
 23
4.335320
  0
POLYLINE
  8
0
  6
CONTINUOUS
 66
     1
 40
0.000000
 41
0.000000
  0
VERTEX
  8
0
  6
CONTINUOUS
 10
4.600200
 20
4.958800
  0
VERTEX
  8
0
  6
CONTINUOUS
 10
5.254040
 20
5.335000
  0
VERTEX
  8
0
  6
CONTINUOUS
 10
5.502200
 20
4.335320
  0
VERTEX
  8
0
  6
CONTINUOUS
 10
4.847920
 20
3.958680
  0
VERTEX
  8
0
  6
CONTINUOUS
 10
4.600200
 20
4.958800
  0
SEQEND
  8
0
  0
SOLID
  8
0
 62
    15
 10
4.600200
 20
5.959360
 11
5.254480
 21
6.335560
 12
4.847920
 22
4.959240
 13
5.502200
 23
5.335440
  0
POLYLINE
  8
0
  6
CONTINUOUS
 66
     1
 40
0.000000
 41
0.000000
  0
VERTEX
  8
0
  6
CONTINUOUS
 10
4.600200
 20
5.959360
  0
VERTEX
  8
0
  6
CONTINUOUS
 10
5.254480
 20
6.335560
  0
VERTEX
  8
0
  6
CONTINUOUS
 10
5.502200
 20
5.335440
  0
VERTEX
  8
0
  6
CONTINUOUS
 10
4.847920
 20
4.959240
  0
VERTEX
  8
0
  6
CONTINUOUS
 10
4.600200
 20
5.959360
  0
SEQEND
  8
0
  0
SOLID
  8
0
 62
    15
 10
4.600640
 20
6.207960
 11
5.254920
 21
6.584160
 12
4.600640
 22
5.959360
 13
5.254920
 23
6.335560
  0
POLYLINE
  8
0
  6
CONTINUOUS
 66
     1
 40
0.000000
 41
0.000000
  0
VERTEX
  8
0
  6
CONTINUOUS
 10
4.600640
 20
6.207960
  0
VERTEX
  8
0
  6
CONTINUOUS
 10
5.254920
 20
6.584160
  0
VERTEX
  8
0
  6
CONTINUOUS
 10
5.254920
 20
6.335560
  0
VERTEX
  8
0
  6
CONTINUOUS
 10
4.600640
 20
5.959360
  0
VERTEX
  8
0
  6
CONTINUOUS
 10
4.600640
 20
6.207960
  0
SEQEND
  8
0
  0
POLYLINE
  8
0
  6
CONTINUOUS
 66
     1
 40
0.000000
 41
0.000000
  0
VERTEX
  8
0
  6
CONTINUOUS
 10
4.598880
 20
0.959200
  0
VERTEX
  8
0
  6
CONTINUOUS
 10
4.598880
 20
1.207360
  0
VERTEX
  8
0
  6
CONTINUOUS
 10
4.359080
 20
1.207360
  0
VERTEX
  8
0
  6
CONTINUOUS
 10
4.359080
 20
0.959200
  0
VERTEX
  8
0
  6
CONTINUOUS
 10
4.106520
 20
0.959200
  0
VERTEX
  8
0
  6
CONTINUOUS
 10
4.107400
 20
0.959640
  0
VERTEX
  8
0
  6
CONTINUOUS
 10
4.107400
 20
5.959360
  0
VERTEX
  8
0
  6
CONTINUOUS
 10
4.354240
 20
5.959360
  0
VERTEX
  8
0
  6
CONTINUOUS
 10
4.354240
 20
6.207960
  0
VERTEX
  8
0
  6
CONTINUOUS
 10
4.600640
 20
6.207960
  0
VERTEX
  8
0
  6
CONTINUOUS
 10
4.600640
 20
5.959360
  0
VERTEX
  8
0
  6
CONTINUOUS
 10
4.600200
 20
5.959360
  0
VERTEX
  8
0
  6
CONTINUOUS
 10
4.847920
 20
4.959240
  0
VERTEX
  8
0
  6
CONTINUOUS
 10
4.600200
 20
4.959240
  0
VERTEX
  8
0
  6
CONTINUOUS
 10
4.600200
 20
4.958800
  0
VERTEX
  8
0
  6
CONTINUOUS
 10
4.847920
 20
3.958680
  0
VERTEX
  8
0
  6
CONTINUOUS
 10
4.600200
 20
3.958680
  0
VERTEX
  8
0
  6
CONTINUOUS
 10
4.601520
 20
3.958680
  0
VERTEX
  8
0
  6
CONTINUOUS
 10
4.849240
 20
2.959000
  0
VERTEX
  8
0
  6
CONTINUOUS
 10
4.601520
 20
2.959000
  0
VERTEX
  8
0
  6
CONTINUOUS
 10
4.600200
 20
2.959440
  0
VERTEX
  8
0
  6
CONTINUOUS
 10
4.847920
 20
1.959320
  0
VERTEX
  8
0
  6
CONTINUOUS
 10
4.600200
 20
1.959320
  0
VERTEX
  8
0
  6
CONTINUOUS
 10
4.601080
 20
1.959760
  0
VERTEX
  8
0
  6
CONTINUOUS
 10
4.848800
 20
0.959640
  0
VERTEX
  8
0
  6
CONTINUOUS
 10
4.601080
 20
0.959640
  0
VERTEX
  8
0
  6
CONTINUOUS
 10
4.598880
 20
0.959200
  0
SEQEND
  8
0
  0
POLYLINE
  8
0
  6
CONTINUOUS
 66
     1
 40
0.000000
 41
0.000000
  0
VERTEX
  8
0
  6
CONTINUOUS
 10
4.354240
 20
6.205760
  0
VERTEX
  8
0
  6
CONTINUOUS
 10
4.599320
 20
6.205760
  0
VERTEX
  8
0
  6
CONTINUOUS
 10
5.254480
 20
6.584160
  0
VERTEX
  8
0
  6
CONTINUOUS
 10
5.005440
 20
6.584160
  0
VERTEX
  8
0
  6
CONTINUOUS
 10
4.354240
 20
6.208400
  0
VERTEX
  8
0
  6
CONTINUOUS
 10
4.354240
 20
6.205760
  0
SEQEND
  8
0
  0
TEXT
  8
0
 10
4.532440
 20
0.722040
 40
0.138114
  1
BA 963
 41
1.000000
  7
SN0
 71
     0
 72
     5
 11
5.076206
 21
0.722040
  0
TEXT
  8
0
 10
4.353800
 20
0.530200
 40
0.138114
  1
3/4" x 5-1/4"
 41
1.000000
  7
SN0
 71
     0
 72
     5
 11
5.254536
 21
0.530200
  0
POLYLINE
  8
0
  6
CONTINUOUS
 66
     1
 40
0.014080
 41
0.014080
  0
VERTEX
  8
0
  6
CONTINUOUS
 10
7.080920
 20
7.449640
  0
VERTEX
  8
0
  6
CONTINUOUS
 10
6.832760
 20
7.449640
  0
VERTEX
  8
0
  6
CONTINUOUS
 10
6.832760
 20
7.209840
  0
VERTEX
  8
0
  6
CONTINUOUS
 10
7.080920
 20
7.209840
  0
VERTEX
  8
0
  6
CONTINUOUS
 10
7.080920
 20
6.957720
  0
VERTEX
  8
0
  6
CONTINUOUS
 10
7.080040
 20
6.958600
  0
VERTEX
  8
0
  6
CONTINUOUS
 10
2.080320
 20
6.958600
  0
VERTEX
  8
0
  6
CONTINUOUS
 10
2.080320
 20
7.205000
  0
VERTEX
  8
0
  6
CONTINUOUS
 10
1.832160
 20
7.205000
  0
VERTEX
  8
0
  6
CONTINUOUS
 10
1.832160
 20
7.451400
  0
VERTEX
  8
0
  6
CONTINUOUS
 10
2.080320
 20
7.451400
  0
VERTEX
  8
0
  6
CONTINUOUS
 10
2.080760
 20
7.450960
  0
VERTEX
  8
0
  6
CONTINUOUS
 10
3.080880
 20
7.698680
  0
VERTEX
  8
0
  6
CONTINUOUS
 10
3.080880
 20
7.450960
  0
VERTEX
  8
0
  6
CONTINUOUS
 10
4.081000
 20
7.698680
  0
VERTEX
  8
0
  6
CONTINUOUS
 10
4.081000
 20
7.450960
  0
VERTEX
  8
0
  6
CONTINUOUS
 10
4.081000
 20
7.452280
  0
VERTEX
  8
0
  6
CONTINUOUS
 10
5.081120
 20
7.700000
  0
VERTEX
  8
0
  6
CONTINUOUS
 10
5.081120
 20
7.452280
  0
VERTEX
  8
0
  6
CONTINUOUS
 10
5.080680
 20
7.451400
  0
VERTEX
  8
0
  6
CONTINUOUS
 10
6.080360
 20
7.699120
  0
VERTEX
  8
0
  6
CONTINUOUS
 10
6.080360
 20
7.451400
  0
VERTEX
  8
0
  6
CONTINUOUS
 10
6.079920
 20
7.452280
  0
VERTEX
  8
0
  6
CONTINUOUS
 10
7.080040
 20
7.700000
  0
VERTEX
  8
0
  6
CONTINUOUS
 10
7.080040
 20
7.452280
  0
VERTEX
  8
0
  6
CONTINUOUS
 10
7.080920
 20
7.449640
  0
SEQEND
  8
0
  0
TEXT
  8
0
 10
4.183960
 20
7.238440
 40
0.138114
  1
BA 963
 41
1.000000
  7
SN0
 71
     0
 72
     5
 11
4.727726
 21
7.238440
  0
TEXT
  8
0
 10
4.005320
 20
7.046600
 40
0.138114
  1
3/4" x 5-1/4"
 41
1.000000
  7
SN0
 71
     0
 72
     5
 11
4.906056
 21
7.046600
  0
ENDSEC
  0
EOF
