  0
SECTION
  2
HEADER
  9
$ACADVER
  1
AC1006
  9
$EXTMIN
 10
1.018160
 20
0.388080
  9
$EXTMAX
 10
7.892720
 20
4.600200
  9
$LTSCALE
 40
0.044000
  9
$PDMODE
 70
    35
  9
$PDSIZE
 40
0.035200
  0
ENDSEC
  0
SECTION
  2
TABLES
  0
TABLE
  2
LTYPE
 70
     9
  0
LTYPE
  2
CONTINUOUS
 70
    64
  3
Solid line
 72
    65
 73
     0
 40
0.000000
  0
LTYPE
  2
DASHED
 70
    64
  3
__ __ __ __ __ __ __ __ __ __ __ __ __ __ __
 72
    65
 73
     2
 40
0.000330
 49
0.000220
 49
-0.000110
  0
LTYPE
  2
HIDDEN
 70
    64
  3
 _ _ _ _ _ _ _ _ _ _ _ _ _ _ _ _ _ _ _ _ _ _
 72
    65
 73
     2
 40
0.000165
 49
0.000110
 49
-0.000055
  0
LTYPE
  2
CENTER
 70
    64
  3
____ _ ____ _ ____ _ ____ _ ____ _ ____ _ ____
 72
    65
 73
     4
 40
0.000880
 49
0.000550
 49
-0.000110
 49
0.000110
 49
-0.000110
  0
LTYPE
  2
PHANTOM
 70
    64
  3
_____ _ _ _____ _ _ _____ _ _ _____ _ _ ____
 72
    65
 73
     6
 40
0.001100
 49
0.000550
 49
-0.000110
 49
0.000110
 49
-0.000110
 49
0.000110
 49
-0.000110
  0
LTYPE
  2
DOT
 70
    64
  3
...............................................
 72
    65
 73
     2
 40
0.000110
 49
0.000000
 49
-0.000110
  0
LTYPE
  2
DASHDOT
 70
    64
  3
__ . __ . __ . __ . __ . __ . __ . __ . __ . __
 72
    65
 73
     4
 40
0.000440
 49
0.000220
 49
-0.000110
 49
0.000000
 49
-0.000110
  0
LTYPE
  2
BORDER
 70
    64
  3
__ __ . __ __ . __ __ . __ __ . __ __ . __ __
 72
    65
 73
     6
 40
0.000770
 49
0.000220
 49
-0.000110
 49
0.000220
 49
-0.000110
 49
0.000000
 49
-0.000110
  0
LTYPE
  2
DIVIDE
 70
    64
  3
__ . . __ . . __ . . __ . . __ . . __ . . __
 72
    65
 73
     6
 40
0.000550
 49
0.000220
 49
-0.000110
 49
0.000000
 49
-0.000110
 49
0.000000
 49
-0.000110
  0
LTYPE
  2
DOTDOT
 70
    64
  3
 . .  . .  . .  . .  . .  . . 
 72
    65
 73
     5
 40
0.000242
 49
-0.000110
 49
0.000000
 49
-0.000110
 49
0.000000
 49
-0.000110
  0
ENDTAB
  0
TABLE
  2
STYLE
 70
     2
  0
STYLE
 70
     0
  2
SN0
 40
0.000000
 41
0.000440
 50
0.000000
 71
     0
 42
0.000000
  3
ROMAND
  0
STYLE
 70
    68
  2
SV0
 40
0.000000
 41
0.000440
 50
0.000000
 71
     0
 42
0.000000
  3
ROMAND
  0
ENDTAB
  0
TABLE
  2
LAYER
 70
     3
  0
LAYER
  2
FOREGROUND
 70
    64
 62
     7
  6
CONTINUOUS
  0
LAYER
  2
BACKGROUND
 70
    65
 62
    -7
  6
CONTINUOUS
  0
LAYER
  2
0
 70
    64
 62
     7
  6
CONTINUOUS
  0
ENDTAB
  0
ENDSEC
  0
SECTION
  2
ENTITIES
  0
POLYLINE
  8
FOREGROUND
  6
CONTINUOUS
 66
     1
 40
0.000000
 41
0.000000
  0
VERTEX
  8
FOREGROUND
  6
CONTINUOUS
 10
0.000000
 20
4.988280
  0
VERTEX
  8
FOREGROUND
  6
CONTINUOUS
 10
8.499920
 20
4.988280
  0
VERTEX
  8
FOREGROUND
  6
CONTINUOUS
 10
8.499920
 20
-6.011720
  0
VERTEX
  8
FOREGROUND
  6
CONTINUOUS
 10
0.000000
 20
-6.011720
  0
VERTEX
  8
FOREGROUND
  6
CONTINUOUS
 10
0.000000
 20
4.988280
  0
SEQEND
  8
0
  0
POLYLINE
  8
FOREGROUND
  6
CONTINUOUS
 66
     1
 40
0.000000
 41
0.000000
  0
VERTEX
  8
FOREGROUND
  6
CONTINUOUS
 10
0.000000
 20
4.988280
  0
VERTEX
  8
FOREGROUND
  6
CONTINUOUS
 10
8.499920
 20
4.988280
  0
VERTEX
  8
FOREGROUND
  6
CONTINUOUS
 10
8.499920
 20
-6.011720
  0
VERTEX
  8
FOREGROUND
  6
CONTINUOUS
 10
0.000000
 20
-6.011720
  0
VERTEX
  8
FOREGROUND
  6
CONTINUOUS
 10
0.000000
 20
4.988280
  0
SEQEND
  8
0
  0
SOLID
  8
0
 62
    15
 10
3.436400
 20
3.176800
 11
4.070880
 21
3.553880
 12
3.394600
 22
3.063720
 13
4.029080
 23
3.440360
  0
POLYLINE
  8
0
  6
CONTINUOUS
 66
     1
 40
0.000000
 41
0.000000
  0
VERTEX
  8
0
  6
CONTINUOUS
 10
3.436400
 20
3.176800
  0
VERTEX
  8
0
  6
CONTINUOUS
 10
4.070880
 20
3.553880
  0
VERTEX
  8
0
  6
CONTINUOUS
 10
4.029080
 20
3.440360
  0
VERTEX
  8
0
  6
CONTINUOUS
 10
3.394600
 20
3.063720
  0
VERTEX
  8
0
  6
CONTINUOUS
 10
3.436400
 20
3.176800
  0
SEQEND
  8
0
  0
SOLID
  8
0
 62
    15
 10
1.018600
 20
1.792120
 11
1.653080
 21
2.169200
 12
1.097800
 22
1.792120
 13
1.731840
 23
2.169200
  0
POLYLINE
  8
0
  6
CONTINUOUS
 66
     1
 40
0.000000
 41
0.000000
  0
VERTEX
  8
0
  6
CONTINUOUS
 10
1.018600
 20
1.792120
  0
VERTEX
  8
0
  6
CONTINUOUS
 10
1.653080
 20
2.169200
  0
VERTEX
  8
0
  6
CONTINUOUS
 10
1.731840
 20
2.169200
  0
VERTEX
  8
0
  6
CONTINUOUS
 10
1.097800
 20
1.792120
  0
VERTEX
  8
0
  6
CONTINUOUS
 10
1.018600
 20
1.792120
  0
SEQEND
  8
0
  0
SOLID
  8
0
 62
    15
 10
1.097800
 20
1.912680
 11
1.731840
 21
2.289320
 12
1.272040
 22
1.912680
 13
1.906520
 23
2.289320
  0
POLYLINE
  8
0
  6
CONTINUOUS
 66
     1
 40
0.000000
 41
0.000000
  0
VERTEX
  8
0
  6
CONTINUOUS
 10
1.097800
 20
1.912680
  0
VERTEX
  8
0
  6
CONTINUOUS
 10
1.731840
 20
2.289320
  0
VERTEX
  8
0
  6
CONTINUOUS
 10
1.906520
 20
2.289320
  0
VERTEX
  8
0
  6
CONTINUOUS
 10
1.272040
 20
1.912680
  0
VERTEX
  8
0
  6
CONTINUOUS
 10
1.097800
 20
1.912680
  0
SEQEND
  8
0
  0
SOLID
  8
0
 62
    15
 10
1.272040
 20
1.912680
 11
1.906520
 21
2.289320
 12
1.346840
 22
1.918840
 13
1.981320
 23
2.295920
  0
POLYLINE
  8
0
  6
CONTINUOUS
 66
     1
 40
0.000000
 41
0.000000
  0
VERTEX
  8
0
  6
CONTINUOUS
 10
1.272040
 20
1.912680
  0
VERTEX
  8
0
  6
CONTINUOUS
 10
1.906520
 20
2.289320
  0
VERTEX
  8
0
  6
CONTINUOUS
 10
1.981320
 20
2.295920
  0
VERTEX
  8
0
  6
CONTINUOUS
 10
1.346840
 20
1.918840
  0
VERTEX
  8
0
  6
CONTINUOUS
 10
1.272040
 20
1.912680
  0
SEQEND
  8
0
  0
SOLID
  8
0
 62
    15
 10
1.346840
 20
1.918840
 11
1.981320
 21
2.295920
 12
1.417680
 22
1.936880
 13
2.052160
 23
2.313960
  0
POLYLINE
  8
0
  6
CONTINUOUS
 66
     1
 40
0.000000
 41
0.000000
  0
VERTEX
  8
0
  6
CONTINUOUS
 10
1.346840
 20
1.918840
  0
VERTEX
  8
0
  6
CONTINUOUS
 10
1.981320
 20
2.295920
  0
VERTEX
  8
0
  6
CONTINUOUS
 10
2.052160
 20
2.313960
  0
VERTEX
  8
0
  6
CONTINUOUS
 10
1.417680
 20
1.936880
  0
VERTEX
  8
0
  6
CONTINUOUS
 10
1.346840
 20
1.918840
  0
SEQEND
  8
0
  0
SOLID
  8
0
 62
    15
 10
1.417680
 20
1.936880
 11
2.052160
 21
2.313960
 12
1.544400
 22
2.004200
 13
2.178880
 23
2.380840
  0
POLYLINE
  8
0
  6
CONTINUOUS
 66
     1
 40
0.000000
 41
0.000000
  0
VERTEX
  8
0
  6
CONTINUOUS
 10
1.417680
 20
1.936880
  0
VERTEX
  8
0
  6
CONTINUOUS
 10
2.052160
 20
2.313960
  0
VERTEX
  8
0
  6
CONTINUOUS
 10
2.178880
 20
2.380840
  0
VERTEX
  8
0
  6
CONTINUOUS
 10
1.544400
 20
2.004200
  0
VERTEX
  8
0
  6
CONTINUOUS
 10
1.417680
 20
1.936880
  0
SEQEND
  8
0
  0
SOLID
  8
0
 62
    15
 10
1.653960
 20
3.994760
 11
2.288440
 21
4.371400
 12
1.796080
 22
4.057240
 13
2.430560
 23
4.433880
  0
POLYLINE
  8
0
  6
CONTINUOUS
 66
     1
 40
0.000000
 41
0.000000
  0
VERTEX
  8
0
  6
CONTINUOUS
 10
1.653960
 20
3.994760
  0
VERTEX
  8
0
  6
CONTINUOUS
 10
2.288440
 20
4.371400
  0
VERTEX
  8
0
  6
CONTINUOUS
 10
2.430560
 20
4.433880
  0
VERTEX
  8
0
  6
CONTINUOUS
 10
1.796080
 20
4.057240
  0
VERTEX
  8
0
  6
CONTINUOUS
 10
1.653960
 20
3.994760
  0
SEQEND
  8
0
  0
SOLID
  8
0
 62
    15
 10
1.796080
 20
4.057240
 11
2.430560
 21
4.433880
 12
1.956240
 22
4.104760
 13
2.590720
 23
4.481400
  0
POLYLINE
  8
0
  6
CONTINUOUS
 66
     1
 40
0.000000
 41
0.000000
  0
VERTEX
  8
0
  6
CONTINUOUS
 10
1.796080
 20
4.057240
  0
VERTEX
  8
0
  6
CONTINUOUS
 10
2.430560
 20
4.433880
  0
VERTEX
  8
0
  6
CONTINUOUS
 10
2.590720
 20
4.481400
  0
VERTEX
  8
0
  6
CONTINUOUS
 10
1.956240
 20
4.104760
  0
VERTEX
  8
0
  6
CONTINUOUS
 10
1.796080
 20
4.057240
  0
SEQEND
  8
0
  0
SOLID
  8
0
 62
    15
 10
1.956240
 20
4.104760
 11
2.590720
 21
4.481400
 12
2.133120
 22
4.135120
 13
2.767600
 23
4.512200
  0
POLYLINE
  8
0
  6
CONTINUOUS
 66
     1
 40
0.000000
 41
0.000000
  0
VERTEX
  8
0
  6
CONTINUOUS
 10
1.956240
 20
4.104760
  0
VERTEX
  8
0
  6
CONTINUOUS
 10
2.590720
 20
4.481400
  0
VERTEX
  8
0
  6
CONTINUOUS
 10
2.767600
 20
4.512200
  0
VERTEX
  8
0
  6
CONTINUOUS
 10
2.133120
 20
4.135120
  0
VERTEX
  8
0
  6
CONTINUOUS
 10
1.956240
 20
4.104760
  0
SEQEND
  8
0
  0
SOLID
  8
0
 62
    15
 10
2.133120
 20
4.135120
 11
2.767600
 21
4.512200
 12
2.326280
 22
4.147000
 13
2.960760
 23
4.523640
  0
POLYLINE
  8
0
  6
CONTINUOUS
 66
     1
 40
0.000000
 41
0.000000
  0
VERTEX
  8
0
  6
CONTINUOUS
 10
2.133120
 20
4.135120
  0
VERTEX
  8
0
  6
CONTINUOUS
 10
2.767600
 20
4.512200
  0
VERTEX
  8
0
  6
CONTINUOUS
 10
2.960760
 20
4.523640
  0
VERTEX
  8
0
  6
CONTINUOUS
 10
2.326280
 20
4.147000
  0
VERTEX
  8
0
  6
CONTINUOUS
 10
2.133120
 20
4.135120
  0
SEQEND
  8
0
  0
SOLID
  8
0
 62
    15
 10
2.326280
 20
4.147000
 11
2.960760
 21
4.523640
 12
2.327600
 22
4.146560
 13
2.962080
 23
4.523200
  0
POLYLINE
  8
0
  6
CONTINUOUS
 66
     1
 40
0.000000
 41
0.000000
  0
VERTEX
  8
0
  6
CONTINUOUS
 10
2.326280
 20
4.147000
  0
VERTEX
  8
0
  6
CONTINUOUS
 10
2.960760
 20
4.523640
  0
VERTEX
  8
0
  6
CONTINUOUS
 10
2.962080
 20
4.523200
  0
VERTEX
  8
0
  6
CONTINUOUS
 10
2.327600
 20
4.146560
  0
VERTEX
  8
0
  6
CONTINUOUS
 10
2.326280
 20
4.147000
  0
SEQEND
  8
0
  0
SOLID
  8
0
 62
    15
 10
2.327600
 20
4.146560
 11
2.962080
 21
4.523200
 12
2.520760
 22
4.135120
 13
3.155240
 23
4.511760
  0
POLYLINE
  8
0
  6
CONTINUOUS
 66
     1
 40
0.000000
 41
0.000000
  0
VERTEX
  8
0
  6
CONTINUOUS
 10
2.327600
 20
4.146560
  0
VERTEX
  8
0
  6
CONTINUOUS
 10
2.962080
 20
4.523200
  0
VERTEX
  8
0
  6
CONTINUOUS
 10
3.155240
 20
4.511760
  0
VERTEX
  8
0
  6
CONTINUOUS
 10
2.520760
 20
4.135120
  0
VERTEX
  8
0
  6
CONTINUOUS
 10
2.327600
 20
4.146560
  0
SEQEND
  8
0
  0
SOLID
  8
0
 62
    15
 10
2.520760
 20
4.135120
 11
3.155240
 21
4.511760
 12
2.697640
 22
4.104320
 13
3.332120
 23
4.480960
  0
POLYLINE
  8
0
  6
CONTINUOUS
 66
     1
 40
0.000000
 41
0.000000
  0
VERTEX
  8
0
  6
CONTINUOUS
 10
2.520760
 20
4.135120
  0
VERTEX
  8
0
  6
CONTINUOUS
 10
3.155240
 20
4.511760
  0
VERTEX
  8
0
  6
CONTINUOUS
 10
3.332120
 20
4.480960
  0
VERTEX
  8
0
  6
CONTINUOUS
 10
2.697640
 20
4.104320
  0
VERTEX
  8
0
  6
CONTINUOUS
 10
2.520760
 20
4.135120
  0
SEQEND
  8
0
  0
SOLID
  8
0
 62
    15
 10
2.697640
 20
4.104320
 11
3.332120
 21
4.480960
 12
2.857360
 22
4.056800
 13
3.491840
 23
4.433440
  0
POLYLINE
  8
0
  6
CONTINUOUS
 66
     1
 40
0.000000
 41
0.000000
  0
VERTEX
  8
0
  6
CONTINUOUS
 10
2.697640
 20
4.104320
  0
VERTEX
  8
0
  6
CONTINUOUS
 10
3.332120
 20
4.480960
  0
VERTEX
  8
0
  6
CONTINUOUS
 10
3.491840
 20
4.433440
  0
VERTEX
  8
0
  6
CONTINUOUS
 10
2.857360
 20
4.056800
  0
VERTEX
  8
0
  6
CONTINUOUS
 10
2.697640
 20
4.104320
  0
SEQEND
  8
0
  0
SOLID
  8
0
 62
    15
 10
2.857360
 20
4.056800
 11
3.491840
 21
4.433440
 12
2.999480
 22
3.993880
 13
3.633960
 23
4.370960
  0
POLYLINE
  8
0
  6
CONTINUOUS
 66
     1
 40
0.000000
 41
0.000000
  0
VERTEX
  8
0
  6
CONTINUOUS
 10
2.857360
 20
4.056800
  0
VERTEX
  8
0
  6
CONTINUOUS
 10
3.491840
 20
4.433440
  0
VERTEX
  8
0
  6
CONTINUOUS
 10
3.633960
 20
4.370960
  0
VERTEX
  8
0
  6
CONTINUOUS
 10
2.999480
 20
3.993880
  0
VERTEX
  8
0
  6
CONTINUOUS
 10
2.857360
 20
4.056800
  0
SEQEND
  8
0
  0
SOLID
  8
0
 62
    15
 10
2.999480
 20
3.993880
 11
3.633960
 21
4.370960
 12
3.124000
 22
3.918200
 13
3.758480
 23
4.294840
  0
POLYLINE
  8
0
  6
CONTINUOUS
 66
     1
 40
0.000000
 41
0.000000
  0
VERTEX
  8
0
  6
CONTINUOUS
 10
2.999480
 20
3.993880
  0
VERTEX
  8
0
  6
CONTINUOUS
 10
3.633960
 20
4.370960
  0
VERTEX
  8
0
  6
CONTINUOUS
 10
3.758480
 20
4.294840
  0
VERTEX
  8
0
  6
CONTINUOUS
 10
3.124000
 20
3.918200
  0
VERTEX
  8
0
  6
CONTINUOUS
 10
2.999480
 20
3.993880
  0
SEQEND
  8
0
  0
SOLID
  8
0
 62
    15
 10
3.124000
 20
3.918200
 11
3.758480
 21
4.294840
 12
3.229160
 22
3.831080
 13
3.863640
 23
4.207720
  0
POLYLINE
  8
0
  6
CONTINUOUS
 66
     1
 40
0.000000
 41
0.000000
  0
VERTEX
  8
0
  6
CONTINUOUS
 10
3.124000
 20
3.918200
  0
VERTEX
  8
0
  6
CONTINUOUS
 10
3.758480
 20
4.294840
  0
VERTEX
  8
0
  6
CONTINUOUS
 10
3.863640
 20
4.207720
  0
VERTEX
  8
0
  6
CONTINUOUS
 10
3.229160
 20
3.831080
  0
VERTEX
  8
0
  6
CONTINUOUS
 10
3.124000
 20
3.918200
  0
SEQEND
  8
0
  0
SOLID
  8
0
 62
    15
 10
3.229160
 20
3.831080
 11
3.863640
 21
4.207720
 12
3.315400
 22
3.734280
 13
3.949880
 23
4.111360
  0
POLYLINE
  8
0
  6
CONTINUOUS
 66
     1
 40
0.000000
 41
0.000000
  0
VERTEX
  8
0
  6
CONTINUOUS
 10
3.229160
 20
3.831080
  0
VERTEX
  8
0
  6
CONTINUOUS
 10
3.863640
 20
4.207720
  0
VERTEX
  8
0
  6
CONTINUOUS
 10
3.949880
 20
4.111360
  0
VERTEX
  8
0
  6
CONTINUOUS
 10
3.315400
 20
3.734280
  0
VERTEX
  8
0
  6
CONTINUOUS
 10
3.229160
 20
3.831080
  0
SEQEND
  8
0
  0
SOLID
  8
0
 62
    15
 10
3.315400
 20
3.734280
 11
3.949880
 21
4.111360
 12
3.381840
 22
3.630440
 13
4.016320
 23
4.007080
  0
POLYLINE
  8
0
  6
CONTINUOUS
 66
     1
 40
0.000000
 41
0.000000
  0
VERTEX
  8
0
  6
CONTINUOUS
 10
3.315400
 20
3.734280
  0
VERTEX
  8
0
  6
CONTINUOUS
 10
3.949880
 20
4.111360
  0
VERTEX
  8
0
  6
CONTINUOUS
 10
4.016320
 20
4.007080
  0
VERTEX
  8
0
  6
CONTINUOUS
 10
3.381840
 20
3.630440
  0
VERTEX
  8
0
  6
CONTINUOUS
 10
3.315400
 20
3.734280
  0
SEQEND
  8
0
  0
SOLID
  8
0
 62
    15
 10
3.381840
 20
3.630440
 11
4.016320
 21
4.007080
 12
3.427600
 22
3.520880
 13
4.062080
 23
3.897520
  0
POLYLINE
  8
0
  6
CONTINUOUS
 66
     1
 40
0.000000
 41
0.000000
  0
VERTEX
  8
0
  6
CONTINUOUS
 10
3.381840
 20
3.630440
  0
VERTEX
  8
0
  6
CONTINUOUS
 10
4.016320
 20
4.007080
  0
VERTEX
  8
0
  6
CONTINUOUS
 10
4.062080
 20
3.897520
  0
VERTEX
  8
0
  6
CONTINUOUS
 10
3.427600
 20
3.520880
  0
VERTEX
  8
0
  6
CONTINUOUS
 10
3.381840
 20
3.630440
  0
SEQEND
  8
0
  0
SOLID
  8
0
 62
    15
 10
3.427600
 20
3.520880
 11
4.062080
 21
3.897520
 12
3.452240
 22
3.407360
 13
4.086720
 23
3.784000
  0
POLYLINE
  8
0
  6
CONTINUOUS
 66
     1
 40
0.000000
 41
0.000000
  0
VERTEX
  8
0
  6
CONTINUOUS
 10
3.427600
 20
3.520880
  0
VERTEX
  8
0
  6
CONTINUOUS
 10
4.062080
 20
3.897520
  0
VERTEX
  8
0
  6
CONTINUOUS
 10
4.086720
 20
3.784000
  0
VERTEX
  8
0
  6
CONTINUOUS
 10
3.452240
 20
3.407360
  0
VERTEX
  8
0
  6
CONTINUOUS
 10
3.427600
 20
3.520880
  0
SEQEND
  8
0
  0
SOLID
  8
0
 62
    15
 10
3.452240
 20
3.407360
 11
4.086720
 21
3.784000
 12
3.455760
 22
3.292080
 13
4.089800
 23
3.668720
  0
POLYLINE
  8
0
  6
CONTINUOUS
 66
     1
 40
0.000000
 41
0.000000
  0
VERTEX
  8
0
  6
CONTINUOUS
 10
3.452240
 20
3.407360
  0
VERTEX
  8
0
  6
CONTINUOUS
 10
4.086720
 20
3.784000
  0
VERTEX
  8
0
  6
CONTINUOUS
 10
4.089800
 20
3.668720
  0
VERTEX
  8
0
  6
CONTINUOUS
 10
3.455760
 20
3.292080
  0
VERTEX
  8
0
  6
CONTINUOUS
 10
3.452240
 20
3.407360
  0
SEQEND
  8
0
  0
SOLID
  8
0
 62
    15
 10
3.455760
 20
3.292080
 11
4.089800
 21
3.668720
 12
3.436400
 22
3.176800
 13
4.070880
 23
3.553880
  0
POLYLINE
  8
0
  6
CONTINUOUS
 66
     1
 40
0.000000
 41
0.000000
  0
VERTEX
  8
0
  6
CONTINUOUS
 10
3.455760
 20
3.292080
  0
VERTEX
  8
0
  6
CONTINUOUS
 10
4.089800
 20
3.668720
  0
VERTEX
  8
0
  6
CONTINUOUS
 10
4.070880
 20
3.553880
  0
VERTEX
  8
0
  6
CONTINUOUS
 10
3.436400
 20
3.176800
  0
VERTEX
  8
0
  6
CONTINUOUS
 10
3.455760
 20
3.292080
  0
SEQEND
  8
0
  0
SOLID
  8
0
 62
    15
 10
1.562880
 20
1.111000
 11
2.197360
 21
1.487640
 12
1.562880
 22
0.878240
 13
2.197360
 23
1.254880
  0
POLYLINE
  8
0
  6
CONTINUOUS
 66
     1
 40
0.000000
 41
0.000000
  0
VERTEX
  8
0
  6
CONTINUOUS
 10
1.562880
 20
1.111000
  0
VERTEX
  8
0
  6
CONTINUOUS
 10
2.197360
 20
1.487640
  0
VERTEX
  8
0
  6
CONTINUOUS
 10
2.197360
 20
1.254880
  0
VERTEX
  8
0
  6
CONTINUOUS
 10
1.562880
 20
0.878240
  0
VERTEX
  8
0
  6
CONTINUOUS
 10
1.562880
 20
1.111000
  0
SEQEND
  8
0
  0
SOLID
  8
0
 62
    15
 10
3.394600
 20
3.063720
 11
4.029080
 21
3.440360
 12
3.329480
 22
2.954160
 13
3.963960
 23
3.331240
  0
POLYLINE
  8
0
  6
CONTINUOUS
 66
     1
 40
0.000000
 41
0.000000
  0
VERTEX
  8
0
  6
CONTINUOUS
 10
3.394600
 20
3.063720
  0
VERTEX
  8
0
  6
CONTINUOUS
 10
4.029080
 20
3.440360
  0
VERTEX
  8
0
  6
CONTINUOUS
 10
3.963960
 20
3.331240
  0
VERTEX
  8
0
  6
CONTINUOUS
 10
3.329480
 20
2.954160
  0
VERTEX
  8
0
  6
CONTINUOUS
 10
3.394600
 20
3.063720
  0
SEQEND
  8
0
  0
SOLID
  8
0
 62
    15
 10
3.329480
 20
2.954160
 11
3.963960
 21
3.331240
 12
3.240160
 22
2.850760
 13
3.874640
 23
3.227400
  0
POLYLINE
  8
0
  6
CONTINUOUS
 66
     1
 40
0.000000
 41
0.000000
  0
VERTEX
  8
0
  6
CONTINUOUS
 10
3.329480
 20
2.954160
  0
VERTEX
  8
0
  6
CONTINUOUS
 10
3.963960
 20
3.331240
  0
VERTEX
  8
0
  6
CONTINUOUS
 10
3.874640
 20
3.227400
  0
VERTEX
  8
0
  6
CONTINUOUS
 10
3.240160
 20
2.850760
  0
VERTEX
  8
0
  6
CONTINUOUS
 10
3.329480
 20
2.954160
  0
SEQEND
  8
0
  0
SOLID
  8
0
 62
    15
 10
3.240160
 20
2.850760
 11
3.874640
 21
3.227400
 12
3.126200
 22
2.754840
 13
3.760680
 23
3.131480
  0
POLYLINE
  8
0
  6
CONTINUOUS
 66
     1
 40
0.000000
 41
0.000000
  0
VERTEX
  8
0
  6
CONTINUOUS
 10
3.240160
 20
2.850760
  0
VERTEX
  8
0
  6
CONTINUOUS
 10
3.874640
 20
3.227400
  0
VERTEX
  8
0
  6
CONTINUOUS
 10
3.760680
 20
3.131480
  0
VERTEX
  8
0
  6
CONTINUOUS
 10
3.126200
 20
2.754840
  0
VERTEX
  8
0
  6
CONTINUOUS
 10
3.240160
 20
2.850760
  0
SEQEND
  8
0
  0
SOLID
  8
0
 62
    15
 10
3.126200
 20
2.754840
 11
3.760680
 21
3.131480
 12
3.053600
 22
2.698080
 13
3.687640
 23
3.074720
  0
POLYLINE
  8
0
  6
CONTINUOUS
 66
     1
 40
0.000000
 41
0.000000
  0
VERTEX
  8
0
  6
CONTINUOUS
 10
3.126200
 20
2.754840
  0
VERTEX
  8
0
  6
CONTINUOUS
 10
3.760680
 20
3.131480
  0
VERTEX
  8
0
  6
CONTINUOUS
 10
3.687640
 20
3.074720
  0
VERTEX
  8
0
  6
CONTINUOUS
 10
3.053600
 20
2.698080
  0
VERTEX
  8
0
  6
CONTINUOUS
 10
3.126200
 20
2.754840
  0
SEQEND
  8
0
  0
SOLID
  8
0
 62
    15
 10
3.053600
 20
2.698080
 11
3.687640
 21
3.074720
 12
2.996400
 22
2.636040
 13
3.630880
 23
3.013120
  0
POLYLINE
  8
0
  6
CONTINUOUS
 66
     1
 40
0.000000
 41
0.000000
  0
VERTEX
  8
0
  6
CONTINUOUS
 10
3.053600
 20
2.698080
  0
VERTEX
  8
0
  6
CONTINUOUS
 10
3.687640
 20
3.074720
  0
VERTEX
  8
0
  6
CONTINUOUS
 10
3.630880
 20
3.013120
  0
VERTEX
  8
0
  6
CONTINUOUS
 10
2.996400
 20
2.636040
  0
VERTEX
  8
0
  6
CONTINUOUS
 10
3.053600
 20
2.698080
  0
SEQEND
  8
0
  0
SOLID
  8
0
 62
    15
 10
2.996400
 20
2.636040
 11
3.630880
 21
3.013120
 12
2.954160
 22
2.570480
 13
3.588640
 23
2.947120
  0
POLYLINE
  8
0
  6
CONTINUOUS
 66
     1
 40
0.000000
 41
0.000000
  0
VERTEX
  8
0
  6
CONTINUOUS
 10
2.996400
 20
2.636040
  0
VERTEX
  8
0
  6
CONTINUOUS
 10
3.630880
 20
3.013120
  0
VERTEX
  8
0
  6
CONTINUOUS
 10
3.588640
 20
2.947120
  0
VERTEX
  8
0
  6
CONTINUOUS
 10
2.954160
 20
2.570480
  0
VERTEX
  8
0
  6
CONTINUOUS
 10
2.996400
 20
2.636040
  0
SEQEND
  8
0
  0
SOLID
  8
0
 62
    15
 10
2.954160
 20
2.570480
 11
3.588640
 21
2.947120
 12
2.926440
 22
2.501840
 13
3.560920
 23
2.878920
  0
POLYLINE
  8
0
  6
CONTINUOUS
 66
     1
 40
0.000000
 41
0.000000
  0
VERTEX
  8
0
  6
CONTINUOUS
 10
2.954160
 20
2.570480
  0
VERTEX
  8
0
  6
CONTINUOUS
 10
3.588640
 20
2.947120
  0
VERTEX
  8
0
  6
CONTINUOUS
 10
3.560920
 20
2.878920
  0
VERTEX
  8
0
  6
CONTINUOUS
 10
2.926440
 20
2.501840
  0
VERTEX
  8
0
  6
CONTINUOUS
 10
2.954160
 20
2.570480
  0
SEQEND
  8
0
  0
SOLID
  8
0
 62
    15
 10
2.926440
 20
2.501840
 11
3.560920
 21
2.878920
 12
2.909280
 22
2.361920
 13
3.543760
 23
2.738560
  0
POLYLINE
  8
0
  6
CONTINUOUS
 66
     1
 40
0.000000
 41
0.000000
  0
VERTEX
  8
0
  6
CONTINUOUS
 10
2.926440
 20
2.501840
  0
VERTEX
  8
0
  6
CONTINUOUS
 10
3.560920
 20
2.878920
  0
VERTEX
  8
0
  6
CONTINUOUS
 10
3.543760
 20
2.738560
  0
VERTEX
  8
0
  6
CONTINUOUS
 10
2.909280
 20
2.361920
  0
VERTEX
  8
0
  6
CONTINUOUS
 10
2.926440
 20
2.501840
  0
SEQEND
  8
0
  0
SOLID
  8
0
 62
    15
 10
2.909280
 20
2.361920
 11
3.543760
 21
2.738560
 12
2.938320
 22
2.225520
 13
3.572800
 23
2.602600
  0
POLYLINE
  8
0
  6
CONTINUOUS
 66
     1
 40
0.000000
 41
0.000000
  0
VERTEX
  8
0
  6
CONTINUOUS
 10
2.909280
 20
2.361920
  0
VERTEX
  8
0
  6
CONTINUOUS
 10
3.543760
 20
2.738560
  0
VERTEX
  8
0
  6
CONTINUOUS
 10
3.572800
 20
2.602600
  0
VERTEX
  8
0
  6
CONTINUOUS
 10
2.938320
 20
2.225520
  0
VERTEX
  8
0
  6
CONTINUOUS
 10
2.909280
 20
2.361920
  0
SEQEND
  8
0
  0
SOLID
  8
0
 62
    15
 10
2.938320
 20
2.225520
 11
3.572800
 21
2.602600
 12
3.006520
 22
2.102760
 13
3.641000
 23
2.479400
  0
POLYLINE
  8
0
  6
CONTINUOUS
 66
     1
 40
0.000000
 41
0.000000
  0
VERTEX
  8
0
  6
CONTINUOUS
 10
2.938320
 20
2.225520
  0
VERTEX
  8
0
  6
CONTINUOUS
 10
3.572800
 20
2.602600
  0
VERTEX
  8
0
  6
CONTINUOUS
 10
3.641000
 20
2.479400
  0
VERTEX
  8
0
  6
CONTINUOUS
 10
3.006520
 20
2.102760
  0
VERTEX
  8
0
  6
CONTINUOUS
 10
2.938320
 20
2.225520
  0
SEQEND
  8
0
  0
SOLID
  8
0
 62
    15
 10
3.006520
 20
2.102760
 11
3.641000
 21
2.479400
 12
3.107720
 22
2.002880
 13
3.741760
 23
2.379520
  0
POLYLINE
  8
0
  6
CONTINUOUS
 66
     1
 40
0.000000
 41
0.000000
  0
VERTEX
  8
0
  6
CONTINUOUS
 10
3.006520
 20
2.102760
  0
VERTEX
  8
0
  6
CONTINUOUS
 10
3.641000
 20
2.479400
  0
VERTEX
  8
0
  6
CONTINUOUS
 10
3.741760
 20
2.379520
  0
VERTEX
  8
0
  6
CONTINUOUS
 10
3.107720
 20
2.002880
  0
VERTEX
  8
0
  6
CONTINUOUS
 10
3.006520
 20
2.102760
  0
SEQEND
  8
0
  0
SOLID
  8
0
 62
    15
 10
3.107720
 20
2.002880
 11
3.741760
 21
2.379520
 12
3.234000
 22
1.936000
 13
3.868480
 23
2.312640
  0
POLYLINE
  8
0
  6
CONTINUOUS
 66
     1
 40
0.000000
 41
0.000000
  0
VERTEX
  8
0
  6
CONTINUOUS
 10
3.107720
 20
2.002880
  0
VERTEX
  8
0
  6
CONTINUOUS
 10
3.741760
 20
2.379520
  0
VERTEX
  8
0
  6
CONTINUOUS
 10
3.868480
 20
2.312640
  0
VERTEX
  8
0
  6
CONTINUOUS
 10
3.234000
 20
1.936000
  0
VERTEX
  8
0
  6
CONTINUOUS
 10
3.107720
 20
2.002880
  0
SEQEND
  8
0
  0
SOLID
  8
0
 62
    15
 10
3.234000
 20
1.936000
 11
3.868480
 21
2.312640
 12
3.304840
 22
1.917520
 13
3.939320
 23
2.294600
  0
POLYLINE
  8
0
  6
CONTINUOUS
 66
     1
 40
0.000000
 41
0.000000
  0
VERTEX
  8
0
  6
CONTINUOUS
 10
3.234000
 20
1.936000
  0
VERTEX
  8
0
  6
CONTINUOUS
 10
3.868480
 20
2.312640
  0
VERTEX
  8
0
  6
CONTINUOUS
 10
3.939320
 20
2.294600
  0
VERTEX
  8
0
  6
CONTINUOUS
 10
3.304840
 20
1.917520
  0
VERTEX
  8
0
  6
CONTINUOUS
 10
3.234000
 20
1.936000
  0
SEQEND
  8
0
  0
SOLID
  8
0
 62
    15
 10
3.304840
 20
1.917520
 11
3.939320
 21
2.294600
 12
3.379640
 22
1.911360
 13
4.014120
 23
2.288000
  0
POLYLINE
  8
0
  6
CONTINUOUS
 66
     1
 40
0.000000
 41
0.000000
  0
VERTEX
  8
0
  6
CONTINUOUS
 10
3.304840
 20
1.917520
  0
VERTEX
  8
0
  6
CONTINUOUS
 10
3.939320
 20
2.294600
  0
VERTEX
  8
0
  6
CONTINUOUS
 10
4.014120
 20
2.288000
  0
VERTEX
  8
0
  6
CONTINUOUS
 10
3.379640
 20
1.911360
  0
VERTEX
  8
0
  6
CONTINUOUS
 10
3.304840
 20
1.917520
  0
SEQEND
  8
0
  0
SOLID
  8
0
 62
    15
 10
3.379640
 20
1.911360
 11
4.014120
 21
2.288000
 12
3.554320
 22
1.911360
 13
4.188800
 23
2.288000
  0
POLYLINE
  8
0
  6
CONTINUOUS
 66
     1
 40
0.000000
 41
0.000000
  0
VERTEX
  8
0
  6
CONTINUOUS
 10
3.379640
 20
1.911360
  0
VERTEX
  8
0
  6
CONTINUOUS
 10
4.014120
 20
2.288000
  0
VERTEX
  8
0
  6
CONTINUOUS
 10
4.188800
 20
2.288000
  0
VERTEX
  8
0
  6
CONTINUOUS
 10
3.554320
 20
1.911360
  0
VERTEX
  8
0
  6
CONTINUOUS
 10
3.379640
 20
1.911360
  0
SEQEND
  8
0
  0
SOLID
  8
0
 62
    15
 10
3.554320
 20
1.911360
 11
4.188800
 21
2.288000
 12
3.554320
 22
1.790800
 13
4.188800
 23
2.167880
  0
POLYLINE
  8
0
  6
CONTINUOUS
 66
     1
 40
0.000000
 41
0.000000
  0
VERTEX
  8
0
  6
CONTINUOUS
 10
3.554320
 20
1.911360
  0
VERTEX
  8
0
  6
CONTINUOUS
 10
4.188800
 20
2.288000
  0
VERTEX
  8
0
  6
CONTINUOUS
 10
4.188800
 20
2.167880
  0
VERTEX
  8
0
  6
CONTINUOUS
 10
3.554320
 20
1.790800
  0
VERTEX
  8
0
  6
CONTINUOUS
 10
3.554320
 20
1.911360
  0
SEQEND
  8
0
  0
SOLID
  8
0
 62
    15
 10
3.554320
 20
1.790800
 11
4.188800
 21
2.167880
 12
3.633080
 22
1.790800
 13
4.267560
 23
2.167880
  0
POLYLINE
  8
0
  6
CONTINUOUS
 66
     1
 40
0.000000
 41
0.000000
  0
VERTEX
  8
0
  6
CONTINUOUS
 10
3.554320
 20
1.790800
  0
VERTEX
  8
0
  6
CONTINUOUS
 10
4.188800
 20
2.167880
  0
VERTEX
  8
0
  6
CONTINUOUS
 10
4.267560
 20
2.167880
  0
VERTEX
  8
0
  6
CONTINUOUS
 10
3.633080
 20
1.790800
  0
VERTEX
  8
0
  6
CONTINUOUS
 10
3.554320
 20
1.790800
  0
SEQEND
  8
0
  0
SOLID
  8
0
 62
    15
 10
3.549920
 20
1.279960
 11
4.184400
 21
1.656600
 12
3.543760
 22
1.178760
 13
4.178240
 23
1.555840
  0
POLYLINE
  8
0
  6
CONTINUOUS
 66
     1
 40
0.000000
 41
0.000000
  0
VERTEX
  8
0
  6
CONTINUOUS
 10
3.549920
 20
1.279960
  0
VERTEX
  8
0
  6
CONTINUOUS
 10
4.184400
 20
1.656600
  0
VERTEX
  8
0
  6
CONTINUOUS
 10
4.178240
 20
1.555840
  0
VERTEX
  8
0
  6
CONTINUOUS
 10
3.543760
 20
1.178760
  0
VERTEX
  8
0
  6
CONTINUOUS
 10
3.549920
 20
1.279960
  0
SEQEND
  8
0
  0
SOLID
  8
0
 62
    15
 10
3.633080
 20
1.790800
 11
4.267560
 21
2.167880
 12
3.633080
 22
1.279960
 13
4.267560
 23
1.656600
  0
POLYLINE
  8
0
  6
CONTINUOUS
 66
     1
 40
0.000000
 41
0.000000
  0
VERTEX
  8
0
  6
CONTINUOUS
 10
3.633080
 20
1.790800
  0
VERTEX
  8
0
  6
CONTINUOUS
 10
4.267560
 20
2.167880
  0
VERTEX
  8
0
  6
CONTINUOUS
 10
4.267560
 20
1.656600
  0
VERTEX
  8
0
  6
CONTINUOUS
 10
3.633080
 20
1.279960
  0
VERTEX
  8
0
  6
CONTINUOUS
 10
3.633080
 20
1.790800
  0
SEQEND
  8
0
  0
SOLID
  8
0
 62
    15
 10
3.338280
 20
0.980760
 11
3.972760
 21
1.357840
 12
3.338280
 22
0.876920
 13
3.972760
 23
1.254000
  0
POLYLINE
  8
0
  6
CONTINUOUS
 66
     1
 40
0.000000
 41
0.000000
  0
VERTEX
  8
0
  6
CONTINUOUS
 10
3.338280
 20
0.980760
  0
VERTEX
  8
0
  6
CONTINUOUS
 10
3.972760
 20
1.357840
  0
VERTEX
  8
0
  6
CONTINUOUS
 10
3.972760
 20
1.254000
  0
VERTEX
  8
0
  6
CONTINUOUS
 10
3.338280
 20
0.876920
  0
VERTEX
  8
0
  6
CONTINUOUS
 10
3.338280
 20
0.980760
  0
SEQEND
  8
0
  0
SOLID
  8
0
 62
    15
 10
3.484800
 20
1.041480
 11
4.119280
 21
1.418560
 12
3.446960
 22
1.009360
 13
4.081440
 23
1.386440
  0
POLYLINE
  8
0
  6
CONTINUOUS
 66
     1
 40
0.000000
 41
0.000000
  0
VERTEX
  8
0
  6
CONTINUOUS
 10
3.484800
 20
1.041480
  0
VERTEX
  8
0
  6
CONTINUOUS
 10
4.119280
 20
1.418560
  0
VERTEX
  8
0
  6
CONTINUOUS
 10
4.081440
 20
1.386440
  0
VERTEX
  8
0
  6
CONTINUOUS
 10
3.446960
 20
1.009360
  0
VERTEX
  8
0
  6
CONTINUOUS
 10
3.484800
 20
1.041480
  0
SEQEND
  8
0
  0
SOLID
  8
0
 62
    15
 10
3.512520
 20
1.081960
 11
4.147000
 21
1.459040
 12
3.484800
 22
1.041480
 13
4.119280
 23
1.418560
  0
POLYLINE
  8
0
  6
CONTINUOUS
 66
     1
 40
0.000000
 41
0.000000
  0
VERTEX
  8
0
  6
CONTINUOUS
 10
3.512520
 20
1.081960
  0
VERTEX
  8
0
  6
CONTINUOUS
 10
4.147000
 20
1.459040
  0
VERTEX
  8
0
  6
CONTINUOUS
 10
4.119280
 20
1.418560
  0
VERTEX
  8
0
  6
CONTINUOUS
 10
3.484800
 20
1.041480
  0
VERTEX
  8
0
  6
CONTINUOUS
 10
3.512520
 20
1.081960
  0
SEQEND
  8
0
  0
SOLID
  8
0
 62
    15
 10
3.543760
 20
1.178760
 11
4.178240
 21
1.555840
 12
3.512520
 22
1.081960
 13
4.147000
 23
1.459040
  0
POLYLINE
  8
0
  6
CONTINUOUS
 66
     1
 40
0.000000
 41
0.000000
  0
VERTEX
  8
0
  6
CONTINUOUS
 10
3.543760
 20
1.178760
  0
VERTEX
  8
0
  6
CONTINUOUS
 10
4.178240
 20
1.555840
  0
VERTEX
  8
0
  6
CONTINUOUS
 10
4.147000
 20
1.459040
  0
VERTEX
  8
0
  6
CONTINUOUS
 10
3.512520
 20
1.081960
  0
VERTEX
  8
0
  6
CONTINUOUS
 10
3.543760
 20
1.178760
  0
SEQEND
  8
0
  0
POLYLINE
  8
0
  6
CONTINUOUS
 66
     1
 40
0.000000
 41
0.000000
  0
VERTEX
  8
0
  6
CONTINUOUS
 10
3.085280
 20
1.111000
  0
VERTEX
  8
0
  6
CONTINUOUS
 10
1.562880
 20
1.111000
  0
VERTEX
  8
0
  6
CONTINUOUS
 10
1.562880
 20
0.878240
  0
VERTEX
  8
0
  6
CONTINUOUS
 10
1.313840
 20
0.878240
  0
VERTEX
  8
0
  6
CONTINUOUS
 10
1.313840
 20
0.982080
  0
VERTEX
  8
0
  6
CONTINUOUS
 10
1.253120
 20
0.989560
  0
VERTEX
  8
0
  6
CONTINUOUS
 10
1.204720
 20
1.010680
  0
VERTEX
  8
0
  6
CONTINUOUS
 10
1.166880
 20
1.042800
  0
VERTEX
  8
0
  6
CONTINUOUS
 10
1.139160
 20
1.083280
  0
VERTEX
  8
0
  6
CONTINUOUS
 10
1.107920
 20
1.180080
  0
VERTEX
  8
0
  6
CONTINUOUS
 10
1.101760
 20
1.281280
  0
VERTEX
  8
0
  6
CONTINUOUS
 10
1.018600
 20
1.281280
  0
VERTEX
  8
0
  6
CONTINUOUS
 10
1.018600
 20
1.792120
  0
VERTEX
  8
0
  6
CONTINUOUS
 10
1.097800
 20
1.792120
  0
VERTEX
  8
0
  6
CONTINUOUS
 10
1.097800
 20
1.912680
  0
VERTEX
  8
0
  6
CONTINUOUS
 10
1.272040
 20
1.912680
  0
VERTEX
  8
0
  6
CONTINUOUS
 10
1.346840
 20
1.918840
  0
VERTEX
  8
0
  6
CONTINUOUS
 10
1.417680
 20
1.936880
  0
VERTEX
  8
0
  6
CONTINUOUS
 10
1.544400
 20
2.004200
  0
VERTEX
  8
0
  6
CONTINUOUS
 10
1.645160
 20
2.104080
  0
VERTEX
  8
0
  6
CONTINUOUS
 10
1.713360
 20
2.226840
  0
VERTEX
  8
0
  6
CONTINUOUS
 10
1.742400
 20
2.363240
  0
VERTEX
  8
0
  6
CONTINUOUS
 10
1.725680
 20
2.503160
  0
VERTEX
  8
0
  6
CONTINUOUS
 10
1.697520
 20
2.571800
  0
VERTEX
  8
0
  6
CONTINUOUS
 10
1.655280
 20
2.637360
  0
VERTEX
  8
0
  6
CONTINUOUS
 10
1.598520
 20
2.699400
  0
VERTEX
  8
0
  6
CONTINUOUS
 10
1.525480
 20
2.756160
  0
VERTEX
  8
0
  6
CONTINUOUS
 10
1.411520
 20
2.852080
  0
VERTEX
  8
0
  6
CONTINUOUS
 10
1.322200
 20
2.955480
  0
VERTEX
  8
0
  6
CONTINUOUS
 10
1.257080
 20
3.065040
  0
VERTEX
  8
0
  6
CONTINUOUS
 10
1.215280
 20
3.178120
  0
VERTEX
  8
0
  6
CONTINUOUS
 10
1.196360
 20
3.292960
  0
VERTEX
  8
0
  6
CONTINUOUS
 10
1.199880
 20
3.408240
  0
VERTEX
  8
0
  6
CONTINUOUS
 10
1.224520
 20
3.521760
  0
VERTEX
  8
0
  6
CONTINUOUS
 10
1.270720
 20
3.631320
  0
VERTEX
  8
0
  6
CONTINUOUS
 10
1.337160
 20
3.735160
  0
VERTEX
  8
0
  6
CONTINUOUS
 10
1.423840
 20
3.831960
  0
VERTEX
  8
0
  6
CONTINUOUS
 10
1.529440
 20
3.918640
  0
VERTEX
  8
0
  6
CONTINUOUS
 10
1.653960
 20
3.994760
  0
VERTEX
  8
0
  6
CONTINUOUS
 10
1.796080
 20
4.057240
  0
VERTEX
  8
0
  6
CONTINUOUS
 10
1.956240
 20
4.104760
  0
VERTEX
  8
0
  6
CONTINUOUS
 10
2.133120
 20
4.135120
  0
VERTEX
  8
0
  6
CONTINUOUS
 10
2.327600
 20
4.146560
  0
VERTEX
  8
0
  6
CONTINUOUS
 10
2.520760
 20
4.135120
  0
VERTEX
  8
0
  6
CONTINUOUS
 10
2.697640
 20
4.104320
  0
VERTEX
  8
0
  6
CONTINUOUS
 10
2.857360
 20
4.056800
  0
VERTEX
  8
0
  6
CONTINUOUS
 10
2.999480
 20
3.993880
  0
VERTEX
  8
0
  6
CONTINUOUS
 10
3.124000
 20
3.918200
  0
VERTEX
  8
0
  6
CONTINUOUS
 10
3.229160
 20
3.831080
  0
VERTEX
  8
0
  6
CONTINUOUS
 10
3.315400
 20
3.734280
  0
VERTEX
  8
0
  6
CONTINUOUS
 10
3.381840
 20
3.630440
  0
VERTEX
  8
0
  6
CONTINUOUS
 10
3.427600
 20
3.520880
  0
VERTEX
  8
0
  6
CONTINUOUS
 10
3.452240
 20
3.407360
  0
VERTEX
  8
0
  6
CONTINUOUS
 10
3.455760
 20
3.292080
  0
VERTEX
  8
0
  6
CONTINUOUS
 10
3.436400
 20
3.176800
  0
VERTEX
  8
0
  6
CONTINUOUS
 10
3.394600
 20
3.063720
  0
VERTEX
  8
0
  6
CONTINUOUS
 10
3.329480
 20
2.954160
  0
VERTEX
  8
0
  6
CONTINUOUS
 10
3.240160
 20
2.850760
  0
VERTEX
  8
0
  6
CONTINUOUS
 10
3.126200
 20
2.754840
  0
VERTEX
  8
0
  6
CONTINUOUS
 10
3.053600
 20
2.698080
  0
VERTEX
  8
0
  6
CONTINUOUS
 10
2.996400
 20
2.636040
  0
VERTEX
  8
0
  6
CONTINUOUS
 10
2.954160
 20
2.570480
  0
VERTEX
  8
0
  6
CONTINUOUS
 10
2.926440
 20
2.501840
  0
VERTEX
  8
0
  6
CONTINUOUS
 10
2.909280
 20
2.361920
  0
VERTEX
  8
0
  6
CONTINUOUS
 10
2.938320
 20
2.225520
  0
VERTEX
  8
0
  6
CONTINUOUS
 10
3.006520
 20
2.102760
  0
VERTEX
  8
0
  6
CONTINUOUS
 10
3.107720
 20
2.002880
  0
VERTEX
  8
0
  6
CONTINUOUS
 10
3.234000
 20
1.936000
  0
VERTEX
  8
0
  6
CONTINUOUS
 10
3.304840
 20
1.917520
  0
VERTEX
  8
0
  6
CONTINUOUS
 10
3.379640
 20
1.911360
  0
VERTEX
  8
0
  6
CONTINUOUS
 10
3.554320
 20
1.911360
  0
VERTEX
  8
0
  6
CONTINUOUS
 10
3.554320
 20
1.790800
  0
VERTEX
  8
0
  6
CONTINUOUS
 10
3.633080
 20
1.790800
  0
VERTEX
  8
0
  6
CONTINUOUS
 10
3.633080
 20
1.279960
  0
VERTEX
  8
0
  6
CONTINUOUS
 10
3.549920
 20
1.279960
  0
VERTEX
  8
0
  6
CONTINUOUS
 10
3.543760
 20
1.178760
  0
VERTEX
  8
0
  6
CONTINUOUS
 10
3.512520
 20
1.081960
  0
VERTEX
  8
0
  6
CONTINUOUS
 10
3.484800
 20
1.041480
  0
VERTEX
  8
0
  6
CONTINUOUS
 10
3.446960
 20
1.009360
  0
VERTEX
  8
0
  6
CONTINUOUS
 10
3.398560
 20
0.988240
  0
VERTEX
  8
0
  6
CONTINUOUS
 10
3.338280
 20
0.980760
  0
VERTEX
  8
0
  6
CONTINUOUS
 10
3.338280
 20
0.876920
  0
VERTEX
  8
0
  6
CONTINUOUS
 10
3.088800
 20
0.876920
  0
VERTEX
  8
0
  6
CONTINUOUS
 10
3.088800
 20
1.109680
  0
VERTEX
  8
0
  6
CONTINUOUS
 10
3.085280
 20
1.111000
  0
SEQEND
  8
0
  0
TEXT
  8
0
 10
2.347840
 20
0.627000
 40
0.138012
  1
BA  961
 41
1.000000
  7
SN0
 71
     0
 72
     5
 11
2.937334
 21
0.627000
  0
TEXT
  8
0
 10
2.071960
 20
0.435600
 40
0.138012
  1
2-9/16" x 3-1/4"
 41
1.000000
  7
SN0
 71
     0
 72
     5
 11
3.210387
 21
0.435600
  0
POLYLINE
  8
0
  6
CONTINUOUS
 66
     1
 40
0.014080
 41
0.014080
  0
VERTEX
  8
0
  6
CONTINUOUS
 10
7.337440
 20
1.556720
  0
VERTEX
  8
0
  6
CONTINUOUS
 10
5.815040
 20
1.556720
  0
VERTEX
  8
0
  6
CONTINUOUS
 10
5.815040
 20
1.323960
  0
VERTEX
  8
0
  6
CONTINUOUS
 10
5.566000
 20
1.323960
  0
VERTEX
  8
0
  6
CONTINUOUS
 10
5.566000
 20
1.427800
  0
VERTEX
  8
0
  6
CONTINUOUS
 10
5.534320
 20
1.429560
  0
VERTEX
  8
0
  6
CONTINUOUS
 10
5.505280
 20
1.435280
  0
VERTEX
  8
0
  6
CONTINUOUS
 10
5.479760
 20
1.444520
  0
VERTEX
  8
0
  6
CONTINUOUS
 10
5.456880
 20
1.456400
  0
VERTEX
  8
0
  6
CONTINUOUS
 10
5.436640
 20
1.471360
  0
VERTEX
  8
0
  6
CONTINUOUS
 10
5.411560
 20
1.497760
  0
VERTEX
  8
0
  6
CONTINUOUS
 10
5.391320
 20
1.529000
  0
VERTEX
  8
0
  6
CONTINUOUS
 10
5.380760
 20
1.551880
  0
VERTEX
  8
0
  6
CONTINUOUS
 10
5.365360
 20
1.600280
  0
VERTEX
  8
0
  6
CONTINUOUS
 10
5.360080
 20
1.625800
  0
VERTEX
  8
0
  6
CONTINUOUS
 10
5.354360
 20
1.677280
  0
VERTEX
  8
0
  6
CONTINUOUS
 10
5.353920
 20
1.727000
  0
VERTEX
  8
0
  6
CONTINUOUS
 10
5.270760
 20
1.727000
  0
VERTEX
  8
0
  6
CONTINUOUS
 10
5.270760
 20
2.237840
  0
VERTEX
  8
0
  6
CONTINUOUS
 10
5.349960
 20
2.237840
  0
VERTEX
  8
0
  6
CONTINUOUS
 10
5.349960
 20
2.358400
  0
VERTEX
  8
0
  6
CONTINUOUS
 10
5.543120
 20
2.358840
  0
VERTEX
  8
0
  6
CONTINUOUS
 10
5.580520
 20
2.361920
  0
VERTEX
  8
0
  6
CONTINUOUS
 10
5.617040
 20
2.368080
  0
VERTEX
  8
0
  6
CONTINUOUS
 10
5.652680
 20
2.377320
  0
VERTEX
  8
0
  6
CONTINUOUS
 10
5.703280
 20
2.395800
  0
VERTEX
  8
0
  6
CONTINUOUS
 10
5.751680
 20
2.420440
  0
VERTEX
  8
0
  6
CONTINUOUS
 10
5.796560
 20
2.449920
  0
VERTEX
  8
0
  6
CONTINUOUS
 10
5.824280
 20
2.471920
  0
VERTEX
  8
0
  6
CONTINUOUS
 10
5.850680
 20
2.496120
  0
VERTEX
  8
0
  6
CONTINUOUS
 10
5.886320
 20
2.535720
  0
VERTEX
  8
0
  6
CONTINUOUS
 10
5.917560
 20
2.578400
  0
VERTEX
  8
0
  6
CONTINUOUS
 10
5.944400
 20
2.624160
  0
VERTEX
  8
0
  6
CONTINUOUS
 10
5.965960
 20
2.672560
  0
VERTEX
  8
0
  6
CONTINUOUS
 10
5.981800
 20
2.722720
  0
VERTEX
  8
0
  6
CONTINUOUS
 10
5.991480
 20
2.774200
  0
VERTEX
  8
0
  6
CONTINUOUS
 10
5.993680
 20
2.791360
  0
VERTEX
  8
0
  6
CONTINUOUS
 10
5.995440
 20
2.826560
  0
VERTEX
  8
0
  6
CONTINUOUS
 10
5.994120
 20
2.861760
  0
VERTEX
  8
0
  6
CONTINUOUS
 10
5.986640
 20
2.914120
  0
VERTEX
  8
0
  6
CONTINUOUS
 10
5.977840
 20
2.948880
  0
VERTEX
  8
0
  6
CONTINUOUS
 10
5.965520
 20
2.983640
  0
VERTEX
  8
0
  6
CONTINUOUS
 10
5.949680
 20
3.017520
  0
VERTEX
  8
0
  6
CONTINUOUS
 10
5.919320
 20
3.067240
  0
VERTEX
  8
0
  6
CONTINUOUS
 10
5.894680
 20
3.099360
  0
VERTEX
  8
0
  6
CONTINUOUS
 10
5.850680
 20
3.145120
  0
VERTEX
  8
0
  6
CONTINUOUS
 10
5.797440
 20
3.188240
  0
VERTEX
  8
0
  6
CONTINUOUS
 10
5.746840
 20
3.225200
  0
VERTEX
  8
0
  6
CONTINUOUS
 10
5.690080
 20
3.273160
  0
VERTEX
  8
0
  6
CONTINUOUS
 10
5.639040
 20
3.322880
  0
VERTEX
  8
0
  6
CONTINUOUS
 10
5.594600
 20
3.374800
  0
VERTEX
  8
0
  6
CONTINUOUS
 10
5.555880
 20
3.428040
  0
VERTEX
  8
0
  6
CONTINUOUS
 10
5.523320
 20
3.483040
  0
VERTEX
  8
0
  6
CONTINUOUS
 10
5.496480
 20
3.538480
  0
VERTEX
  8
0
  6
CONTINUOUS
 10
5.475800
 20
3.595240
  0
VERTEX
  8
0
  6
CONTINUOUS
 10
5.467440
 20
3.623840
  0
VERTEX
  8
0
  6
CONTINUOUS
 10
5.455120
 20
3.681040
  0
VERTEX
  8
0
  6
CONTINUOUS
 10
5.448520
 20
3.739120
  0
VERTEX
  8
0
  6
CONTINUOUS
 10
5.447200
 20
3.767720
  0
VERTEX
  8
0
  6
CONTINUOUS
 10
5.448960
 20
3.825360
  0
VERTEX
  8
0
  6
CONTINUOUS
 10
5.456000
 20
3.882560
  0
VERTEX
  8
0
  6
CONTINUOUS
 10
5.468760
 20
3.939320
  0
VERTEX
  8
0
  6
CONTINUOUS
 10
5.486360
 20
3.995200
  0
VERTEX
  8
0
  6
CONTINUOUS
 10
5.509680
 20
4.050200
  0
VERTEX
  8
0
  6
CONTINUOUS
 10
5.537840
 20
4.103440
  0
VERTEX
  8
0
  6
CONTINUOUS
 10
5.571280
 20
4.155800
  0
VERTEX
  8
0
  6
CONTINUOUS
 10
5.609560
 20
4.205960
  0
VERTEX
  8
0
  6
CONTINUOUS
 10
5.652680
 20
4.253920
  0
VERTEX
  8
0
  6
CONTINUOUS
 10
5.700640
 20
4.300120
  0
VERTEX
  8
0
  6
CONTINUOUS
 10
5.753440
 20
4.343680
  0
VERTEX
  8
0
  6
CONTINUOUS
 10
5.811080
 20
4.384600
  0
VERTEX
  8
0
  6
CONTINUOUS
 10
5.873120
 20
4.422440
  0
VERTEX
  8
0
  6
CONTINUOUS
 10
5.940000
 20
4.457200
  0
VERTEX
  8
0
  6
CONTINUOUS
 10
6.011280
 20
4.488440
  0
VERTEX
  8
0
  6
CONTINUOUS
 10
6.086960
 20
4.516160
  0
VERTEX
  8
0
  6
CONTINUOUS
 10
6.167040
 20
4.539920
  0
VERTEX
  8
0
  6
CONTINUOUS
 10
6.251520
 20
4.559720
  0
VERTEX
  8
0
  6
CONTINUOUS
 10
6.295080
 20
4.568080
  0
VERTEX
  8
0
  6
CONTINUOUS
 10
6.385720
 20
4.580840
  0
VERTEX
  8
0
  6
CONTINUOUS
 10
6.432360
 20
4.585680
  0
VERTEX
  8
0
  6
CONTINUOUS
 10
6.529160
 20
4.591840
  0
VERTEX
  8
0
  6
CONTINUOUS
 10
6.580200
 20
4.592280
  0
VERTEX
  8
0
  6
CONTINUOUS
 10
6.629920
 20
4.591400
  0
VERTEX
  8
0
  6
CONTINUOUS
 10
6.726720
 20
4.585240
  0
VERTEX
  8
0
  6
CONTINUOUS
 10
6.819120
 20
4.574680
  0
VERTEX
  8
0
  6
CONTINUOUS
 10
6.907560
 20
4.559280
  0
VERTEX
  8
0
  6
CONTINUOUS
 10
6.991600
 20
4.539480
  0
VERTEX
  8
0
  6
CONTINUOUS
 10
7.071680
 20
4.515720
  0
VERTEX
  8
0
  6
CONTINUOUS
 10
7.109960
 20
4.502520
  0
VERTEX
  8
0
  6
CONTINUOUS
 10
7.183000
 20
4.473040
  0
VERTEX
  8
0
  6
CONTINUOUS
 10
7.252080
 20
4.439600
  0
VERTEX
  8
0
  6
CONTINUOUS
 10
7.316320
 20
4.403520
  0
VERTEX
  8
0
  6
CONTINUOUS
 10
7.376160
 20
4.363920
  0
VERTEX
  8
0
  6
CONTINUOUS
 10
7.431160
 20
4.321680
  0
VERTEX
  8
0
  6
CONTINUOUS
 10
7.481760
 20
4.276800
  0
VERTEX
  8
0
  6
CONTINUOUS
 10
7.527080
 20
4.229720
  0
VERTEX
  8
0
  6
CONTINUOUS
 10
7.568000
 20
4.180000
  0
VERTEX
  8
0
  6
CONTINUOUS
 10
7.603640
 20
4.128960
  0
VERTEX
  8
0
  6
CONTINUOUS
 10
7.634000
 20
4.076160
  0
VERTEX
  8
0
  6
CONTINUOUS
 10
7.647640
 20
4.049320
  0
VERTEX
  8
0
  6
CONTINUOUS
 10
7.670520
 20
3.994320
  0
VERTEX
  8
0
  6
CONTINUOUS
 10
7.680200
 20
3.966600
  0
VERTEX
  8
0
  6
CONTINUOUS
 10
7.695160
 20
3.910280
  0
VERTEX
  8
0
  6
CONTINUOUS
 10
7.704840
 20
3.853080
  0
VERTEX
  8
0
  6
CONTINUOUS
 10
7.709240
 20
3.795440
  0
VERTEX
  8
0
  6
CONTINUOUS
 10
7.707920
 20
3.737800
  0
VERTEX
  8
0
  6
CONTINUOUS
 10
7.701320
 20
3.680160
  0
VERTEX
  8
0
  6
CONTINUOUS
 10
7.689000
 20
3.622520
  0
VERTEX
  8
0
  6
CONTINUOUS
 10
7.670960
 20
3.565760
  0
VERTEX
  8
0
  6
CONTINUOUS
 10
7.646760
 20
3.509440
  0
VERTEX
  8
0
  6
CONTINUOUS
 10
7.617280
 20
3.454000
  0
VERTEX
  8
0
  6
CONTINUOUS
 10
7.581640
 20
3.399880
  0
VERTEX
  8
0
  6
CONTINUOUS
 10
7.539840
 20
3.347520
  0
VERTEX
  8
0
  6
CONTINUOUS
 10
7.516960
 20
3.321560
  0
VERTEX
  8
0
  6
CONTINUOUS
 10
7.465920
 20
3.271840
  0
VERTEX
  8
0
  6
CONTINUOUS
 10
7.409160
 20
3.223880
  0
VERTEX
  8
0
  6
CONTINUOUS
 10
7.322040
 20
3.158320
  0
VERTEX
  8
0
  6
CONTINUOUS
 10
7.289920
 20
3.128840
  0
VERTEX
  8
0
  6
CONTINUOUS
 10
7.261320
 20
3.098040
  0
VERTEX
  8
0
  6
CONTINUOUS
 10
7.225680
 20
3.049640
  0
VERTEX
  8
0
  6
CONTINUOUS
 10
7.197960
 20
2.999480
  0
VERTEX
  8
0
  6
CONTINUOUS
 10
7.178600
 20
2.947560
  0
VERTEX
  8
0
  6
CONTINUOUS
 10
7.169360
 20
2.912800
  0
VERTEX
  8
0
  6
CONTINUOUS
 10
7.161880
 20
2.860440
  0
VERTEX
  8
0
  6
CONTINUOUS
 10
7.161000
 20
2.825240
  0
VERTEX
  8
0
  6
CONTINUOUS
 10
7.162760
 20
2.790040
  0
VERTEX
  8
0
  6
CONTINUOUS
 10
7.167160
 20
2.755720
  0
VERTEX
  8
0
  6
CONTINUOUS
 10
7.179040
 20
2.704240
  0
VERTEX
  8
0
  6
CONTINUOUS
 10
7.197080
 20
2.654960
  0
VERTEX
  8
0
  6
CONTINUOUS
 10
7.219960
 20
2.607440
  0
VERTEX
  8
0
  6
CONTINUOUS
 10
7.248560
 20
2.562560
  0
VERTEX
  8
0
  6
CONTINUOUS
 10
7.281120
 20
2.520760
  0
VERTEX
  8
0
  6
CONTINUOUS
 10
7.305760
 20
2.494800
  0
VERTEX
  8
0
  6
CONTINUOUS
 10
7.345360
 20
2.459600
  0
VERTEX
  8
0
  6
CONTINUOUS
 10
7.389360
 20
2.428360
  0
VERTEX
  8
0
  6
CONTINUOUS
 10
7.420160
 20
2.410320
  0
VERTEX
  8
0
  6
CONTINUOUS
 10
7.452720
 20
2.394480
  0
VERTEX
  8
0
  6
CONTINUOUS
 10
7.503760
 20
2.376000
  0
VERTEX
  8
0
  6
CONTINUOUS
 10
7.557000
 20
2.363240
  0
VERTEX
  8
0
  6
CONTINUOUS
 10
7.593960
 20
2.358840
  0
VERTEX
  8
0
  6
CONTINUOUS
 10
7.631800
 20
2.357080
  0
VERTEX
  8
0
  6
CONTINUOUS
 10
7.806480
 20
2.357080
  0
VERTEX
  8
0
  6
CONTINUOUS
 10
7.806480
 20
2.236520
  0
VERTEX
  8
0
  6
CONTINUOUS
 10
7.885240
 20
2.236520
  0
VERTEX
  8
0
  6
CONTINUOUS
 10
7.885240
 20
1.725680
  0
VERTEX
  8
0
  6
CONTINUOUS
 10
7.802520
 20
1.725680
  0
VERTEX
  8
0
  6
CONTINUOUS
 10
7.802960
 20
1.701040
  0
VERTEX
  8
0
  6
CONTINUOUS
 10
7.799880
 20
1.650000
  0
VERTEX
  8
0
  6
CONTINUOUS
 10
7.796360
 20
1.624480
  0
VERTEX
  8
0
  6
CONTINUOUS
 10
7.791080
 20
1.598960
  0
VERTEX
  8
0
  6
CONTINUOUS
 10
7.775680
 20
1.550560
  0
VERTEX
  8
0
  6
CONTINUOUS
 10
7.758960
 20
1.517120
  0
VERTEX
  8
0
  6
CONTINUOUS
 10
7.744880
 20
1.496440
  0
VERTEX
  8
0
  6
CONTINUOUS
 10
7.719800
 20
1.470040
  0
VERTEX
  8
0
  6
CONTINUOUS
 10
7.699560
 20
1.455080
  0
VERTEX
  8
0
  6
CONTINUOUS
 10
7.676680
 20
1.443200
  0
VERTEX
  8
0
  6
CONTINUOUS
 10
7.651160
 20
1.433960
  0
VERTEX
  8
0
  6
CONTINUOUS
 10
7.622120
 20
1.428240
  0
VERTEX
  8
0
  6
CONTINUOUS
 10
7.590440
 20
1.426480
  0
VERTEX
  8
0
  6
CONTINUOUS
 10
7.590440
 20
1.322640
  0
VERTEX
  8
0
  6
CONTINUOUS
 10
7.340960
 20
1.322640
  0
VERTEX
  8
0
  6
CONTINUOUS
 10
7.340960
 20
1.555400
  0
VERTEX
  8
0
  6
CONTINUOUS
 10
7.337440
 20
1.556720
  0
SEQEND
  8
0
  0
TEXT
  8
0
 10
6.282760
 20
1.898600
 40
0.138012
  1
BA  961
 41
1.000000
  7
SN0
 71
     0
 72
     5
 11
6.872254
 21
1.898600
  0
TEXT
  8
0
 10
6.006880
 20
1.707200
 40
0.138012
  1
2-9/16" x 3-1/4"
 41
1.000000
  7
SN0
 71
     0
 72
     5
 11
7.145307
 21
1.707200
  0
ENDSEC
  0
EOF
