  0
SECTION
  2
HEADER
  9
$ACADVER
  1
AC1006
  9
$EXTMIN
 10
4.852760
 20
0.520520
  9
$EXTMAX
 10
8.115800
 20
3.131920
  9
$LTSCALE
 40
0.044000
  9
$PDMODE
 70
    35
  9
$PDSIZE
 40
0.035200
  0
ENDSEC
  0
SECTION
  2
TABLES
  0
TABLE
  2
LTYPE
 70
     9
  0
LTYPE
  2
CONTINUOUS
 70
    64
  3
Solid line
 72
    65
 73
     0
 40
0.000000
  0
LTYPE
  2
DASHED
 70
    64
  3
__ __ __ __ __ __ __ __ __ __ __ __ __ __ __
 72
    65
 73
     2
 40
0.000330
 49
0.000220
 49
-0.000110
  0
LTYPE
  2
HIDDEN
 70
    64
  3
 _ _ _ _ _ _ _ _ _ _ _ _ _ _ _ _ _ _ _ _ _ _
 72
    65
 73
     2
 40
0.000165
 49
0.000110
 49
-0.000055
  0
LTYPE
  2
CENTER
 70
    64
  3
____ _ ____ _ ____ _ ____ _ ____ _ ____ _ ____
 72
    65
 73
     4
 40
0.000880
 49
0.000550
 49
-0.000110
 49
0.000110
 49
-0.000110
  0
LTYPE
  2
PHANTOM
 70
    64
  3
_____ _ _ _____ _ _ _____ _ _ _____ _ _ ____
 72
    65
 73
     6
 40
0.001100
 49
0.000550
 49
-0.000110
 49
0.000110
 49
-0.000110
 49
0.000110
 49
-0.000110
  0
LTYPE
  2
DOT
 70
    64
  3
...............................................
 72
    65
 73
     2
 40
0.000110
 49
0.000000
 49
-0.000110
  0
LTYPE
  2
DASHDOT
 70
    64
  3
__ . __ . __ . __ . __ . __ . __ . __ . __ . __
 72
    65
 73
     4
 40
0.000440
 49
0.000220
 49
-0.000110
 49
0.000000
 49
-0.000110
  0
LTYPE
  2
BORDER
 70
    64
  3
__ __ . __ __ . __ __ . __ __ . __ __ . __ __
 72
    65
 73
     6
 40
0.000770
 49
0.000220
 49
-0.000110
 49
0.000220
 49
-0.000110
 49
0.000000
 49
-0.000110
  0
LTYPE
  2
DIVIDE
 70
    64
  3
__ . . __ . . __ . . __ . . __ . . __ . . __
 72
    65
 73
     6
 40
0.000550
 49
0.000220
 49
-0.000110
 49
0.000000
 49
-0.000110
 49
0.000000
 49
-0.000110
  0
LTYPE
  2
DOTDOT
 70
    64
  3
 . .  . .  . .  . .  . .  . . 
 72
    65
 73
     5
 40
0.000242
 49
-0.000110
 49
0.000000
 49
-0.000110
 49
0.000000
 49
-0.000110
  0
ENDTAB
  0
TABLE
  2
STYLE
 70
     2
  0
STYLE
 70
     0
  2
SN0
 40
0.000000
 41
0.000440
 50
0.000000
 71
     0
 42
0.000000
  3
ROMAND
  0
STYLE
 70
    68
  2
SV0
 40
0.000000
 41
0.000440
 50
0.000000
 71
     0
 42
0.000000
  3
ROMAND
  0
ENDTAB
  0
TABLE
  2
LAYER
 70
     3
  0
LAYER
  2
FOREGROUND
 70
    64
 62
     7
  6
CONTINUOUS
  0
LAYER
  2
BACKGROUND
 70
    65
 62
    -7
  6
CONTINUOUS
  0
LAYER
  2
0
 70
    64
 62
     7
  6
CONTINUOUS
  0
ENDTAB
  0
ENDSEC
  0
SECTION
  2
ENTITIES
  0
POLYLINE
  8
FOREGROUND
  6
CONTINUOUS
 66
     1
 40
0.000000
 41
0.000000
  0
VERTEX
  8
FOREGROUND
  6
CONTINUOUS
 10
0.000000
 20
3.652440
  0
VERTEX
  8
FOREGROUND
  6
CONTINUOUS
 10
8.499920
 20
3.652440
  0
VERTEX
  8
FOREGROUND
  6
CONTINUOUS
 10
8.499920
 20
-7.347560
  0
VERTEX
  8
FOREGROUND
  6
CONTINUOUS
 10
0.000000
 20
-7.347560
  0
VERTEX
  8
FOREGROUND
  6
CONTINUOUS
 10
0.000000
 20
3.652440
  0
SEQEND
  8
0
  0
POLYLINE
  8
FOREGROUND
  6
CONTINUOUS
 66
     1
 40
0.000000
 41
0.000000
  0
VERTEX
  8
FOREGROUND
  6
CONTINUOUS
 10
0.000000
 20
3.652440
  0
VERTEX
  8
FOREGROUND
  6
CONTINUOUS
 10
8.499920
 20
3.652440
  0
VERTEX
  8
FOREGROUND
  6
CONTINUOUS
 10
8.499920
 20
-7.347560
  0
VERTEX
  8
FOREGROUND
  6
CONTINUOUS
 10
0.000000
 20
-7.347560
  0
VERTEX
  8
FOREGROUND
  6
CONTINUOUS
 10
0.000000
 20
3.652440
  0
SEQEND
  8
0
  0
SOLID
  8
0
 62
    15
 10
7.271880
 20
1.363560
 11
7.274520
 21
2.106720
 12
7.284200
 22
1.353440
 13
7.286400
 23
2.096160
  0
POLYLINE
  8
0
  6
CONTINUOUS
 66
     1
 40
0.000000
 41
0.000000
  0
VERTEX
  8
0
  6
CONTINUOUS
 10
7.271880
 20
1.363560
  0
VERTEX
  8
0
  6
CONTINUOUS
 10
7.274520
 20
2.106720
  0
VERTEX
  8
0
  6
CONTINUOUS
 10
7.286400
 20
2.096160
  0
VERTEX
  8
0
  6
CONTINUOUS
 10
7.284200
 20
1.353440
  0
VERTEX
  8
0
  6
CONTINUOUS
 10
7.271880
 20
1.363560
  0
SEQEND
  8
0
  0
SOLID
  8
0
 62
    15
 10
5.393080
 20
1.536040
 11
5.395720
 21
2.279200
 12
5.402760
 22
1.525040
 13
5.404960
 23
2.267760
  0
POLYLINE
  8
0
  6
CONTINUOUS
 66
     1
 40
0.000000
 41
0.000000
  0
VERTEX
  8
0
  6
CONTINUOUS
 10
5.393080
 20
1.536040
  0
VERTEX
  8
0
  6
CONTINUOUS
 10
5.395720
 20
2.279200
  0
VERTEX
  8
0
  6
CONTINUOUS
 10
5.404960
 20
2.267760
  0
VERTEX
  8
0
  6
CONTINUOUS
 10
5.402760
 20
1.525040
  0
VERTEX
  8
0
  6
CONTINUOUS
 10
5.393080
 20
1.536040
  0
SEQEND
  8
0
  0
SOLID
  8
0
 62
    15
 10
5.402760
 20
1.525040
 11
5.404960
 21
2.267760
 12
5.408040
 22
1.518000
 13
5.410240
 23
2.260720
  0
POLYLINE
  8
0
  6
CONTINUOUS
 66
     1
 40
0.000000
 41
0.000000
  0
VERTEX
  8
0
  6
CONTINUOUS
 10
5.402760
 20
1.525040
  0
VERTEX
  8
0
  6
CONTINUOUS
 10
5.404960
 20
2.267760
  0
VERTEX
  8
0
  6
CONTINUOUS
 10
5.410240
 20
2.260720
  0
VERTEX
  8
0
  6
CONTINUOUS
 10
5.408040
 20
1.518000
  0
VERTEX
  8
0
  6
CONTINUOUS
 10
5.402760
 20
1.525040
  0
SEQEND
  8
0
  0
SOLID
  8
0
 62
    15
 10
5.408040
 20
1.518000
 11
5.410240
 21
2.260720
 12
5.413760
 22
1.510520
 13
5.416400
 23
2.253240
  0
POLYLINE
  8
0
  6
CONTINUOUS
 66
     1
 40
0.000000
 41
0.000000
  0
VERTEX
  8
0
  6
CONTINUOUS
 10
5.408040
 20
1.518000
  0
VERTEX
  8
0
  6
CONTINUOUS
 10
5.410240
 20
2.260720
  0
VERTEX
  8
0
  6
CONTINUOUS
 10
5.416400
 20
2.253240
  0
VERTEX
  8
0
  6
CONTINUOUS
 10
5.413760
 20
1.510520
  0
VERTEX
  8
0
  6
CONTINUOUS
 10
5.408040
 20
1.518000
  0
SEQEND
  8
0
  0
SOLID
  8
0
 62
    15
 10
5.413760
 20
1.510520
 11
5.416400
 21
2.253240
 12
5.429160
 22
1.493800
 13
5.431360
 23
2.236520
  0
POLYLINE
  8
0
  6
CONTINUOUS
 66
     1
 40
0.000000
 41
0.000000
  0
VERTEX
  8
0
  6
CONTINUOUS
 10
5.413760
 20
1.510520
  0
VERTEX
  8
0
  6
CONTINUOUS
 10
5.416400
 20
2.253240
  0
VERTEX
  8
0
  6
CONTINUOUS
 10
5.431360
 20
2.236520
  0
VERTEX
  8
0
  6
CONTINUOUS
 10
5.429160
 20
1.493800
  0
VERTEX
  8
0
  6
CONTINUOUS
 10
5.413760
 20
1.510520
  0
SEQEND
  8
0
  0
SOLID
  8
0
 62
    15
 10
5.429160
 20
1.493800
 11
5.431360
 21
2.236520
 12
5.449840
 22
1.476640
 13
5.452040
 23
2.219360
  0
POLYLINE
  8
0
  6
CONTINUOUS
 66
     1
 40
0.000000
 41
0.000000
  0
VERTEX
  8
0
  6
CONTINUOUS
 10
5.429160
 20
1.493800
  0
VERTEX
  8
0
  6
CONTINUOUS
 10
5.431360
 20
2.236520
  0
VERTEX
  8
0
  6
CONTINUOUS
 10
5.452040
 20
2.219360
  0
VERTEX
  8
0
  6
CONTINUOUS
 10
5.449840
 20
1.476640
  0
VERTEX
  8
0
  6
CONTINUOUS
 10
5.429160
 20
1.493800
  0
SEQEND
  8
0
  0
SOLID
  8
0
 62
    15
 10
5.449840
 20
1.476640
 11
5.452040
 21
2.219360
 12
5.477560
 22
1.460360
 13
5.480200
 23
2.203520
  0
POLYLINE
  8
0
  6
CONTINUOUS
 66
     1
 40
0.000000
 41
0.000000
  0
VERTEX
  8
0
  6
CONTINUOUS
 10
5.449840
 20
1.476640
  0
VERTEX
  8
0
  6
CONTINUOUS
 10
5.452040
 20
2.219360
  0
VERTEX
  8
0
  6
CONTINUOUS
 10
5.480200
 20
2.203520
  0
VERTEX
  8
0
  6
CONTINUOUS
 10
5.477560
 20
1.460360
  0
VERTEX
  8
0
  6
CONTINUOUS
 10
5.449840
 20
1.476640
  0
SEQEND
  8
0
  0
SOLID
  8
0
 62
    15
 10
5.477560
 20
1.460360
 11
5.480200
 21
2.203520
 12
5.494720
 22
1.453320
 13
5.497360
 23
2.196040
  0
POLYLINE
  8
0
  6
CONTINUOUS
 66
     1
 40
0.000000
 41
0.000000
  0
VERTEX
  8
0
  6
CONTINUOUS
 10
5.477560
 20
1.460360
  0
VERTEX
  8
0
  6
CONTINUOUS
 10
5.480200
 20
2.203520
  0
VERTEX
  8
0
  6
CONTINUOUS
 10
5.497360
 20
2.196040
  0
VERTEX
  8
0
  6
CONTINUOUS
 10
5.494720
 20
1.453320
  0
VERTEX
  8
0
  6
CONTINUOUS
 10
5.477560
 20
1.460360
  0
SEQEND
  8
0
  0
SOLID
  8
0
 62
    15
 10
5.494720
 20
1.453320
 11
5.497360
 21
2.196040
 12
5.514520
 22
1.447160
 13
5.516720
 23
2.189880
  0
POLYLINE
  8
0
  6
CONTINUOUS
 66
     1
 40
0.000000
 41
0.000000
  0
VERTEX
  8
0
  6
CONTINUOUS
 10
5.494720
 20
1.453320
  0
VERTEX
  8
0
  6
CONTINUOUS
 10
5.497360
 20
2.196040
  0
VERTEX
  8
0
  6
CONTINUOUS
 10
5.516720
 20
2.189880
  0
VERTEX
  8
0
  6
CONTINUOUS
 10
5.514520
 20
1.447160
  0
VERTEX
  8
0
  6
CONTINUOUS
 10
5.494720
 20
1.453320
  0
SEQEND
  8
0
  0
SOLID
  8
0
 62
    15
 10
5.514520
 20
1.447160
 11
5.516720
 21
2.189880
 12
5.536520
 22
1.441880
 13
5.539160
 23
2.185040
  0
POLYLINE
  8
0
  6
CONTINUOUS
 66
     1
 40
0.000000
 41
0.000000
  0
VERTEX
  8
0
  6
CONTINUOUS
 10
5.514520
 20
1.447160
  0
VERTEX
  8
0
  6
CONTINUOUS
 10
5.516720
 20
2.189880
  0
VERTEX
  8
0
  6
CONTINUOUS
 10
5.539160
 20
2.185040
  0
VERTEX
  8
0
  6
CONTINUOUS
 10
5.536520
 20
1.441880
  0
VERTEX
  8
0
  6
CONTINUOUS
 10
5.514520
 20
1.447160
  0
SEQEND
  8
0
  0
SOLID
  8
0
 62
    15
 10
5.536520
 20
1.441880
 11
5.539160
 21
2.185040
 12
5.561600
 22
1.437920
 13
5.564240
 23
2.181080
  0
POLYLINE
  8
0
  6
CONTINUOUS
 66
     1
 40
0.000000
 41
0.000000
  0
VERTEX
  8
0
  6
CONTINUOUS
 10
5.536520
 20
1.441880
  0
VERTEX
  8
0
  6
CONTINUOUS
 10
5.539160
 20
2.185040
  0
VERTEX
  8
0
  6
CONTINUOUS
 10
5.564240
 20
2.181080
  0
VERTEX
  8
0
  6
CONTINUOUS
 10
5.561600
 20
1.437920
  0
VERTEX
  8
0
  6
CONTINUOUS
 10
5.536520
 20
1.441880
  0
SEQEND
  8
0
  0
SOLID
  8
0
 62
    15
 10
5.561600
 20
1.437920
 11
5.564240
 21
2.181080
 12
5.589760
 22
1.435280
 13
5.592400
 23
2.178440
  0
POLYLINE
  8
0
  6
CONTINUOUS
 66
     1
 40
0.000000
 41
0.000000
  0
VERTEX
  8
0
  6
CONTINUOUS
 10
5.561600
 20
1.437920
  0
VERTEX
  8
0
  6
CONTINUOUS
 10
5.564240
 20
2.181080
  0
VERTEX
  8
0
  6
CONTINUOUS
 10
5.592400
 20
2.178440
  0
VERTEX
  8
0
  6
CONTINUOUS
 10
5.589760
 20
1.435280
  0
VERTEX
  8
0
  6
CONTINUOUS
 10
5.561600
 20
1.437920
  0
SEQEND
  8
0
  0
SOLID
  8
0
 62
    15
 10
5.589760
 20
1.435280
 11
5.592400
 21
2.178440
 12
5.621440
 22
1.434400
 13
5.623640
 23
2.177560
  0
POLYLINE
  8
0
  6
CONTINUOUS
 66
     1
 40
0.000000
 41
0.000000
  0
VERTEX
  8
0
  6
CONTINUOUS
 10
5.589760
 20
1.435280
  0
VERTEX
  8
0
  6
CONTINUOUS
 10
5.592400
 20
2.178440
  0
VERTEX
  8
0
  6
CONTINUOUS
 10
5.623640
 20
2.177560
  0
VERTEX
  8
0
  6
CONTINUOUS
 10
5.621440
 20
1.434400
  0
VERTEX
  8
0
  6
CONTINUOUS
 10
5.589760
 20
1.435280
  0
SEQEND
  8
0
  0
SOLID
  8
0
 62
    15
 10
5.621440
 20
1.434400
 11
5.623640
 21
2.177560
 12
6.903600
 22
1.434840
 13
6.906240
 23
2.177560
  0
POLYLINE
  8
0
  6
CONTINUOUS
 66
     1
 40
0.000000
 41
0.000000
  0
VERTEX
  8
0
  6
CONTINUOUS
 10
5.621440
 20
1.434400
  0
VERTEX
  8
0
  6
CONTINUOUS
 10
5.623640
 20
2.177560
  0
VERTEX
  8
0
  6
CONTINUOUS
 10
6.906240
 20
2.177560
  0
VERTEX
  8
0
  6
CONTINUOUS
 10
6.903600
 20
1.434840
  0
VERTEX
  8
0
  6
CONTINUOUS
 10
5.621440
 20
1.434400
  0
SEQEND
  8
0
  0
SOLID
  8
0
 62
    15
 10
6.903600
 20
1.434840
 11
6.906240
 21
2.177560
 12
6.911520
 22
1.434840
 13
6.914160
 23
2.177560
  0
POLYLINE
  8
0
  6
CONTINUOUS
 66
     1
 40
0.000000
 41
0.000000
  0
VERTEX
  8
0
  6
CONTINUOUS
 10
6.903600
 20
1.434840
  0
VERTEX
  8
0
  6
CONTINUOUS
 10
6.906240
 20
2.177560
  0
VERTEX
  8
0
  6
CONTINUOUS
 10
6.914160
 20
2.177560
  0
VERTEX
  8
0
  6
CONTINUOUS
 10
6.911520
 20
1.434840
  0
VERTEX
  8
0
  6
CONTINUOUS
 10
6.903600
 20
1.434840
  0
SEQEND
  8
0
  0
SOLID
  8
0
 62
    15
 10
6.911520
 20
1.434840
 11
6.914160
 21
2.177560
 12
6.927360
 22
1.434400
 13
6.929560
 23
2.177560
  0
POLYLINE
  8
0
  6
CONTINUOUS
 66
     1
 40
0.000000
 41
0.000000
  0
VERTEX
  8
0
  6
CONTINUOUS
 10
6.911520
 20
1.434840
  0
VERTEX
  8
0
  6
CONTINUOUS
 10
6.914160
 20
2.177560
  0
VERTEX
  8
0
  6
CONTINUOUS
 10
6.929560
 20
2.177560
  0
VERTEX
  8
0
  6
CONTINUOUS
 10
6.927360
 20
1.434400
  0
VERTEX
  8
0
  6
CONTINUOUS
 10
6.911520
 20
1.434840
  0
SEQEND
  8
0
  0
SOLID
  8
0
 62
    15
 10
6.927360
 20
1.434400
 11
6.929560
 21
2.177560
 12
6.960360
 22
1.429560
 13
6.963000
 23
2.172280
  0
POLYLINE
  8
0
  6
CONTINUOUS
 66
     1
 40
0.000000
 41
0.000000
  0
VERTEX
  8
0
  6
CONTINUOUS
 10
6.927360
 20
1.434400
  0
VERTEX
  8
0
  6
CONTINUOUS
 10
6.929560
 20
2.177560
  0
VERTEX
  8
0
  6
CONTINUOUS
 10
6.963000
 20
2.172280
  0
VERTEX
  8
0
  6
CONTINUOUS
 10
6.960360
 20
1.429560
  0
VERTEX
  8
0
  6
CONTINUOUS
 10
6.927360
 20
1.434400
  0
SEQEND
  8
0
  0
SOLID
  8
0
 62
    15
 10
6.960360
 20
1.429560
 11
6.963000
 21
2.172280
 12
6.978840
 22
1.422520
 13
6.981040
 23
2.165680
  0
POLYLINE
  8
0
  6
CONTINUOUS
 66
     1
 40
0.000000
 41
0.000000
  0
VERTEX
  8
0
  6
CONTINUOUS
 10
6.960360
 20
1.429560
  0
VERTEX
  8
0
  6
CONTINUOUS
 10
6.963000
 20
2.172280
  0
VERTEX
  8
0
  6
CONTINUOUS
 10
6.981040
 20
2.165680
  0
VERTEX
  8
0
  6
CONTINUOUS
 10
6.978840
 20
1.422520
  0
VERTEX
  8
0
  6
CONTINUOUS
 10
6.960360
 20
1.429560
  0
SEQEND
  8
0
  0
SOLID
  8
0
 62
    15
 10
6.978840
 20
1.422520
 11
6.981040
 21
2.165680
 12
6.998640
 22
1.411520
 13
7.000840
 23
2.154680
  0
POLYLINE
  8
0
  6
CONTINUOUS
 66
     1
 40
0.000000
 41
0.000000
  0
VERTEX
  8
0
  6
CONTINUOUS
 10
6.978840
 20
1.422520
  0
VERTEX
  8
0
  6
CONTINUOUS
 10
6.981040
 20
2.165680
  0
VERTEX
  8
0
  6
CONTINUOUS
 10
7.000840
 20
2.154680
  0
VERTEX
  8
0
  6
CONTINUOUS
 10
6.998640
 20
1.411520
  0
VERTEX
  8
0
  6
CONTINUOUS
 10
6.978840
 20
1.422520
  0
SEQEND
  8
0
  0
SOLID
  8
0
 62
    15
 10
6.998640
 20
1.411520
 11
7.000840
 21
2.154680
 12
7.020200
 22
1.395680
 13
7.022400
 23
2.138400
  0
POLYLINE
  8
0
  6
CONTINUOUS
 66
     1
 40
0.000000
 41
0.000000
  0
VERTEX
  8
0
  6
CONTINUOUS
 10
6.998640
 20
1.411520
  0
VERTEX
  8
0
  6
CONTINUOUS
 10
7.000840
 20
2.154680
  0
VERTEX
  8
0
  6
CONTINUOUS
 10
7.022400
 20
2.138400
  0
VERTEX
  8
0
  6
CONTINUOUS
 10
7.020200
 20
1.395680
  0
VERTEX
  8
0
  6
CONTINUOUS
 10
6.998640
 20
1.411520
  0
SEQEND
  8
0
  0
SOLID
  8
0
 62
    15
 10
7.020200
 20
1.395680
 11
7.022400
 21
2.138400
 12
7.044400
 22
1.373680
 13
7.046600
 23
2.116400
  0
POLYLINE
  8
0
  6
CONTINUOUS
 66
     1
 40
0.000000
 41
0.000000
  0
VERTEX
  8
0
  6
CONTINUOUS
 10
7.020200
 20
1.395680
  0
VERTEX
  8
0
  6
CONTINUOUS
 10
7.022400
 20
2.138400
  0
VERTEX
  8
0
  6
CONTINUOUS
 10
7.046600
 20
2.116400
  0
VERTEX
  8
0
  6
CONTINUOUS
 10
7.044400
 20
1.373680
  0
VERTEX
  8
0
  6
CONTINUOUS
 10
7.020200
 20
1.395680
  0
SEQEND
  8
0
  0
SOLID
  8
0
 62
    15
 10
7.044400
 20
1.373680
 11
7.046600
 21
2.116400
 12
7.237560
 22
1.373680
 13
7.240200
 23
2.116400
  0
POLYLINE
  8
0
  6
CONTINUOUS
 66
     1
 40
0.000000
 41
0.000000
  0
VERTEX
  8
0
  6
CONTINUOUS
 10
7.044400
 20
1.373680
  0
VERTEX
  8
0
  6
CONTINUOUS
 10
7.046600
 20
2.116400
  0
VERTEX
  8
0
  6
CONTINUOUS
 10
7.240200
 20
2.116400
  0
VERTEX
  8
0
  6
CONTINUOUS
 10
7.237560
 20
1.373680
  0
VERTEX
  8
0
  6
CONTINUOUS
 10
7.044400
 20
1.373680
  0
SEQEND
  8
0
  0
SOLID
  8
0
 62
    15
 10
7.237560
 20
1.373680
 11
7.240200
 21
2.116400
 12
7.256480
 22
1.371040
 13
7.259120
 23
2.113760
  0
POLYLINE
  8
0
  6
CONTINUOUS
 66
     1
 40
0.000000
 41
0.000000
  0
VERTEX
  8
0
  6
CONTINUOUS
 10
7.237560
 20
1.373680
  0
VERTEX
  8
0
  6
CONTINUOUS
 10
7.240200
 20
2.116400
  0
VERTEX
  8
0
  6
CONTINUOUS
 10
7.259120
 20
2.113760
  0
VERTEX
  8
0
  6
CONTINUOUS
 10
7.256480
 20
1.371040
  0
VERTEX
  8
0
  6
CONTINUOUS
 10
7.237560
 20
1.373680
  0
SEQEND
  8
0
  0
SOLID
  8
0
 62
    15
 10
7.256480
 20
1.371040
 11
7.259120
 21
2.113760
 12
7.271880
 22
1.363560
 13
7.274520
 23
2.106720
  0
POLYLINE
  8
0
  6
CONTINUOUS
 66
     1
 40
0.000000
 41
0.000000
  0
VERTEX
  8
0
  6
CONTINUOUS
 10
7.256480
 20
1.371040
  0
VERTEX
  8
0
  6
CONTINUOUS
 10
7.259120
 20
2.113760
  0
VERTEX
  8
0
  6
CONTINUOUS
 10
7.274520
 20
2.106720
  0
VERTEX
  8
0
  6
CONTINUOUS
 10
7.271880
 20
1.363560
  0
VERTEX
  8
0
  6
CONTINUOUS
 10
7.256480
 20
1.371040
  0
SEQEND
  8
0
  0
SOLID
  8
0
 62
    15
 10
4.854520
 20
1.536040
 11
4.856720
 21
2.279200
 12
5.393080
 22
1.536040
 13
5.395720
 23
2.279200
  0
POLYLINE
  8
0
  6
CONTINUOUS
 66
     1
 40
0.000000
 41
0.000000
  0
VERTEX
  8
0
  6
CONTINUOUS
 10
4.854520
 20
1.536040
  0
VERTEX
  8
0
  6
CONTINUOUS
 10
4.856720
 20
2.279200
  0
VERTEX
  8
0
  6
CONTINUOUS
 10
5.395720
 20
2.279200
  0
VERTEX
  8
0
  6
CONTINUOUS
 10
5.393080
 20
1.536040
  0
VERTEX
  8
0
  6
CONTINUOUS
 10
4.854520
 20
1.536040
  0
SEQEND
  8
0
  0
SOLID
  8
0
 62
    15
 10
7.284200
 20
1.353440
 11
7.286400
 21
2.096160
 12
7.293000
 22
1.341120
 13
7.295200
 23
2.083840
  0
POLYLINE
  8
0
  6
CONTINUOUS
 66
     1
 40
0.000000
 41
0.000000
  0
VERTEX
  8
0
  6
CONTINUOUS
 10
7.284200
 20
1.353440
  0
VERTEX
  8
0
  6
CONTINUOUS
 10
7.286400
 20
2.096160
  0
VERTEX
  8
0
  6
CONTINUOUS
 10
7.295200
 20
2.083840
  0
VERTEX
  8
0
  6
CONTINUOUS
 10
7.293000
 20
1.341120
  0
VERTEX
  8
0
  6
CONTINUOUS
 10
7.284200
 20
1.353440
  0
SEQEND
  8
0
  0
SOLID
  8
0
 62
    15
 10
7.293000
 20
1.341120
 11
7.295200
 21
2.083840
 12
7.299160
 22
1.327920
 13
7.301360
 23
2.071080
  0
POLYLINE
  8
0
  6
CONTINUOUS
 66
     1
 40
0.000000
 41
0.000000
  0
VERTEX
  8
0
  6
CONTINUOUS
 10
7.293000
 20
1.341120
  0
VERTEX
  8
0
  6
CONTINUOUS
 10
7.295200
 20
2.083840
  0
VERTEX
  8
0
  6
CONTINUOUS
 10
7.301360
 20
2.071080
  0
VERTEX
  8
0
  6
CONTINUOUS
 10
7.299160
 20
1.327920
  0
VERTEX
  8
0
  6
CONTINUOUS
 10
7.293000
 20
1.341120
  0
SEQEND
  8
0
  0
SOLID
  8
0
 62
    15
 10
7.299160
 20
1.327920
 11
7.301360
 21
2.071080
 12
7.302680
 22
1.315600
 13
7.304880
 23
2.058760
  0
POLYLINE
  8
0
  6
CONTINUOUS
 66
     1
 40
0.000000
 41
0.000000
  0
VERTEX
  8
0
  6
CONTINUOUS
 10
7.299160
 20
1.327920
  0
VERTEX
  8
0
  6
CONTINUOUS
 10
7.301360
 20
2.071080
  0
VERTEX
  8
0
  6
CONTINUOUS
 10
7.304880
 20
2.058760
  0
VERTEX
  8
0
  6
CONTINUOUS
 10
7.302680
 20
1.315600
  0
VERTEX
  8
0
  6
CONTINUOUS
 10
7.299160
 20
1.327920
  0
SEQEND
  8
0
  0
SOLID
  8
0
 62
    15
 10
7.303560
 20
1.298440
 11
7.305760
 21
2.041160
 12
7.315880
 22
1.298440
 13
7.318080
 23
2.041600
  0
POLYLINE
  8
0
  6
CONTINUOUS
 66
     1
 40
0.000000
 41
0.000000
  0
VERTEX
  8
0
  6
CONTINUOUS
 10
7.303560
 20
1.298440
  0
VERTEX
  8
0
  6
CONTINUOUS
 10
7.305760
 20
2.041160
  0
VERTEX
  8
0
  6
CONTINUOUS
 10
7.318080
 20
2.041600
  0
VERTEX
  8
0
  6
CONTINUOUS
 10
7.315880
 20
1.298440
  0
VERTEX
  8
0
  6
CONTINUOUS
 10
7.303560
 20
1.298440
  0
SEQEND
  8
0
  0
SOLID
  8
0
 62
    15
 10
7.302680
 20
1.315600
 11
7.304880
 21
2.058760
 12
7.304000
 22
1.305480
 13
7.306200
 23
2.048200
  0
POLYLINE
  8
0
  6
CONTINUOUS
 66
     1
 40
0.000000
 41
0.000000
  0
VERTEX
  8
0
  6
CONTINUOUS
 10
7.302680
 20
1.315600
  0
VERTEX
  8
0
  6
CONTINUOUS
 10
7.304880
 20
2.058760
  0
VERTEX
  8
0
  6
CONTINUOUS
 10
7.306200
 20
2.048200
  0
VERTEX
  8
0
  6
CONTINUOUS
 10
7.304000
 20
1.305480
  0
VERTEX
  8
0
  6
CONTINUOUS
 10
7.302680
 20
1.315600
  0
SEQEND
  8
0
  0
SOLID
  8
0
 62
    15
 10
7.315880
 20
1.298440
 11
7.318080
 21
2.041600
 12
7.331280
 22
1.311640
 13
7.333480
 23
2.054360
  0
POLYLINE
  8
0
  6
CONTINUOUS
 66
     1
 40
0.000000
 41
0.000000
  0
VERTEX
  8
0
  6
CONTINUOUS
 10
7.315880
 20
1.298440
  0
VERTEX
  8
0
  6
CONTINUOUS
 10
7.318080
 20
2.041600
  0
VERTEX
  8
0
  6
CONTINUOUS
 10
7.333480
 20
2.054360
  0
VERTEX
  8
0
  6
CONTINUOUS
 10
7.331280
 20
1.311640
  0
VERTEX
  8
0
  6
CONTINUOUS
 10
7.315880
 20
1.298440
  0
SEQEND
  8
0
  0
SOLID
  8
0
 62
    15
 10
7.331280
 20
1.311640
 11
7.333480
 21
2.054360
 12
7.351960
 22
1.323960
 13
7.354160
 23
2.067120
  0
POLYLINE
  8
0
  6
CONTINUOUS
 66
     1
 40
0.000000
 41
0.000000
  0
VERTEX
  8
0
  6
CONTINUOUS
 10
7.331280
 20
1.311640
  0
VERTEX
  8
0
  6
CONTINUOUS
 10
7.333480
 20
2.054360
  0
VERTEX
  8
0
  6
CONTINUOUS
 10
7.354160
 20
2.067120
  0
VERTEX
  8
0
  6
CONTINUOUS
 10
7.351960
 20
1.323960
  0
VERTEX
  8
0
  6
CONTINUOUS
 10
7.331280
 20
1.311640
  0
SEQEND
  8
0
  0
SOLID
  8
0
 62
    15
 10
7.351960
 20
1.323960
 11
7.354160
 21
2.067120
 12
7.377040
 22
1.334960
 13
7.379240
 23
2.078120
  0
POLYLINE
  8
0
  6
CONTINUOUS
 66
     1
 40
0.000000
 41
0.000000
  0
VERTEX
  8
0
  6
CONTINUOUS
 10
7.351960
 20
1.323960
  0
VERTEX
  8
0
  6
CONTINUOUS
 10
7.354160
 20
2.067120
  0
VERTEX
  8
0
  6
CONTINUOUS
 10
7.379240
 20
2.078120
  0
VERTEX
  8
0
  6
CONTINUOUS
 10
7.377040
 20
1.334960
  0
VERTEX
  8
0
  6
CONTINUOUS
 10
7.351960
 20
1.323960
  0
SEQEND
  8
0
  0
SOLID
  8
0
 62
    15
 10
7.377040
 20
1.334960
 11
7.379240
 21
2.078120
 12
7.405200
 22
1.342880
 13
7.407400
 23
2.086040
  0
POLYLINE
  8
0
  6
CONTINUOUS
 66
     1
 40
0.000000
 41
0.000000
  0
VERTEX
  8
0
  6
CONTINUOUS
 10
7.377040
 20
1.334960
  0
VERTEX
  8
0
  6
CONTINUOUS
 10
7.379240
 20
2.078120
  0
VERTEX
  8
0
  6
CONTINUOUS
 10
7.407400
 20
2.086040
  0
VERTEX
  8
0
  6
CONTINUOUS
 10
7.405200
 20
1.342880
  0
VERTEX
  8
0
  6
CONTINUOUS
 10
7.377040
 20
1.334960
  0
SEQEND
  8
0
  0
SOLID
  8
0
 62
    15
 10
7.405200
 20
1.342880
 11
7.407400
 21
2.086040
 12
7.436000
 22
1.345960
 13
7.438200
 23
2.088680
  0
POLYLINE
  8
0
  6
CONTINUOUS
 66
     1
 40
0.000000
 41
0.000000
  0
VERTEX
  8
0
  6
CONTINUOUS
 10
7.405200
 20
1.342880
  0
VERTEX
  8
0
  6
CONTINUOUS
 10
7.407400
 20
2.086040
  0
VERTEX
  8
0
  6
CONTINUOUS
 10
7.438200
 20
2.088680
  0
VERTEX
  8
0
  6
CONTINUOUS
 10
7.436000
 20
1.345960
  0
VERTEX
  8
0
  6
CONTINUOUS
 10
7.405200
 20
1.342880
  0
SEQEND
  8
0
  0
SOLID
  8
0
 62
    15
 10
7.436000
 20
1.345960
 11
7.438200
 21
2.088680
 12
7.467680
 22
1.342880
 13
7.469880
 23
2.085600
  0
POLYLINE
  8
0
  6
CONTINUOUS
 66
     1
 40
0.000000
 41
0.000000
  0
VERTEX
  8
0
  6
CONTINUOUS
 10
7.436000
 20
1.345960
  0
VERTEX
  8
0
  6
CONTINUOUS
 10
7.438200
 20
2.088680
  0
VERTEX
  8
0
  6
CONTINUOUS
 10
7.469880
 20
2.085600
  0
VERTEX
  8
0
  6
CONTINUOUS
 10
7.467680
 20
1.342880
  0
VERTEX
  8
0
  6
CONTINUOUS
 10
7.436000
 20
1.345960
  0
SEQEND
  8
0
  0
SOLID
  8
0
 62
    15
 10
7.467680
 20
1.342880
 11
7.469880
 21
2.085600
 12
7.499800
 22
1.331880
 13
7.502440
 23
2.074600
  0
POLYLINE
  8
0
  6
CONTINUOUS
 66
     1
 40
0.000000
 41
0.000000
  0
VERTEX
  8
0
  6
CONTINUOUS
 10
7.467680
 20
1.342880
  0
VERTEX
  8
0
  6
CONTINUOUS
 10
7.469880
 20
2.085600
  0
VERTEX
  8
0
  6
CONTINUOUS
 10
7.502440
 20
2.074600
  0
VERTEX
  8
0
  6
CONTINUOUS
 10
7.499800
 20
1.331880
  0
VERTEX
  8
0
  6
CONTINUOUS
 10
7.467680
 20
1.342880
  0
SEQEND
  8
0
  0
SOLID
  8
0
 62
    15
 10
7.499800
 20
1.331880
 11
7.502440
 21
2.074600
 12
7.531480
 22
1.311640
 13
7.533680
 23
2.054800
  0
POLYLINE
  8
0
  6
CONTINUOUS
 66
     1
 40
0.000000
 41
0.000000
  0
VERTEX
  8
0
  6
CONTINUOUS
 10
7.499800
 20
1.331880
  0
VERTEX
  8
0
  6
CONTINUOUS
 10
7.502440
 20
2.074600
  0
VERTEX
  8
0
  6
CONTINUOUS
 10
7.533680
 20
2.054800
  0
VERTEX
  8
0
  6
CONTINUOUS
 10
7.531480
 20
1.311640
  0
VERTEX
  8
0
  6
CONTINUOUS
 10
7.499800
 20
1.331880
  0
SEQEND
  8
0
  0
SOLID
  8
0
 62
    15
 10
7.531480
 20
1.311640
 11
7.533680
 21
2.054800
 12
7.564040
 22
1.286560
 13
7.566240
 23
2.029720
  0
POLYLINE
  8
0
  6
CONTINUOUS
 66
     1
 40
0.000000
 41
0.000000
  0
VERTEX
  8
0
  6
CONTINUOUS
 10
7.531480
 20
1.311640
  0
VERTEX
  8
0
  6
CONTINUOUS
 10
7.533680
 20
2.054800
  0
VERTEX
  8
0
  6
CONTINUOUS
 10
7.566240
 20
2.029720
  0
VERTEX
  8
0
  6
CONTINUOUS
 10
7.564040
 20
1.286560
  0
VERTEX
  8
0
  6
CONTINUOUS
 10
7.531480
 20
1.311640
  0
SEQEND
  8
0
  0
SOLID
  8
0
 62
    15
 10
7.564040
 20
1.286560
 11
7.566240
 21
2.029720
 12
7.597480
 22
1.264120
 13
7.599680
 23
2.006840
  0
POLYLINE
  8
0
  6
CONTINUOUS
 66
     1
 40
0.000000
 41
0.000000
  0
VERTEX
  8
0
  6
CONTINUOUS
 10
7.564040
 20
1.286560
  0
VERTEX
  8
0
  6
CONTINUOUS
 10
7.566240
 20
2.029720
  0
VERTEX
  8
0
  6
CONTINUOUS
 10
7.599680
 20
2.006840
  0
VERTEX
  8
0
  6
CONTINUOUS
 10
7.597480
 20
1.264120
  0
VERTEX
  8
0
  6
CONTINUOUS
 10
7.564040
 20
1.286560
  0
SEQEND
  8
0
  0
SOLID
  8
0
 62
    15
 10
7.597480
 20
1.264120
 11
7.599680
 21
2.006840
 12
7.630480
 22
1.243880
 13
7.633120
 23
1.987040
  0
POLYLINE
  8
0
  6
CONTINUOUS
 66
     1
 40
0.000000
 41
0.000000
  0
VERTEX
  8
0
  6
CONTINUOUS
 10
7.597480
 20
1.264120
  0
VERTEX
  8
0
  6
CONTINUOUS
 10
7.599680
 20
2.006840
  0
VERTEX
  8
0
  6
CONTINUOUS
 10
7.633120
 20
1.987040
  0
VERTEX
  8
0
  6
CONTINUOUS
 10
7.630480
 20
1.243880
  0
VERTEX
  8
0
  6
CONTINUOUS
 10
7.597480
 20
1.264120
  0
SEQEND
  8
0
  0
SOLID
  8
0
 62
    15
 10
7.630480
 20
1.243880
 11
7.633120
 21
1.987040
 12
7.663480
 22
1.226720
 13
7.665680
 23
1.969880
  0
POLYLINE
  8
0
  6
CONTINUOUS
 66
     1
 40
0.000000
 41
0.000000
  0
VERTEX
  8
0
  6
CONTINUOUS
 10
7.630480
 20
1.243880
  0
VERTEX
  8
0
  6
CONTINUOUS
 10
7.633120
 20
1.987040
  0
VERTEX
  8
0
  6
CONTINUOUS
 10
7.665680
 20
1.969880
  0
VERTEX
  8
0
  6
CONTINUOUS
 10
7.663480
 20
1.226720
  0
VERTEX
  8
0
  6
CONTINUOUS
 10
7.630480
 20
1.243880
  0
SEQEND
  8
0
  0
SOLID
  8
0
 62
    15
 10
7.663480
 20
1.226720
 11
7.665680
 21
1.969880
 12
7.694720
 22
1.213520
 13
7.697360
 23
1.956240
  0
POLYLINE
  8
0
  6
CONTINUOUS
 66
     1
 40
0.000000
 41
0.000000
  0
VERTEX
  8
0
  6
CONTINUOUS
 10
7.663480
 20
1.226720
  0
VERTEX
  8
0
  6
CONTINUOUS
 10
7.665680
 20
1.969880
  0
VERTEX
  8
0
  6
CONTINUOUS
 10
7.697360
 20
1.956240
  0
VERTEX
  8
0
  6
CONTINUOUS
 10
7.694720
 20
1.213520
  0
VERTEX
  8
0
  6
CONTINUOUS
 10
7.663480
 20
1.226720
  0
SEQEND
  8
0
  0
SOLID
  8
0
 62
    15
 10
7.694720
 20
1.213520
 11
7.697360
 21
1.956240
 12
7.724640
 22
1.203400
 13
7.726840
 23
1.946120
  0
POLYLINE
  8
0
  6
CONTINUOUS
 66
     1
 40
0.000000
 41
0.000000
  0
VERTEX
  8
0
  6
CONTINUOUS
 10
7.694720
 20
1.213520
  0
VERTEX
  8
0
  6
CONTINUOUS
 10
7.697360
 20
1.956240
  0
VERTEX
  8
0
  6
CONTINUOUS
 10
7.726840
 20
1.946120
  0
VERTEX
  8
0
  6
CONTINUOUS
 10
7.724640
 20
1.203400
  0
VERTEX
  8
0
  6
CONTINUOUS
 10
7.694720
 20
1.213520
  0
SEQEND
  8
0
  0
SOLID
  8
0
 62
    15
 10
7.724640
 20
1.203400
 11
7.726840
 21
1.946120
 12
7.751480
 22
1.197240
 13
7.753680
 23
1.940400
  0
POLYLINE
  8
0
  6
CONTINUOUS
 66
     1
 40
0.000000
 41
0.000000
  0
VERTEX
  8
0
  6
CONTINUOUS
 10
7.724640
 20
1.203400
  0
VERTEX
  8
0
  6
CONTINUOUS
 10
7.726840
 20
1.946120
  0
VERTEX
  8
0
  6
CONTINUOUS
 10
7.753680
 20
1.940400
  0
VERTEX
  8
0
  6
CONTINUOUS
 10
7.751480
 20
1.197240
  0
VERTEX
  8
0
  6
CONTINUOUS
 10
7.724640
 20
1.203400
  0
SEQEND
  8
0
  0
SOLID
  8
0
 62
    15
 10
7.751480
 20
1.197240
 11
7.753680
 21
1.940400
 12
7.775240
 22
1.195920
 13
7.777440
 23
1.938640
  0
POLYLINE
  8
0
  6
CONTINUOUS
 66
     1
 40
0.000000
 41
0.000000
  0
VERTEX
  8
0
  6
CONTINUOUS
 10
7.751480
 20
1.197240
  0
VERTEX
  8
0
  6
CONTINUOUS
 10
7.753680
 20
1.940400
  0
VERTEX
  8
0
  6
CONTINUOUS
 10
7.777440
 20
1.938640
  0
VERTEX
  8
0
  6
CONTINUOUS
 10
7.775240
 20
1.195920
  0
VERTEX
  8
0
  6
CONTINUOUS
 10
7.751480
 20
1.197240
  0
SEQEND
  8
0
  0
SOLID
  8
0
 62
    15
 10
7.889200
 20
1.195920
 11
7.891400
 21
1.938640
 12
7.889200
 22
1.000560
 13
7.891400
 23
1.743280
  0
POLYLINE
  8
0
  6
CONTINUOUS
 66
     1
 40
0.000000
 41
0.000000
  0
VERTEX
  8
0
  6
CONTINUOUS
 10
7.889200
 20
1.195920
  0
VERTEX
  8
0
  6
CONTINUOUS
 10
7.891400
 20
1.938640
  0
VERTEX
  8
0
  6
CONTINUOUS
 10
7.891400
 20
1.743280
  0
VERTEX
  8
0
  6
CONTINUOUS
 10
7.889200
 20
1.000560
  0
VERTEX
  8
0
  6
CONTINUOUS
 10
7.889200
 20
1.195920
  0
SEQEND
  8
0
  0
SOLID
  8
0
 62
    15
 10
7.775240
 20
1.195920
 11
7.777440
 21
1.938640
 12
7.889200
 22
1.195920
 13
7.891400
 23
1.938640
  0
POLYLINE
  8
0
  6
CONTINUOUS
 66
     1
 40
0.000000
 41
0.000000
  0
VERTEX
  8
0
  6
CONTINUOUS
 10
7.775240
 20
1.195920
  0
VERTEX
  8
0
  6
CONTINUOUS
 10
7.777440
 20
1.938640
  0
VERTEX
  8
0
  6
CONTINUOUS
 10
7.891400
 20
1.938640
  0
VERTEX
  8
0
  6
CONTINUOUS
 10
7.889200
 20
1.195920
  0
VERTEX
  8
0
  6
CONTINUOUS
 10
7.775240
 20
1.195920
  0
SEQEND
  8
0
  0
SOLID
  8
0
 62
    15
 10
4.853640
 20
1.536480
 11
4.855840
 21
2.279200
 12
4.854520
 22
1.536040
 13
4.856720
 23
2.279200
  0
POLYLINE
  8
0
  6
CONTINUOUS
 66
     1
 40
0.000000
 41
0.000000
  0
VERTEX
  8
0
  6
CONTINUOUS
 10
4.853640
 20
1.536480
  0
VERTEX
  8
0
  6
CONTINUOUS
 10
4.855840
 20
2.279200
  0
VERTEX
  8
0
  6
CONTINUOUS
 10
4.856720
 20
2.279200
  0
VERTEX
  8
0
  6
CONTINUOUS
 10
4.854520
 20
1.536040
  0
VERTEX
  8
0
  6
CONTINUOUS
 10
4.853640
 20
1.536480
  0
SEQEND
  8
0
  0
POLYLINE
  8
0
  6
CONTINUOUS
 66
     1
 40
0.000000
 41
0.000000
  0
VERTEX
  8
0
  6
CONTINUOUS
 10
4.854520
 20
1.536040
  0
VERTEX
  8
0
  6
CONTINUOUS
 10
5.393080
 20
1.536040
  0
VERTEX
  8
0
  6
CONTINUOUS
 10
5.429160
 20
1.493800
  0
VERTEX
  8
0
  6
CONTINUOUS
 10
5.449840
 20
1.476640
  0
VERTEX
  8
0
  6
CONTINUOUS
 10
5.477560
 20
1.460360
  0
VERTEX
  8
0
  6
CONTINUOUS
 10
5.494720
 20
1.453320
  0
VERTEX
  8
0
  6
CONTINUOUS
 10
5.536520
 20
1.441880
  0
VERTEX
  8
0
  6
CONTINUOUS
 10
5.561600
 20
1.437920
  0
VERTEX
  8
0
  6
CONTINUOUS
 10
5.589760
 20
1.435280
  0
VERTEX
  8
0
  6
CONTINUOUS
 10
5.621440
 20
1.434400
  0
VERTEX
  8
0
  6
CONTINUOUS
 10
6.927360
 20
1.434400
  0
VERTEX
  8
0
  6
CONTINUOUS
 10
6.960360
 20
1.429560
  0
VERTEX
  8
0
  6
CONTINUOUS
 10
6.978840
 20
1.422520
  0
VERTEX
  8
0
  6
CONTINUOUS
 10
6.998640
 20
1.411520
  0
VERTEX
  8
0
  6
CONTINUOUS
 10
7.020200
 20
1.395680
  0
VERTEX
  8
0
  6
CONTINUOUS
 10
7.044400
 20
1.373680
  0
VERTEX
  8
0
  6
CONTINUOUS
 10
7.237560
 20
1.373680
  0
VERTEX
  8
0
  6
CONTINUOUS
 10
7.256480
 20
1.371040
  0
VERTEX
  8
0
  6
CONTINUOUS
 10
7.271880
 20
1.363560
  0
VERTEX
  8
0
  6
CONTINUOUS
 10
7.284200
 20
1.353440
  0
VERTEX
  8
0
  6
CONTINUOUS
 10
7.293000
 20
1.341120
  0
VERTEX
  8
0
  6
CONTINUOUS
 10
7.299160
 20
1.327920
  0
VERTEX
  8
0
  6
CONTINUOUS
 10
7.302680
 20
1.315600
  0
VERTEX
  8
0
  6
CONTINUOUS
 10
7.304000
 20
1.305480
  0
VERTEX
  8
0
  6
CONTINUOUS
 10
7.303560
 20
1.298440
  0
VERTEX
  8
0
  6
CONTINUOUS
 10
7.315880
 20
1.298440
  0
VERTEX
  8
0
  6
CONTINUOUS
 10
7.331280
 20
1.311640
  0
VERTEX
  8
0
  6
CONTINUOUS
 10
7.351960
 20
1.323960
  0
VERTEX
  8
0
  6
CONTINUOUS
 10
7.377040
 20
1.334960
  0
VERTEX
  8
0
  6
CONTINUOUS
 10
7.405200
 20
1.342880
  0
VERTEX
  8
0
  6
CONTINUOUS
 10
7.436000
 20
1.345960
  0
VERTEX
  8
0
  6
CONTINUOUS
 10
7.467680
 20
1.342880
  0
VERTEX
  8
0
  6
CONTINUOUS
 10
7.499800
 20
1.331880
  0
VERTEX
  8
0
  6
CONTINUOUS
 10
7.531480
 20
1.311640
  0
VERTEX
  8
0
  6
CONTINUOUS
 10
7.564040
 20
1.286560
  0
VERTEX
  8
0
  6
CONTINUOUS
 10
7.630480
 20
1.243880
  0
VERTEX
  8
0
  6
CONTINUOUS
 10
7.663480
 20
1.226720
  0
VERTEX
  8
0
  6
CONTINUOUS
 10
7.694720
 20
1.213520
  0
VERTEX
  8
0
  6
CONTINUOUS
 10
7.724640
 20
1.203400
  0
VERTEX
  8
0
  6
CONTINUOUS
 10
7.751480
 20
1.197240
  0
VERTEX
  8
0
  6
CONTINUOUS
 10
7.775240
 20
1.195920
  0
VERTEX
  8
0
  6
CONTINUOUS
 10
7.889200
 20
1.195920
  0
VERTEX
  8
0
  6
CONTINUOUS
 10
7.889200
 20
1.000560
  0
VERTEX
  8
0
  6
CONTINUOUS
 10
4.853640
 20
1.000560
  0
VERTEX
  8
0
  6
CONTINUOUS
 10
4.853640
 20
1.536480
  0
VERTEX
  8
0
  6
CONTINUOUS
 10
4.854520
 20
1.536040
  0
SEQEND
  8
0
  0
TEXT
  8
0
 10
6.100160
 20
0.759000
 40
0.138045
  1
BA 959
 41
1.000000
  7
SN0
 71
     0
 72
     5
 11
6.644109
 21
0.759000
  0
TEXT
  8
0
 10
5.875320
 20
0.567600
 40
0.138045
  1
1/2" x 3-1/16"
 41
1.000000
  7
SN0
 71
     0
 72
     5
 11
6.867610
 21
0.567600
  0
POLYLINE
  8
0
  6
CONTINUOUS
 66
     1
 40
0.014080
 41
0.014080
  0
VERTEX
  8
0
  6
CONTINUOUS
 10
5.073640
 20
3.121360
  0
VERTEX
  8
0
  6
CONTINUOUS
 10
5.612640
 20
3.121360
  0
VERTEX
  8
0
  6
CONTINUOUS
 10
5.640360
 20
3.087040
  0
VERTEX
  8
0
  6
CONTINUOUS
 10
5.657960
 20
3.070320
  0
VERTEX
  8
0
  6
CONTINUOUS
 10
5.682160
 20
3.053600
  0
VERTEX
  8
0
  6
CONTINUOUS
 10
5.705040
 20
3.042160
  0
VERTEX
  8
0
  6
CONTINUOUS
 10
5.733640
 20
3.032040
  0
VERTEX
  8
0
  6
CONTINUOUS
 10
5.781160
 20
3.023240
  0
VERTEX
  8
0
  6
CONTINUOUS
 10
5.809320
 20
3.020600
  0
VERTEX
  8
0
  6
CONTINUOUS
 10
5.840560
 20
3.019720
  0
VERTEX
  8
0
  6
CONTINUOUS
 10
7.146920
 20
3.019720
  0
VERTEX
  8
0
  6
CONTINUOUS
 10
7.171120
 20
3.016640
  0
VERTEX
  8
0
  6
CONTINUOUS
 10
7.188720
 20
3.011800
  0
VERTEX
  8
0
  6
CONTINUOUS
 10
7.217760
 20
2.996840
  0
VERTEX
  8
0
  6
CONTINUOUS
 10
7.251200
 20
2.970880
  0
VERTEX
  8
0
  6
CONTINUOUS
 10
7.263520
 20
2.959000
  0
VERTEX
  8
0
  6
CONTINUOUS
 10
7.457120
 20
2.959000
  0
VERTEX
  8
0
  6
CONTINUOUS
 10
7.476040
 20
2.956360
  0
VERTEX
  8
0
  6
CONTINUOUS
 10
7.484400
 20
2.953280
  0
VERTEX
  8
0
  6
CONTINUOUS
 10
7.503320
 20
2.938760
  0
VERTEX
  8
0
  6
CONTINUOUS
 10
7.512120
 20
2.926440
  0
VERTEX
  8
0
  6
CONTINUOUS
 10
7.520480
 20
2.907080
  0
VERTEX
  8
0
  6
CONTINUOUS
 10
7.523120
 20
2.886400
  0
VERTEX
  8
0
  6
CONTINUOUS
 10
7.522680
 20
2.883320
  0
VERTEX
  8
0
  6
CONTINUOUS
 10
7.535000
 20
2.883760
  0
VERTEX
  8
0
  6
CONTINUOUS
 10
7.560080
 20
2.903120
  0
VERTEX
  8
0
  6
CONTINUOUS
 10
7.596160
 20
2.920280
  0
VERTEX
  8
0
  6
CONTINUOUS
 10
7.624760
 20
2.928200
  0
VERTEX
  8
0
  6
CONTINUOUS
 10
7.655120
 20
2.931280
  0
VERTEX
  8
0
  6
CONTINUOUS
 10
7.687240
 20
2.928200
  0
VERTEX
  8
0
  6
CONTINUOUS
 10
7.703080
 20
2.923800
  0
VERTEX
  8
0
  6
CONTINUOUS
 10
7.719360
 20
2.917200
  0
VERTEX
  8
0
  6
CONTINUOUS
 10
7.743120
 20
2.903120
  0
VERTEX
  8
0
  6
CONTINUOUS
 10
7.799880
 20
2.860440
  0
VERTEX
  8
0
  6
CONTINUOUS
 10
7.850040
 20
2.829200
  0
VERTEX
  8
0
  6
CONTINUOUS
 10
7.882600
 20
2.812040
  0
VERTEX
  8
0
  6
CONTINUOUS
 10
7.929240
 20
2.793120
  0
VERTEX
  8
0
  6
CONTINUOUS
 10
7.957400
 20
2.784760
  0
VERTEX
  8
0
  6
CONTINUOUS
 10
7.982920
 20
2.781240
  0
VERTEX
  8
0
  6
CONTINUOUS
 10
8.108760
 20
2.780800
  0
VERTEX
  8
0
  6
CONTINUOUS
 10
8.108760
 20
2.585880
  0
VERTEX
  8
0
  6
CONTINUOUS
 10
5.072760
 20
2.585880
  0
VERTEX
  8
0
  6
CONTINUOUS
 10
5.072760
 20
3.121800
  0
VERTEX
  8
0
  6
CONTINUOUS
 10
5.073640
 20
3.121360
  0
SEQEND
  8
0
  0
TEXT
  8
0
 10
6.303440
 20
2.824800
 40
0.138045
  1
BA 959
 41
1.000000
  7
SN0
 71
     0
 72
     5
 11
6.847389
 21
2.824800
  0
TEXT
  8
0
 10
6.078600
 20
2.632960
 40
0.138045
  1
1/2" x 3-1/16"
 41
1.000000
  7
SN0
 71
     0
 72
     5
 11
7.070890
 21
2.632960
  0
ENDSEC
  0
EOF
