  0
SECTION
  2
HEADER
  9
$ACADVER
  1
AC1006
  9
$EXTMIN
 10
4.248200
 20
0.391600
  9
$EXTMAX
 10
7.667000
 20
2.782120
  9
$LTSCALE
 40
0.044000
  9
$PDMODE
 70
    35
  9
$PDSIZE
 40
0.035200
  0
ENDSEC
  0
SECTION
  2
TABLES
  0
TABLE
  2
LTYPE
 70
     9
  0
LTYPE
  2
CONTINUOUS
 70
    64
  3
Solid line
 72
    65
 73
     0
 40
0.000000
  0
LTYPE
  2
DASHED
 70
    64
  3
__ __ __ __ __ __ __ __ __ __ __ __ __ __ __
 72
    65
 73
     2
 40
0.000330
 49
0.000220
 49
-0.000110
  0
LTYPE
  2
HIDDEN
 70
    64
  3
 _ _ _ _ _ _ _ _ _ _ _ _ _ _ _ _ _ _ _ _ _ _
 72
    65
 73
     2
 40
0.000165
 49
0.000110
 49
-0.000055
  0
LTYPE
  2
CENTER
 70
    64
  3
____ _ ____ _ ____ _ ____ _ ____ _ ____ _ ____
 72
    65
 73
     4
 40
0.000880
 49
0.000550
 49
-0.000110
 49
0.000110
 49
-0.000110
  0
LTYPE
  2
PHANTOM
 70
    64
  3
_____ _ _ _____ _ _ _____ _ _ _____ _ _ ____
 72
    65
 73
     6
 40
0.001100
 49
0.000550
 49
-0.000110
 49
0.000110
 49
-0.000110
 49
0.000110
 49
-0.000110
  0
LTYPE
  2
DOT
 70
    64
  3
...............................................
 72
    65
 73
     2
 40
0.000110
 49
0.000000
 49
-0.000110
  0
LTYPE
  2
DASHDOT
 70
    64
  3
__ . __ . __ . __ . __ . __ . __ . __ . __ . __
 72
    65
 73
     4
 40
0.000440
 49
0.000220
 49
-0.000110
 49
0.000000
 49
-0.000110
  0
LTYPE
  2
BORDER
 70
    64
  3
__ __ . __ __ . __ __ . __ __ . __ __ . __ __
 72
    65
 73
     6
 40
0.000770
 49
0.000220
 49
-0.000110
 49
0.000220
 49
-0.000110
 49
0.000000
 49
-0.000110
  0
LTYPE
  2
DIVIDE
 70
    64
  3
__ . . __ . . __ . . __ . . __ . . __ . . __
 72
    65
 73
     6
 40
0.000550
 49
0.000220
 49
-0.000110
 49
0.000000
 49
-0.000110
 49
0.000000
 49
-0.000110
  0
LTYPE
  2
DOTDOT
 70
    64
  3
 . .  . .  . .  . .  . .  . . 
 72
    65
 73
     5
 40
0.000242
 49
-0.000110
 49
0.000000
 49
-0.000110
 49
0.000000
 49
-0.000110
  0
ENDTAB
  0
TABLE
  2
STYLE
 70
     2
  0
STYLE
 70
     0
  2
SN0
 40
0.000000
 41
0.000440
 50
0.000000
 71
     0
 42
0.000000
  3
ROMAND
  0
STYLE
 70
    68
  2
SV0
 40
0.000000
 41
0.000440
 50
0.000000
 71
     0
 42
0.000000
  3
ROMAND
  0
ENDTAB
  0
TABLE
  2
LAYER
 70
     3
  0
LAYER
  2
FOREGROUND
 70
    64
 62
     7
  6
CONTINUOUS
  0
LAYER
  2
BACKGROUND
 70
    65
 62
    -7
  6
CONTINUOUS
  0
LAYER
  2
0
 70
    64
 62
     7
  6
CONTINUOUS
  0
ENDTAB
  0
ENDSEC
  0
SECTION
  2
ENTITIES
  0
POLYLINE
  8
FOREGROUND
  6
CONTINUOUS
 66
     1
 40
0.000000
 41
0.000000
  0
VERTEX
  8
FOREGROUND
  6
CONTINUOUS
 10
0.000000
 20
3.173720
  0
VERTEX
  8
FOREGROUND
  6
CONTINUOUS
 10
8.499920
 20
3.173720
  0
VERTEX
  8
FOREGROUND
  6
CONTINUOUS
 10
8.499920
 20
-7.826280
  0
VERTEX
  8
FOREGROUND
  6
CONTINUOUS
 10
0.000000
 20
-7.826280
  0
VERTEX
  8
FOREGROUND
  6
CONTINUOUS
 10
0.000000
 20
3.173720
  0
SEQEND
  8
0
  0
POLYLINE
  8
FOREGROUND
  6
CONTINUOUS
 66
     1
 40
0.000000
 41
0.000000
  0
VERTEX
  8
FOREGROUND
  6
CONTINUOUS
 10
0.000000
 20
3.173720
  0
VERTEX
  8
FOREGROUND
  6
CONTINUOUS
 10
8.499920
 20
3.173720
  0
VERTEX
  8
FOREGROUND
  6
CONTINUOUS
 10
8.499920
 20
-7.826280
  0
VERTEX
  8
FOREGROUND
  6
CONTINUOUS
 10
0.000000
 20
-7.826280
  0
VERTEX
  8
FOREGROUND
  6
CONTINUOUS
 10
0.000000
 20
3.173720
  0
SEQEND
  8
0
  0
SOLID
  8
0
 62
    15
 10
4.616920
 20
1.365320
 11
5.360520
 21
1.366640
 12
4.616920
 22
1.364440
 13
5.360520
 23
1.365760
  0
POLYLINE
  8
0
  6
CONTINUOUS
 66
     1
 40
0.000000
 41
0.000000
  0
VERTEX
  8
0
  6
CONTINUOUS
 10
4.616920
 20
1.365320
  0
VERTEX
  8
0
  6
CONTINUOUS
 10
5.360520
 20
1.366640
  0
VERTEX
  8
0
  6
CONTINUOUS
 10
5.360520
 20
1.365760
  0
VERTEX
  8
0
  6
CONTINUOUS
 10
4.616920
 20
1.364440
  0
VERTEX
  8
0
  6
CONTINUOUS
 10
4.616920
 20
1.365320
  0
SEQEND
  8
0
  0
SOLID
  8
0
 62
    15
 10
4.682480
 20
1.378520
 11
5.426080
 21
1.379400
 12
4.616920
 22
1.364440
 13
5.360080
 23
1.365760
  0
POLYLINE
  8
0
  6
CONTINUOUS
 66
     1
 40
0.000000
 41
0.000000
  0
VERTEX
  8
0
  6
CONTINUOUS
 10
4.682480
 20
1.378520
  0
VERTEX
  8
0
  6
CONTINUOUS
 10
5.426080
 20
1.379400
  0
VERTEX
  8
0
  6
CONTINUOUS
 10
5.360080
 20
1.365760
  0
VERTEX
  8
0
  6
CONTINUOUS
 10
4.616920
 20
1.364440
  0
VERTEX
  8
0
  6
CONTINUOUS
 10
4.682480
 20
1.378520
  0
SEQEND
  8
0
  0
SOLID
  8
0
 62
    15
 10
4.652560
 20
2.078560
 11
5.396160
 21
2.079880
 12
4.685120
 22
2.070200
 13
5.428280
 23
2.071520
  0
POLYLINE
  8
0
  6
CONTINUOUS
 66
     1
 40
0.000000
 41
0.000000
  0
VERTEX
  8
0
  6
CONTINUOUS
 10
4.652560
 20
2.078560
  0
VERTEX
  8
0
  6
CONTINUOUS
 10
5.396160
 20
2.079880
  0
VERTEX
  8
0
  6
CONTINUOUS
 10
5.428280
 20
2.071520
  0
VERTEX
  8
0
  6
CONTINUOUS
 10
4.685120
 20
2.070200
  0
VERTEX
  8
0
  6
CONTINUOUS
 10
4.652560
 20
2.078560
  0
SEQEND
  8
0
  0
SOLID
  8
0
 62
    15
 10
4.685120
 20
2.070200
 11
5.428280
 21
2.071520
 12
4.745400
 22
2.045120
 13
5.489000
 23
2.046000
  0
POLYLINE
  8
0
  6
CONTINUOUS
 66
     1
 40
0.000000
 41
0.000000
  0
VERTEX
  8
0
  6
CONTINUOUS
 10
4.685120
 20
2.070200
  0
VERTEX
  8
0
  6
CONTINUOUS
 10
5.428280
 20
2.071520
  0
VERTEX
  8
0
  6
CONTINUOUS
 10
5.489000
 20
2.046000
  0
VERTEX
  8
0
  6
CONTINUOUS
 10
4.745400
 20
2.045120
  0
VERTEX
  8
0
  6
CONTINUOUS
 10
4.685120
 20
2.070200
  0
SEQEND
  8
0
  0
SOLID
  8
0
 62
    15
 10
4.745400
 20
2.045120
 11
5.489000
 21
2.046000
 12
4.799960
 22
2.009920
 13
5.543560
 23
2.010800
  0
POLYLINE
  8
0
  6
CONTINUOUS
 66
     1
 40
0.000000
 41
0.000000
  0
VERTEX
  8
0
  6
CONTINUOUS
 10
4.745400
 20
2.045120
  0
VERTEX
  8
0
  6
CONTINUOUS
 10
5.489000
 20
2.046000
  0
VERTEX
  8
0
  6
CONTINUOUS
 10
5.543560
 20
2.010800
  0
VERTEX
  8
0
  6
CONTINUOUS
 10
4.799960
 20
2.009920
  0
VERTEX
  8
0
  6
CONTINUOUS
 10
4.745400
 20
2.045120
  0
SEQEND
  8
0
  0
SOLID
  8
0
 62
    15
 10
4.799960
 20
2.009920
 11
5.543560
 21
2.010800
 12
4.847480
 22
1.965480
 13
5.590640
 23
1.966800
  0
POLYLINE
  8
0
  6
CONTINUOUS
 66
     1
 40
0.000000
 41
0.000000
  0
VERTEX
  8
0
  6
CONTINUOUS
 10
4.799960
 20
2.009920
  0
VERTEX
  8
0
  6
CONTINUOUS
 10
5.543560
 20
2.010800
  0
VERTEX
  8
0
  6
CONTINUOUS
 10
5.590640
 20
1.966800
  0
VERTEX
  8
0
  6
CONTINUOUS
 10
4.847480
 20
1.965480
  0
VERTEX
  8
0
  6
CONTINUOUS
 10
4.799960
 20
2.009920
  0
SEQEND
  8
0
  0
SOLID
  8
0
 62
    15
 10
4.847480
 20
1.965480
 11
5.590640
 21
1.966800
 12
4.886200
 22
1.914000
 13
5.629800
 23
1.914880
  0
POLYLINE
  8
0
  6
CONTINUOUS
 66
     1
 40
0.000000
 41
0.000000
  0
VERTEX
  8
0
  6
CONTINUOUS
 10
4.847480
 20
1.965480
  0
VERTEX
  8
0
  6
CONTINUOUS
 10
5.590640
 20
1.966800
  0
VERTEX
  8
0
  6
CONTINUOUS
 10
5.629800
 20
1.914880
  0
VERTEX
  8
0
  6
CONTINUOUS
 10
4.886200
 20
1.914000
  0
VERTEX
  8
0
  6
CONTINUOUS
 10
4.847480
 20
1.965480
  0
SEQEND
  8
0
  0
SOLID
  8
0
 62
    15
 10
4.886200
 20
1.914000
 11
5.629800
 21
1.914880
 12
4.915240
 22
1.855480
 13
5.658840
 23
1.856360
  0
POLYLINE
  8
0
  6
CONTINUOUS
 66
     1
 40
0.000000
 41
0.000000
  0
VERTEX
  8
0
  6
CONTINUOUS
 10
4.886200
 20
1.914000
  0
VERTEX
  8
0
  6
CONTINUOUS
 10
5.629800
 20
1.914880
  0
VERTEX
  8
0
  6
CONTINUOUS
 10
5.658840
 20
1.856360
  0
VERTEX
  8
0
  6
CONTINUOUS
 10
4.915240
 20
1.855480
  0
VERTEX
  8
0
  6
CONTINUOUS
 10
4.886200
 20
1.914000
  0
SEQEND
  8
0
  0
SOLID
  8
0
 62
    15
 10
4.915240
 20
1.855480
 11
5.658840
 21
1.856360
 12
4.933720
 22
1.791240
 13
5.677320
 23
1.792560
  0
POLYLINE
  8
0
  6
CONTINUOUS
 66
     1
 40
0.000000
 41
0.000000
  0
VERTEX
  8
0
  6
CONTINUOUS
 10
4.915240
 20
1.855480
  0
VERTEX
  8
0
  6
CONTINUOUS
 10
5.658840
 20
1.856360
  0
VERTEX
  8
0
  6
CONTINUOUS
 10
5.677320
 20
1.792560
  0
VERTEX
  8
0
  6
CONTINUOUS
 10
4.933720
 20
1.791240
  0
VERTEX
  8
0
  6
CONTINUOUS
 10
4.915240
 20
1.855480
  0
SEQEND
  8
0
  0
SOLID
  8
0
 62
    15
 10
4.933720
 20
1.791240
 11
5.677320
 21
1.792560
 12
4.938560
 22
1.757800
 13
5.681720
 23
1.759120
  0
POLYLINE
  8
0
  6
CONTINUOUS
 66
     1
 40
0.000000
 41
0.000000
  0
VERTEX
  8
0
  6
CONTINUOUS
 10
4.933720
 20
1.791240
  0
VERTEX
  8
0
  6
CONTINUOUS
 10
5.677320
 20
1.792560
  0
VERTEX
  8
0
  6
CONTINUOUS
 10
5.681720
 20
1.759120
  0
VERTEX
  8
0
  6
CONTINUOUS
 10
4.938560
 20
1.757800
  0
VERTEX
  8
0
  6
CONTINUOUS
 10
4.933720
 20
1.791240
  0
SEQEND
  8
0
  0
SOLID
  8
0
 62
    15
 10
4.938560
 20
1.757800
 11
5.681720
 21
1.759120
 12
4.940320
 22
1.723480
 13
5.683480
 23
1.724360
  0
POLYLINE
  8
0
  6
CONTINUOUS
 66
     1
 40
0.000000
 41
0.000000
  0
VERTEX
  8
0
  6
CONTINUOUS
 10
4.938560
 20
1.757800
  0
VERTEX
  8
0
  6
CONTINUOUS
 10
5.681720
 20
1.759120
  0
VERTEX
  8
0
  6
CONTINUOUS
 10
5.683480
 20
1.724360
  0
VERTEX
  8
0
  6
CONTINUOUS
 10
4.940320
 20
1.723480
  0
VERTEX
  8
0
  6
CONTINUOUS
 10
4.938560
 20
1.757800
  0
SEQEND
  8
0
  0
SOLID
  8
0
 62
    15
 10
4.940320
 20
1.723480
 11
5.683480
 21
1.724360
 12
4.938560
 22
1.688720
 13
5.681720
 23
1.690040
  0
POLYLINE
  8
0
  6
CONTINUOUS
 66
     1
 40
0.000000
 41
0.000000
  0
VERTEX
  8
0
  6
CONTINUOUS
 10
4.940320
 20
1.723480
  0
VERTEX
  8
0
  6
CONTINUOUS
 10
5.683480
 20
1.724360
  0
VERTEX
  8
0
  6
CONTINUOUS
 10
5.681720
 20
1.690040
  0
VERTEX
  8
0
  6
CONTINUOUS
 10
4.938560
 20
1.688720
  0
VERTEX
  8
0
  6
CONTINUOUS
 10
4.940320
 20
1.723480
  0
SEQEND
  8
0
  0
SOLID
  8
0
 62
    15
 10
4.938560
 20
1.688720
 11
5.681720
 21
1.690040
 12
4.933720
 22
1.655280
 13
5.676880
 23
1.656160
  0
POLYLINE
  8
0
  6
CONTINUOUS
 66
     1
 40
0.000000
 41
0.000000
  0
VERTEX
  8
0
  6
CONTINUOUS
 10
4.938560
 20
1.688720
  0
VERTEX
  8
0
  6
CONTINUOUS
 10
5.681720
 20
1.690040
  0
VERTEX
  8
0
  6
CONTINUOUS
 10
5.676880
 20
1.656160
  0
VERTEX
  8
0
  6
CONTINUOUS
 10
4.933720
 20
1.655280
  0
VERTEX
  8
0
  6
CONTINUOUS
 10
4.938560
 20
1.688720
  0
SEQEND
  8
0
  0
SOLID
  8
0
 62
    15
 10
4.933720
 20
1.655280
 11
5.676880
 21
1.656160
 12
4.915240
 22
1.591480
 13
5.658400
 23
1.592800
  0
POLYLINE
  8
0
  6
CONTINUOUS
 66
     1
 40
0.000000
 41
0.000000
  0
VERTEX
  8
0
  6
CONTINUOUS
 10
4.933720
 20
1.655280
  0
VERTEX
  8
0
  6
CONTINUOUS
 10
5.676880
 20
1.656160
  0
VERTEX
  8
0
  6
CONTINUOUS
 10
5.658400
 20
1.592800
  0
VERTEX
  8
0
  6
CONTINUOUS
 10
4.915240
 20
1.591480
  0
VERTEX
  8
0
  6
CONTINUOUS
 10
4.933720
 20
1.655280
  0
SEQEND
  8
0
  0
SOLID
  8
0
 62
    15
 10
4.915240
 20
1.591480
 11
5.658400
 21
1.592800
 12
4.885320
 22
1.533400
 13
5.628920
 23
1.534720
  0
POLYLINE
  8
0
  6
CONTINUOUS
 66
     1
 40
0.000000
 41
0.000000
  0
VERTEX
  8
0
  6
CONTINUOUS
 10
4.915240
 20
1.591480
  0
VERTEX
  8
0
  6
CONTINUOUS
 10
5.658400
 20
1.592800
  0
VERTEX
  8
0
  6
CONTINUOUS
 10
5.628920
 20
1.534720
  0
VERTEX
  8
0
  6
CONTINUOUS
 10
4.885320
 20
1.533400
  0
VERTEX
  8
0
  6
CONTINUOUS
 10
4.915240
 20
1.591480
  0
SEQEND
  8
0
  0
SOLID
  8
0
 62
    15
 10
4.885320
 20
1.533400
 11
5.628920
 21
1.534720
 12
4.846160
 22
1.481920
 13
5.589760
 23
1.482800
  0
POLYLINE
  8
0
  6
CONTINUOUS
 66
     1
 40
0.000000
 41
0.000000
  0
VERTEX
  8
0
  6
CONTINUOUS
 10
4.885320
 20
1.533400
  0
VERTEX
  8
0
  6
CONTINUOUS
 10
5.628920
 20
1.534720
  0
VERTEX
  8
0
  6
CONTINUOUS
 10
5.589760
 20
1.482800
  0
VERTEX
  8
0
  6
CONTINUOUS
 10
4.846160
 20
1.481920
  0
VERTEX
  8
0
  6
CONTINUOUS
 10
4.885320
 20
1.533400
  0
SEQEND
  8
0
  0
SOLID
  8
0
 62
    15
 10
4.846160
 20
1.481920
 11
5.589760
 21
1.482800
 12
4.798640
 22
1.437920
 13
5.541800
 23
1.439240
  0
POLYLINE
  8
0
  6
CONTINUOUS
 66
     1
 40
0.000000
 41
0.000000
  0
VERTEX
  8
0
  6
CONTINUOUS
 10
4.846160
 20
1.481920
  0
VERTEX
  8
0
  6
CONTINUOUS
 10
5.589760
 20
1.482800
  0
VERTEX
  8
0
  6
CONTINUOUS
 10
5.541800
 20
1.439240
  0
VERTEX
  8
0
  6
CONTINUOUS
 10
4.798640
 20
1.437920
  0
VERTEX
  8
0
  6
CONTINUOUS
 10
4.846160
 20
1.481920
  0
SEQEND
  8
0
  0
SOLID
  8
0
 62
    15
 10
4.798640
 20
1.437920
 11
5.541800
 21
1.439240
 12
4.743640
 22
1.403160
 13
5.486800
 23
1.404480
  0
POLYLINE
  8
0
  6
CONTINUOUS
 66
     1
 40
0.000000
 41
0.000000
  0
VERTEX
  8
0
  6
CONTINUOUS
 10
4.798640
 20
1.437920
  0
VERTEX
  8
0
  6
CONTINUOUS
 10
5.541800
 20
1.439240
  0
VERTEX
  8
0
  6
CONTINUOUS
 10
5.486800
 20
1.404480
  0
VERTEX
  8
0
  6
CONTINUOUS
 10
4.743640
 20
1.403160
  0
VERTEX
  8
0
  6
CONTINUOUS
 10
4.798640
 20
1.437920
  0
SEQEND
  8
0
  0
SOLID
  8
0
 62
    15
 10
4.743640
 20
1.403160
 11
5.486800
 21
1.404480
 12
4.682480
 22
1.378520
 13
5.426080
 23
1.379400
  0
POLYLINE
  8
0
  6
CONTINUOUS
 66
     1
 40
0.000000
 41
0.000000
  0
VERTEX
  8
0
  6
CONTINUOUS
 10
4.743640
 20
1.403160
  0
VERTEX
  8
0
  6
CONTINUOUS
 10
5.486800
 20
1.404480
  0
VERTEX
  8
0
  6
CONTINUOUS
 10
5.426080
 20
1.379400
  0
VERTEX
  8
0
  6
CONTINUOUS
 10
4.682480
 20
1.378520
  0
VERTEX
  8
0
  6
CONTINUOUS
 10
4.743640
 20
1.403160
  0
SEQEND
  8
0
  0
SOLID
  8
0
 62
    15
 10
5.360520
 20
1.365760
 11
5.360520
 21
1.162480
 12
4.616920
 22
1.364440
 13
4.616920
 23
1.161600
  0
POLYLINE
  8
0
  6
CONTINUOUS
 66
     1
 40
0.000000
 41
0.000000
  0
VERTEX
  8
0
  6
CONTINUOUS
 10
5.360520
 20
1.365760
  0
VERTEX
  8
0
  6
CONTINUOUS
 10
5.360520
 20
1.162480
  0
VERTEX
  8
0
  6
CONTINUOUS
 10
4.616920
 20
1.161600
  0
VERTEX
  8
0
  6
CONTINUOUS
 10
4.616920
 20
1.364440
  0
VERTEX
  8
0
  6
CONTINUOUS
 10
5.360520
 20
1.365760
  0
SEQEND
  8
0
  0
SOLID
  8
0
 62
    15
 10
4.617360
 20
2.294160
 11
5.360960
 21
2.295480
 12
4.617360
 22
2.083840
 13
5.360960
 23
2.085160
  0
POLYLINE
  8
0
  6
CONTINUOUS
 66
     1
 40
0.000000
 41
0.000000
  0
VERTEX
  8
0
  6
CONTINUOUS
 10
4.617360
 20
2.294160
  0
VERTEX
  8
0
  6
CONTINUOUS
 10
5.360960
 20
2.295480
  0
VERTEX
  8
0
  6
CONTINUOUS
 10
5.360960
 20
2.085160
  0
VERTEX
  8
0
  6
CONTINUOUS
 10
4.617360
 20
2.083840
  0
VERTEX
  8
0
  6
CONTINUOUS
 10
4.617360
 20
2.294160
  0
SEQEND
  8
0
  0
SOLID
  8
0
 62
    15
 10
4.616920
 20
1.161600
 11
5.360520
 21
1.162480
 12
4.553560
 22
1.128160
 13
5.297160
 23
1.129040
  0
POLYLINE
  8
0
  6
CONTINUOUS
 66
     1
 40
0.000000
 41
0.000000
  0
VERTEX
  8
0
  6
CONTINUOUS
 10
4.616920
 20
1.161600
  0
VERTEX
  8
0
  6
CONTINUOUS
 10
5.360520
 20
1.162480
  0
VERTEX
  8
0
  6
CONTINUOUS
 10
5.297160
 20
1.129040
  0
VERTEX
  8
0
  6
CONTINUOUS
 10
4.553560
 20
1.128160
  0
VERTEX
  8
0
  6
CONTINUOUS
 10
4.616920
 20
1.161600
  0
SEQEND
  8
0
  0
SOLID
  8
0
 62
    15
 10
4.553560
 20
1.128160
 11
5.297160
 21
1.129040
 12
4.502080
 22
1.093400
 13
5.245240
 23
1.094280
  0
POLYLINE
  8
0
  6
CONTINUOUS
 66
     1
 40
0.000000
 41
0.000000
  0
VERTEX
  8
0
  6
CONTINUOUS
 10
4.553560
 20
1.128160
  0
VERTEX
  8
0
  6
CONTINUOUS
 10
5.297160
 20
1.129040
  0
VERTEX
  8
0
  6
CONTINUOUS
 10
5.245240
 20
1.094280
  0
VERTEX
  8
0
  6
CONTINUOUS
 10
4.502080
 20
1.093400
  0
VERTEX
  8
0
  6
CONTINUOUS
 10
4.553560
 20
1.128160
  0
SEQEND
  8
0
  0
SOLID
  8
0
 62
    15
 10
4.502080
 20
1.093400
 11
5.245240
 21
1.094280
 12
4.460720
 22
1.056880
 13
5.204320
 23
1.057760
  0
POLYLINE
  8
0
  6
CONTINUOUS
 66
     1
 40
0.000000
 41
0.000000
  0
VERTEX
  8
0
  6
CONTINUOUS
 10
4.502080
 20
1.093400
  0
VERTEX
  8
0
  6
CONTINUOUS
 10
5.245240
 20
1.094280
  0
VERTEX
  8
0
  6
CONTINUOUS
 10
5.204320
 20
1.057760
  0
VERTEX
  8
0
  6
CONTINUOUS
 10
4.460720
 20
1.056880
  0
VERTEX
  8
0
  6
CONTINUOUS
 10
4.502080
 20
1.093400
  0
SEQEND
  8
0
  0
SOLID
  8
0
 62
    15
 10
4.460720
 20
1.056880
 11
5.204320
 21
1.057760
 12
4.429480
 22
1.018600
 13
5.172640
 23
1.019480
  0
POLYLINE
  8
0
  6
CONTINUOUS
 66
     1
 40
0.000000
 41
0.000000
  0
VERTEX
  8
0
  6
CONTINUOUS
 10
4.460720
 20
1.056880
  0
VERTEX
  8
0
  6
CONTINUOUS
 10
5.204320
 20
1.057760
  0
VERTEX
  8
0
  6
CONTINUOUS
 10
5.172640
 20
1.019480
  0
VERTEX
  8
0
  6
CONTINUOUS
 10
4.429480
 20
1.018600
  0
VERTEX
  8
0
  6
CONTINUOUS
 10
4.460720
 20
1.056880
  0
SEQEND
  8
0
  0
SOLID
  8
0
 62
    15
 10
4.429480
 20
1.018600
 11
5.172640
 21
1.019480
 12
4.406160
 22
0.978560
 13
5.149760
 23
0.979440
  0
POLYLINE
  8
0
  6
CONTINUOUS
 66
     1
 40
0.000000
 41
0.000000
  0
VERTEX
  8
0
  6
CONTINUOUS
 10
4.429480
 20
1.018600
  0
VERTEX
  8
0
  6
CONTINUOUS
 10
5.172640
 20
1.019480
  0
VERTEX
  8
0
  6
CONTINUOUS
 10
5.149760
 20
0.979440
  0
VERTEX
  8
0
  6
CONTINUOUS
 10
4.406160
 20
0.978560
  0
VERTEX
  8
0
  6
CONTINUOUS
 10
4.429480
 20
1.018600
  0
SEQEND
  8
0
  0
SOLID
  8
0
 62
    15
 10
4.406160
 20
0.978560
 11
5.149760
 21
0.979440
 12
4.390760
 22
0.936760
 13
5.134360
 23
0.937640
  0
POLYLINE
  8
0
  6
CONTINUOUS
 66
     1
 40
0.000000
 41
0.000000
  0
VERTEX
  8
0
  6
CONTINUOUS
 10
4.406160
 20
0.978560
  0
VERTEX
  8
0
  6
CONTINUOUS
 10
5.149760
 20
0.979440
  0
VERTEX
  8
0
  6
CONTINUOUS
 10
5.134360
 20
0.937640
  0
VERTEX
  8
0
  6
CONTINUOUS
 10
4.390760
 20
0.936760
  0
VERTEX
  8
0
  6
CONTINUOUS
 10
4.406160
 20
0.978560
  0
SEQEND
  8
0
  0
SOLID
  8
0
 62
    15
 10
4.390760
 20
0.936760
 11
5.134360
 21
0.937640
 12
4.381960
 22
0.892760
 13
5.125560
 23
0.893640
  0
POLYLINE
  8
0
  6
CONTINUOUS
 66
     1
 40
0.000000
 41
0.000000
  0
VERTEX
  8
0
  6
CONTINUOUS
 10
4.390760
 20
0.936760
  0
VERTEX
  8
0
  6
CONTINUOUS
 10
5.134360
 20
0.937640
  0
VERTEX
  8
0
  6
CONTINUOUS
 10
5.125560
 20
0.893640
  0
VERTEX
  8
0
  6
CONTINUOUS
 10
4.381960
 20
0.892760
  0
VERTEX
  8
0
  6
CONTINUOUS
 10
4.390760
 20
0.936760
  0
SEQEND
  8
0
  0
SOLID
  8
0
 62
    15
 10
4.381960
 20
0.892760
 11
5.125560
 21
0.893640
 12
4.378880
 22
0.846560
 13
5.122040
 23
0.847880
  0
POLYLINE
  8
0
  6
CONTINUOUS
 66
     1
 40
0.000000
 41
0.000000
  0
VERTEX
  8
0
  6
CONTINUOUS
 10
4.381960
 20
0.892760
  0
VERTEX
  8
0
  6
CONTINUOUS
 10
5.125560
 20
0.893640
  0
VERTEX
  8
0
  6
CONTINUOUS
 10
5.122040
 20
0.847880
  0
VERTEX
  8
0
  6
CONTINUOUS
 10
4.378880
 20
0.846560
  0
VERTEX
  8
0
  6
CONTINUOUS
 10
4.381960
 20
0.892760
  0
SEQEND
  8
0
  0
SOLID
  8
0
 62
    15
 10
4.249520
 20
2.609200
 11
4.992680
 21
2.610080
 12
4.379320
 22
2.609200
 13
5.122480
 23
2.610080
  0
POLYLINE
  8
0
  6
CONTINUOUS
 66
     1
 40
0.000000
 41
0.000000
  0
VERTEX
  8
0
  6
CONTINUOUS
 10
4.249520
 20
2.609200
  0
VERTEX
  8
0
  6
CONTINUOUS
 10
4.992680
 20
2.610080
  0
VERTEX
  8
0
  6
CONTINUOUS
 10
5.122480
 20
2.610080
  0
VERTEX
  8
0
  6
CONTINUOUS
 10
4.379320
 20
2.609200
  0
VERTEX
  8
0
  6
CONTINUOUS
 10
4.249520
 20
2.609200
  0
SEQEND
  8
0
  0
SOLID
  8
0
 62
     7
 10
4.379320
 20
2.609200
 11
5.122480
 21
2.610080
 12
4.382400
 22
2.563000
 13
5.126000
 23
2.564320
  0
POLYLINE
  8
0
  6
CONTINUOUS
 66
     1
 40
0.000000
 41
0.000000
  0
VERTEX
  8
0
  6
CONTINUOUS
 10
4.379320
 20
2.609200
  0
VERTEX
  8
0
  6
CONTINUOUS
 10
5.122480
 20
2.610080
  0
VERTEX
  8
0
  6
CONTINUOUS
 10
5.126000
 20
2.564320
  0
VERTEX
  8
0
  6
CONTINUOUS
 10
4.382400
 20
2.563000
  0
VERTEX
  8
0
  6
CONTINUOUS
 10
4.379320
 20
2.609200
  0
SEQEND
  8
0
  0
SOLID
  8
0
 62
     7
 10
4.382400
 20
2.563000
 11
5.126000
 21
2.564320
 12
4.391200
 22
2.519000
 13
5.134800
 23
2.520320
  0
POLYLINE
  8
0
  6
CONTINUOUS
 66
     1
 40
0.000000
 41
0.000000
  0
VERTEX
  8
0
  6
CONTINUOUS
 10
4.382400
 20
2.563000
  0
VERTEX
  8
0
  6
CONTINUOUS
 10
5.126000
 20
2.564320
  0
VERTEX
  8
0
  6
CONTINUOUS
 10
5.134800
 20
2.520320
  0
VERTEX
  8
0
  6
CONTINUOUS
 10
4.391200
 20
2.519000
  0
VERTEX
  8
0
  6
CONTINUOUS
 10
4.382400
 20
2.563000
  0
SEQEND
  8
0
  0
SOLID
  8
0
 62
     7
 10
4.391200
 20
2.519000
 11
5.134800
 21
2.520320
 12
4.406600
 22
2.477200
 13
5.150200
 23
2.478520
  0
POLYLINE
  8
0
  6
CONTINUOUS
 66
     1
 40
0.000000
 41
0.000000
  0
VERTEX
  8
0
  6
CONTINUOUS
 10
4.391200
 20
2.519000
  0
VERTEX
  8
0
  6
CONTINUOUS
 10
5.134800
 20
2.520320
  0
VERTEX
  8
0
  6
CONTINUOUS
 10
5.150200
 20
2.478520
  0
VERTEX
  8
0
  6
CONTINUOUS
 10
4.406600
 20
2.477200
  0
VERTEX
  8
0
  6
CONTINUOUS
 10
4.391200
 20
2.519000
  0
SEQEND
  8
0
  0
SOLID
  8
0
 62
     7
 10
4.406600
 20
2.477200
 11
5.150200
 21
2.478520
 12
4.429920
 22
2.437160
 13
5.173080
 23
2.438480
  0
POLYLINE
  8
0
  6
CONTINUOUS
 66
     1
 40
0.000000
 41
0.000000
  0
VERTEX
  8
0
  6
CONTINUOUS
 10
4.406600
 20
2.477200
  0
VERTEX
  8
0
  6
CONTINUOUS
 10
5.150200
 20
2.478520
  0
VERTEX
  8
0
  6
CONTINUOUS
 10
5.173080
 20
2.438480
  0
VERTEX
  8
0
  6
CONTINUOUS
 10
4.429920
 20
2.437160
  0
VERTEX
  8
0
  6
CONTINUOUS
 10
4.406600
 20
2.477200
  0
SEQEND
  8
0
  0
SOLID
  8
0
 62
    15
 10
4.429920
 20
2.437160
 11
5.173080
 21
2.438480
 12
4.461160
 22
2.398880
 13
5.204760
 23
2.400200
  0
POLYLINE
  8
0
  6
CONTINUOUS
 66
     1
 40
0.000000
 41
0.000000
  0
VERTEX
  8
0
  6
CONTINUOUS
 10
4.429920
 20
2.437160
  0
VERTEX
  8
0
  6
CONTINUOUS
 10
5.173080
 20
2.438480
  0
VERTEX
  8
0
  6
CONTINUOUS
 10
5.204760
 20
2.400200
  0
VERTEX
  8
0
  6
CONTINUOUS
 10
4.461160
 20
2.398880
  0
VERTEX
  8
0
  6
CONTINUOUS
 10
4.429920
 20
2.437160
  0
SEQEND
  8
0
  0
SOLID
  8
0
 62
    15
 10
4.461160
 20
2.398880
 11
5.204760
 21
2.400200
 12
4.502520
 22
2.362360
 13
5.246120
 23
2.363680
  0
POLYLINE
  8
0
  6
CONTINUOUS
 66
     1
 40
0.000000
 41
0.000000
  0
VERTEX
  8
0
  6
CONTINUOUS
 10
4.461160
 20
2.398880
  0
VERTEX
  8
0
  6
CONTINUOUS
 10
5.204760
 20
2.400200
  0
VERTEX
  8
0
  6
CONTINUOUS
 10
5.246120
 20
2.363680
  0
VERTEX
  8
0
  6
CONTINUOUS
 10
4.502520
 20
2.362360
  0
VERTEX
  8
0
  6
CONTINUOUS
 10
4.461160
 20
2.398880
  0
SEQEND
  8
0
  0
SOLID
  8
0
 62
    15
 10
4.502520
 20
2.362360
 11
5.246120
 21
2.363680
 12
4.554000
 22
2.327600
 13
5.297600
 23
2.328920
  0
POLYLINE
  8
0
  6
CONTINUOUS
 66
     1
 40
0.000000
 41
0.000000
  0
VERTEX
  8
0
  6
CONTINUOUS
 10
4.502520
 20
2.362360
  0
VERTEX
  8
0
  6
CONTINUOUS
 10
5.246120
 20
2.363680
  0
VERTEX
  8
0
  6
CONTINUOUS
 10
5.297600
 20
2.328920
  0
VERTEX
  8
0
  6
CONTINUOUS
 10
4.554000
 20
2.327600
  0
VERTEX
  8
0
  6
CONTINUOUS
 10
4.502520
 20
2.362360
  0
SEQEND
  8
0
  0
SOLID
  8
0
 62
    15
 10
4.554000
 20
2.327600
 11
5.297600
 21
2.328920
 12
4.617360
 22
2.294160
 13
5.360960
 23
2.295480
  0
POLYLINE
  8
0
  6
CONTINUOUS
 66
     1
 40
0.000000
 41
0.000000
  0
VERTEX
  8
0
  6
CONTINUOUS
 10
4.554000
 20
2.327600
  0
VERTEX
  8
0
  6
CONTINUOUS
 10
5.297600
 20
2.328920
  0
VERTEX
  8
0
  6
CONTINUOUS
 10
5.360960
 20
2.295480
  0
VERTEX
  8
0
  6
CONTINUOUS
 10
4.617360
 20
2.294160
  0
VERTEX
  8
0
  6
CONTINUOUS
 10
4.554000
 20
2.327600
  0
SEQEND
  8
0
  0
SOLID
  8
0
 62
    15
 10
4.619120
 20
2.084280
 11
5.362720
 21
2.085160
 12
4.652560
 22
2.078560
 13
5.396160
 23
2.079880
  0
POLYLINE
  8
0
  6
CONTINUOUS
 66
     1
 40
0.000000
 41
0.000000
  0
VERTEX
  8
0
  6
CONTINUOUS
 10
4.619120
 20
2.084280
  0
VERTEX
  8
0
  6
CONTINUOUS
 10
5.362720
 20
2.085160
  0
VERTEX
  8
0
  6
CONTINUOUS
 10
5.396160
 20
2.079880
  0
VERTEX
  8
0
  6
CONTINUOUS
 10
4.652560
 20
2.078560
  0
VERTEX
  8
0
  6
CONTINUOUS
 10
4.619120
 20
2.084280
  0
SEQEND
  8
0
  0
POLYLINE
  8
0
  6
CONTINUOUS
 66
     1
 40
0.000000
 41
0.000000
  0
VERTEX
  8
0
  6
CONTINUOUS
 10
4.619120
 20
2.084280
  0
VERTEX
  8
0
  6
CONTINUOUS
 10
4.652560
 20
2.078560
  0
VERTEX
  8
0
  6
CONTINUOUS
 10
4.685120
 20
2.070200
  0
VERTEX
  8
0
  6
CONTINUOUS
 10
4.745400
 20
2.045120
  0
VERTEX
  8
0
  6
CONTINUOUS
 10
4.799960
 20
2.009920
  0
VERTEX
  8
0
  6
CONTINUOUS
 10
4.847480
 20
1.965480
  0
VERTEX
  8
0
  6
CONTINUOUS
 10
4.886200
 20
1.914000
  0
VERTEX
  8
0
  6
CONTINUOUS
 10
4.915240
 20
1.855480
  0
VERTEX
  8
0
  6
CONTINUOUS
 10
4.933720
 20
1.791240
  0
VERTEX
  8
0
  6
CONTINUOUS
 10
4.938560
 20
1.757800
  0
VERTEX
  8
0
  6
CONTINUOUS
 10
4.940320
 20
1.723480
  0
VERTEX
  8
0
  6
CONTINUOUS
 10
4.938560
 20
1.688720
  0
VERTEX
  8
0
  6
CONTINUOUS
 10
4.933720
 20
1.655280
  0
VERTEX
  8
0
  6
CONTINUOUS
 10
4.915240
 20
1.591480
  0
VERTEX
  8
0
  6
CONTINUOUS
 10
4.885320
 20
1.533400
  0
VERTEX
  8
0
  6
CONTINUOUS
 10
4.846160
 20
1.481920
  0
VERTEX
  8
0
  6
CONTINUOUS
 10
4.798640
 20
1.437920
  0
VERTEX
  8
0
  6
CONTINUOUS
 10
4.743640
 20
1.403160
  0
VERTEX
  8
0
  6
CONTINUOUS
 10
4.682480
 20
1.378520
  0
VERTEX
  8
0
  6
CONTINUOUS
 10
4.616920
 20
1.364440
  0
VERTEX
  8
0
  6
CONTINUOUS
 10
4.616920
 20
1.365320
  0
VERTEX
  8
0
  6
CONTINUOUS
 10
4.616920
 20
1.161600
  0
VERTEX
  8
0
  6
CONTINUOUS
 10
4.553560
 20
1.128160
  0
VERTEX
  8
0
  6
CONTINUOUS
 10
4.502080
 20
1.093400
  0
VERTEX
  8
0
  6
CONTINUOUS
 10
4.460720
 20
1.056880
  0
VERTEX
  8
0
  6
CONTINUOUS
 10
4.429480
 20
1.018600
  0
VERTEX
  8
0
  6
CONTINUOUS
 10
4.406160
 20
0.978560
  0
VERTEX
  8
0
  6
CONTINUOUS
 10
4.390760
 20
0.936760
  0
VERTEX
  8
0
  6
CONTINUOUS
 10
4.381960
 20
0.892760
  0
VERTEX
  8
0
  6
CONTINUOUS
 10
4.378880
 20
0.846560
  0
VERTEX
  8
0
  6
CONTINUOUS
 10
4.249080
 20
0.846560
  0
VERTEX
  8
0
  6
CONTINUOUS
 10
4.249520
 20
0.847000
  0
VERTEX
  8
0
  6
CONTINUOUS
 10
4.249520
 20
2.609200
  0
VERTEX
  8
0
  6
CONTINUOUS
 10
4.379320
 20
2.609200
  0
VERTEX
  8
0
  6
CONTINUOUS
 10
4.382400
 20
2.563000
  0
VERTEX
  8
0
  6
CONTINUOUS
 10
4.391200
 20
2.519000
  0
VERTEX
  8
0
  6
CONTINUOUS
 10
4.406600
 20
2.477200
  0
VERTEX
  8
0
  6
CONTINUOUS
 10
4.429920
 20
2.437160
  0
VERTEX
  8
0
  6
CONTINUOUS
 10
4.461160
 20
2.398880
  0
VERTEX
  8
0
  6
CONTINUOUS
 10
4.502520
 20
2.362360
  0
VERTEX
  8
0
  6
CONTINUOUS
 10
4.554000
 20
2.327600
  0
VERTEX
  8
0
  6
CONTINUOUS
 10
4.617360
 20
2.294160
  0
VERTEX
  8
0
  6
CONTINUOUS
 10
4.617360
 20
2.083840
  0
VERTEX
  8
0
  6
CONTINUOUS
 10
4.619120
 20
2.084280
  0
SEQEND
  8
0
  0
TEXT
  8
0
 10
4.670600
 20
0.629200
 40
0.138210
  1
BA  958
 41
1.000000
  7
SN0
 71
     0
 72
     5
 11
5.261369
 21
0.629200
  0
TEXT
  8
0
 10
4.422440
 20
0.437800
 40
0.138210
  1
11/16" x 1-3/4"
 41
1.000000
  7
SN0
 71
     0
 72
     5
 11
5.508422
 21
0.437800
  0
POLYLINE
  8
0
  6
CONTINUOUS
 66
     1
 40
0.014080
 41
0.014080
  0
VERTEX
  8
0
  6
CONTINUOUS
 10
6.422240
 20
2.453880
  0
VERTEX
  8
0
  6
CONTINUOUS
 10
6.427520
 20
2.487320
  0
VERTEX
  8
0
  6
CONTINUOUS
 10
6.441600
 20
2.535280
  0
VERTEX
  8
0
  6
CONTINUOUS
 10
6.453920
 20
2.565640
  0
VERTEX
  8
0
  6
CONTINUOUS
 10
6.477680
 20
2.608320
  0
VERTEX
  8
0
  6
CONTINUOUS
 10
6.506720
 20
2.647480
  0
VERTEX
  8
0
  6
CONTINUOUS
 10
6.541040
 20
2.682240
  0
VERTEX
  8
0
  6
CONTINUOUS
 10
6.565680
 20
2.702480
  0
VERTEX
  8
0
  6
CONTINUOUS
 10
6.592960
 20
2.720960
  0
VERTEX
  8
0
  6
CONTINUOUS
 10
6.636080
 20
2.743840
  0
VERTEX
  8
0
  6
CONTINUOUS
 10
6.682720
 20
2.760560
  0
VERTEX
  8
0
  6
CONTINUOUS
 10
6.715280
 20
2.768480
  0
VERTEX
  8
0
  6
CONTINUOUS
 10
6.748720
 20
2.772880
  0
VERTEX
  8
0
  6
CONTINUOUS
 10
6.783480
 20
2.774640
  0
VERTEX
  8
0
  6
CONTINUOUS
 10
6.817800
 20
2.772880
  0
VERTEX
  8
0
  6
CONTINUOUS
 10
6.851240
 20
2.768040
  0
VERTEX
  8
0
  6
CONTINUOUS
 10
6.883800
 20
2.760120
  0
VERTEX
  8
0
  6
CONTINUOUS
 10
6.915040
 20
2.749560
  0
VERTEX
  8
0
  6
CONTINUOUS
 10
6.959040
 20
2.728440
  0
VERTEX
  8
0
  6
CONTINUOUS
 10
6.999960
 20
2.701600
  0
VERTEX
  8
0
  6
CONTINUOUS
 10
7.036480
 20
2.669480
  0
VERTEX
  8
0
  6
CONTINUOUS
 10
7.068600
 20
2.632960
  0
VERTEX
  8
0
  6
CONTINUOUS
 10
7.095440
 20
2.592480
  0
VERTEX
  8
0
  6
CONTINUOUS
 10
7.117000
 20
2.548040
  0
VERTEX
  8
0
  6
CONTINUOUS
 10
7.128440
 20
2.517240
  0
VERTEX
  8
0
  6
CONTINUOUS
 10
7.139880
 20
2.467960
  0
VERTEX
  8
0
  6
CONTINUOUS
 10
7.142080
 20
2.451240
  0
VERTEX
  8
0
  6
CONTINUOUS
 10
7.141200
 20
2.451680
  0
VERTEX
  8
0
  6
CONTINUOUS
 10
7.344920
 20
2.451680
  0
VERTEX
  8
0
  6
CONTINUOUS
 10
7.378360
 20
2.388320
  0
VERTEX
  8
0
  6
CONTINUOUS
 10
7.404320
 20
2.348280
  0
VERTEX
  8
0
  6
CONTINUOUS
 10
7.440400
 20
2.304720
  0
VERTEX
  8
0
  6
CONTINUOUS
 10
7.468560
 20
2.278320
  0
VERTEX
  8
0
  6
CONTINUOUS
 10
7.487920
 20
2.263800
  0
VERTEX
  8
0
  6
CONTINUOUS
 10
7.527960
 20
2.240920
  0
VERTEX
  8
0
  6
CONTINUOUS
 10
7.548640
 20
2.232120
  0
VERTEX
  8
0
  6
CONTINUOUS
 10
7.591760
 20
2.220240
  0
VERTEX
  8
0
  6
CONTINUOUS
 10
7.613760
 20
2.216280
  0
VERTEX
  8
0
  6
CONTINUOUS
 10
7.659960
 20
2.213200
  0
VERTEX
  8
0
  6
CONTINUOUS
 10
7.659960
 20
2.083400
  0
VERTEX
  8
0
  6
CONTINUOUS
 10
7.659520
 20
2.084280
  0
VERTEX
  8
0
  6
CONTINUOUS
 10
5.897320
 20
2.084280
  0
VERTEX
  8
0
  6
CONTINUOUS
 10
5.897320
 20
2.213640
  0
VERTEX
  8
0
  6
CONTINUOUS
 10
5.943520
 20
2.216720
  0
VERTEX
  8
0
  6
CONTINUOUS
 10
5.987520
 20
2.225960
  0
VERTEX
  8
0
  6
CONTINUOUS
 10
6.008640
 20
2.232560
  0
VERTEX
  8
0
  6
CONTINUOUS
 10
6.029320
 20
2.241360
  0
VERTEX
  8
0
  6
CONTINUOUS
 10
6.069360
 20
2.264240
  0
VERTEX
  8
0
  6
CONTINUOUS
 10
6.088720
 20
2.278760
  0
VERTEX
  8
0
  6
CONTINUOUS
 10
6.116880
 20
2.305160
  0
VERTEX
  8
0
  6
CONTINUOUS
 10
6.152960
 20
2.348720
  0
VERTEX
  8
0
  6
CONTINUOUS
 10
6.178920
 20
2.388760
  0
VERTEX
  8
0
  6
CONTINUOUS
 10
6.212360
 20
2.452120
  0
VERTEX
  8
0
  6
CONTINUOUS
 10
6.422680
 20
2.452120
  0
VERTEX
  8
0
  6
CONTINUOUS
 10
6.422240
 20
2.453880
  0
SEQEND
  8
0
  0
TEXT
  8
0
 10
6.490880
 20
2.307800
 40
0.138210
  1
BA  958
 41
1.000000
  7
SN0
 71
     0
 72
     5
 11
7.081649
 21
2.307800
  0
TEXT
  8
0
 10
6.242720
 20
2.116400
 40
0.138210
  1
11/16" x 1-3/4"
 41
1.000000
  7
SN0
 71
     0
 72
     5
 11
7.328702
 21
2.116400
  0
ENDSEC
  0
EOF
