  0
SECTION
  2
HEADER
  9
$ACADVER
  1
AC1006
  9
$EXTMIN
 10
0.777920
 20
0.359480
  9
$EXTMAX
 10
8.046280
 20
6.014360
  9
$LTSCALE
 40
0.044000
  9
$PDMODE
 70
    35
  9
$PDSIZE
 40
0.035200
  0
ENDSEC
  0
SECTION
  2
TABLES
  0
TABLE
  2
LTYPE
 70
     9
  0
LTYPE
  2
CONTINUOUS
 70
    64
  3
Solid line
 72
    65
 73
     0
 40
0.000000
  0
LTYPE
  2
DASHED
 70
    64
  3
__ __ __ __ __ __ __ __ __ __ __ __ __ __ __
 72
    65
 73
     2
 40
0.000330
 49
0.000220
 49
-0.000110
  0
LTYPE
  2
HIDDEN
 70
    64
  3
 _ _ _ _ _ _ _ _ _ _ _ _ _ _ _ _ _ _ _ _ _ _
 72
    65
 73
     2
 40
0.000165
 49
0.000110
 49
-0.000055
  0
LTYPE
  2
CENTER
 70
    64
  3
____ _ ____ _ ____ _ ____ _ ____ _ ____ _ ____
 72
    65
 73
     4
 40
0.000880
 49
0.000550
 49
-0.000110
 49
0.000110
 49
-0.000110
  0
LTYPE
  2
PHANTOM
 70
    64
  3
_____ _ _ _____ _ _ _____ _ _ _____ _ _ ____
 72
    65
 73
     6
 40
0.001100
 49
0.000550
 49
-0.000110
 49
0.000110
 49
-0.000110
 49
0.000110
 49
-0.000110
  0
LTYPE
  2
DOT
 70
    64
  3
...............................................
 72
    65
 73
     2
 40
0.000110
 49
0.000000
 49
-0.000110
  0
LTYPE
  2
DASHDOT
 70
    64
  3
__ . __ . __ . __ . __ . __ . __ . __ . __ . __
 72
    65
 73
     4
 40
0.000440
 49
0.000220
 49
-0.000110
 49
0.000000
 49
-0.000110
  0
LTYPE
  2
BORDER
 70
    64
  3
__ __ . __ __ . __ __ . __ __ . __ __ . __ __
 72
    65
 73
     6
 40
0.000770
 49
0.000220
 49
-0.000110
 49
0.000220
 49
-0.000110
 49
0.000000
 49
-0.000110
  0
LTYPE
  2
DIVIDE
 70
    64
  3
__ . . __ . . __ . . __ . . __ . . __ . . __
 72
    65
 73
     6
 40
0.000550
 49
0.000220
 49
-0.000110
 49
0.000000
 49
-0.000110
 49
0.000000
 49
-0.000110
  0
LTYPE
  2
DOTDOT
 70
    64
  3
 . .  . .  . .  . .  . .  . . 
 72
    65
 73
     5
 40
0.000242
 49
-0.000110
 49
0.000000
 49
-0.000110
 49
0.000000
 49
-0.000110
  0
ENDTAB
  0
TABLE
  2
STYLE
 70
     2
  0
STYLE
 70
     0
  2
SN0
 40
0.000000
 41
0.000440
 50
0.000000
 71
     0
 42
0.000000
  3
ROMAND
  0
STYLE
 70
    68
  2
SV0
 40
0.000000
 41
0.000440
 50
0.000000
 71
     0
 42
0.000000
  3
ROMAND
  0
ENDTAB
  0
TABLE
  2
LAYER
 70
     3
  0
LAYER
  2
FOREGROUND
 70
    64
 62
     7
  6
CONTINUOUS
  0
LAYER
  2
BACKGROUND
 70
    65
 62
    -7
  6
CONTINUOUS
  0
LAYER
  2
0
 70
    64
 62
     7
  6
CONTINUOUS
  0
ENDTAB
  0
ENDSEC
  0
SECTION
  2
ENTITIES
  0
POLYLINE
  8
FOREGROUND
  6
CONTINUOUS
 66
     1
 40
0.000000
 41
0.000000
  0
VERTEX
  8
FOREGROUND
  6
CONTINUOUS
 10
0.000000
 20
6.373840
  0
VERTEX
  8
FOREGROUND
  6
CONTINUOUS
 10
8.499920
 20
6.373840
  0
VERTEX
  8
FOREGROUND
  6
CONTINUOUS
 10
8.499920
 20
-4.626160
  0
VERTEX
  8
FOREGROUND
  6
CONTINUOUS
 10
0.000000
 20
-4.626160
  0
VERTEX
  8
FOREGROUND
  6
CONTINUOUS
 10
0.000000
 20
6.373840
  0
SEQEND
  8
0
  0
POLYLINE
  8
FOREGROUND
  6
CONTINUOUS
 66
     1
 40
0.000000
 41
0.000000
  0
VERTEX
  8
FOREGROUND
  6
CONTINUOUS
 10
0.000000
 20
6.373840
  0
VERTEX
  8
FOREGROUND
  6
CONTINUOUS
 10
8.499920
 20
6.373840
  0
VERTEX
  8
FOREGROUND
  6
CONTINUOUS
 10
8.499920
 20
-4.626160
  0
VERTEX
  8
FOREGROUND
  6
CONTINUOUS
 10
0.000000
 20
-4.626160
  0
VERTEX
  8
FOREGROUND
  6
CONTINUOUS
 10
0.000000
 20
6.373840
  0
SEQEND
  8
0
  0
SOLID
  8
0
 62
    15
 10
2.445960
 20
2.842400
 11
3.097600
 21
2.464440
 12
2.396240
 22
2.786520
 13
3.047880
 23
2.408560
  0
POLYLINE
  8
0
  6
CONTINUOUS
 66
     1
 40
0.000000
 41
0.000000
  0
VERTEX
  8
0
  6
CONTINUOUS
 10
2.445960
 20
2.842400
  0
VERTEX
  8
0
  6
CONTINUOUS
 10
3.097600
 20
2.464440
  0
VERTEX
  8
0
  6
CONTINUOUS
 10
3.047880
 20
2.408560
  0
VERTEX
  8
0
  6
CONTINUOUS
 10
2.396240
 20
2.786520
  0
VERTEX
  8
0
  6
CONTINUOUS
 10
2.445960
 20
2.842400
  0
SEQEND
  8
0
  0
SOLID
  8
0
 62
    15
 10
3.680600
 20
4.090240
 11
4.332240
 21
3.712280
 12
3.565760
 22
4.082760
 13
4.217400
 23
3.704800
  0
POLYLINE
  8
0
  6
CONTINUOUS
 66
     1
 40
0.000000
 41
0.000000
  0
VERTEX
  8
0
  6
CONTINUOUS
 10
3.680600
 20
4.090240
  0
VERTEX
  8
0
  6
CONTINUOUS
 10
4.332240
 20
3.712280
  0
VERTEX
  8
0
  6
CONTINUOUS
 10
4.217400
 20
3.704800
  0
VERTEX
  8
0
  6
CONTINUOUS
 10
3.565760
 20
4.082760
  0
VERTEX
  8
0
  6
CONTINUOUS
 10
3.680600
 20
4.090240
  0
SEQEND
  8
0
  0
SOLID
  8
0
 62
    15
 10
3.565760
 20
4.082760
 11
4.217400
 21
3.704800
 12
3.466760
 22
4.060760
 13
4.118400
 23
3.682800
  0
POLYLINE
  8
0
  6
CONTINUOUS
 66
     1
 40
0.000000
 41
0.000000
  0
VERTEX
  8
0
  6
CONTINUOUS
 10
3.565760
 20
4.082760
  0
VERTEX
  8
0
  6
CONTINUOUS
 10
4.217400
 20
3.704800
  0
VERTEX
  8
0
  6
CONTINUOUS
 10
4.118400
 20
3.682800
  0
VERTEX
  8
0
  6
CONTINUOUS
 10
3.466760
 20
4.060760
  0
VERTEX
  8
0
  6
CONTINUOUS
 10
3.565760
 20
4.082760
  0
SEQEND
  8
0
  0
SOLID
  8
0
 62
    15
 10
3.466760
 20
4.060760
 11
4.118400
 21
3.682800
 12
3.382280
 22
4.026440
 13
4.033920
 23
3.648480
  0
POLYLINE
  8
0
  6
CONTINUOUS
 66
     1
 40
0.000000
 41
0.000000
  0
VERTEX
  8
0
  6
CONTINUOUS
 10
3.466760
 20
4.060760
  0
VERTEX
  8
0
  6
CONTINUOUS
 10
4.118400
 20
3.682800
  0
VERTEX
  8
0
  6
CONTINUOUS
 10
4.033920
 20
3.648480
  0
VERTEX
  8
0
  6
CONTINUOUS
 10
3.382280
 20
4.026440
  0
VERTEX
  8
0
  6
CONTINUOUS
 10
3.466760
 20
4.060760
  0
SEQEND
  8
0
  0
SOLID
  8
0
 62
    15
 10
3.382280
 20
4.026440
 11
4.033920
 21
3.648480
 12
3.311440
 22
3.982000
 13
3.963080
 23
3.603600
  0
POLYLINE
  8
0
  6
CONTINUOUS
 66
     1
 40
0.000000
 41
0.000000
  0
VERTEX
  8
0
  6
CONTINUOUS
 10
3.382280
 20
4.026440
  0
VERTEX
  8
0
  6
CONTINUOUS
 10
4.033920
 20
3.648480
  0
VERTEX
  8
0
  6
CONTINUOUS
 10
3.963080
 20
3.603600
  0
VERTEX
  8
0
  6
CONTINUOUS
 10
3.311440
 20
3.982000
  0
VERTEX
  8
0
  6
CONTINUOUS
 10
3.382280
 20
4.026440
  0
SEQEND
  8
0
  0
SOLID
  8
0
 62
    15
 10
3.311440
 20
3.982000
 11
3.963080
 21
3.603600
 12
3.203640
 22
3.868040
 13
3.855280
 23
3.490080
  0
POLYLINE
  8
0
  6
CONTINUOUS
 66
     1
 40
0.000000
 41
0.000000
  0
VERTEX
  8
0
  6
CONTINUOUS
 10
3.311440
 20
3.982000
  0
VERTEX
  8
0
  6
CONTINUOUS
 10
3.963080
 20
3.603600
  0
VERTEX
  8
0
  6
CONTINUOUS
 10
3.855280
 20
3.490080
  0
VERTEX
  8
0
  6
CONTINUOUS
 10
3.203640
 20
3.868040
  0
VERTEX
  8
0
  6
CONTINUOUS
 10
3.311440
 20
3.982000
  0
SEQEND
  8
0
  0
SOLID
  8
0
 62
    15
 10
3.203640
 20
3.868040
 11
3.855280
 21
3.490080
 12
3.133240
 22
3.734720
 13
3.784880
 23
3.356320
  0
POLYLINE
  8
0
  6
CONTINUOUS
 66
     1
 40
0.000000
 41
0.000000
  0
VERTEX
  8
0
  6
CONTINUOUS
 10
3.203640
 20
3.868040
  0
VERTEX
  8
0
  6
CONTINUOUS
 10
3.855280
 20
3.490080
  0
VERTEX
  8
0
  6
CONTINUOUS
 10
3.784880
 20
3.356320
  0
VERTEX
  8
0
  6
CONTINUOUS
 10
3.133240
 20
3.734720
  0
VERTEX
  8
0
  6
CONTINUOUS
 10
3.203640
 20
3.868040
  0
SEQEND
  8
0
  0
SOLID
  8
0
 62
    15
 10
3.133240
 20
3.734720
 11
3.784880
 21
3.356320
 12
3.112120
 22
3.654200
 13
3.763760
 23
3.276240
  0
POLYLINE
  8
0
  6
CONTINUOUS
 66
     1
 40
0.000000
 41
0.000000
  0
VERTEX
  8
0
  6
CONTINUOUS
 10
3.133240
 20
3.734720
  0
VERTEX
  8
0
  6
CONTINUOUS
 10
3.784880
 20
3.356320
  0
VERTEX
  8
0
  6
CONTINUOUS
 10
3.763760
 20
3.276240
  0
VERTEX
  8
0
  6
CONTINUOUS
 10
3.112120
 20
3.654200
  0
VERTEX
  8
0
  6
CONTINUOUS
 10
3.133240
 20
3.734720
  0
SEQEND
  8
0
  0
SOLID
  8
0
 62
    15
 10
3.112120
 20
3.654200
 11
3.763760
 21
3.276240
 12
3.104200
 22
3.607560
 13
3.755840
 23
3.229600
  0
POLYLINE
  8
0
  6
CONTINUOUS
 66
     1
 40
0.000000
 41
0.000000
  0
VERTEX
  8
0
  6
CONTINUOUS
 10
3.112120
 20
3.654200
  0
VERTEX
  8
0
  6
CONTINUOUS
 10
3.763760
 20
3.276240
  0
VERTEX
  8
0
  6
CONTINUOUS
 10
3.755840
 20
3.229600
  0
VERTEX
  8
0
  6
CONTINUOUS
 10
3.104200
 20
3.607560
  0
VERTEX
  8
0
  6
CONTINUOUS
 10
3.112120
 20
3.654200
  0
SEQEND
  8
0
  0
SOLID
  8
0
 62
    15
 10
3.104200
 20
3.607560
 11
3.755840
 21
3.229600
 12
3.100680
 22
3.583360
 13
3.752320
 23
3.204960
  0
POLYLINE
  8
0
  6
CONTINUOUS
 66
     1
 40
0.000000
 41
0.000000
  0
VERTEX
  8
0
  6
CONTINUOUS
 10
3.104200
 20
3.607560
  0
VERTEX
  8
0
  6
CONTINUOUS
 10
3.755840
 20
3.229600
  0
VERTEX
  8
0
  6
CONTINUOUS
 10
3.752320
 20
3.204960
  0
VERTEX
  8
0
  6
CONTINUOUS
 10
3.100680
 20
3.583360
  0
VERTEX
  8
0
  6
CONTINUOUS
 10
3.104200
 20
3.607560
  0
SEQEND
  8
0
  0
SOLID
  8
0
 62
    15
 10
3.100680
 20
3.583360
 11
3.752320
 21
3.204960
 12
3.096720
 22
3.558280
 13
3.748360
 23
3.179880
  0
POLYLINE
  8
0
  6
CONTINUOUS
 66
     1
 40
0.000000
 41
0.000000
  0
VERTEX
  8
0
  6
CONTINUOUS
 10
3.100680
 20
3.583360
  0
VERTEX
  8
0
  6
CONTINUOUS
 10
3.752320
 20
3.204960
  0
VERTEX
  8
0
  6
CONTINUOUS
 10
3.748360
 20
3.179880
  0
VERTEX
  8
0
  6
CONTINUOUS
 10
3.096720
 20
3.558280
  0
VERTEX
  8
0
  6
CONTINUOUS
 10
3.100680
 20
3.583360
  0
SEQEND
  8
0
  0
SOLID
  8
0
 62
    15
 10
3.096720
 20
3.558280
 11
3.748360
 21
3.179880
 12
3.052280
 22
3.354120
 13
3.703920
 23
2.976160
  0
POLYLINE
  8
0
  6
CONTINUOUS
 66
     1
 40
0.000000
 41
0.000000
  0
VERTEX
  8
0
  6
CONTINUOUS
 10
3.096720
 20
3.558280
  0
VERTEX
  8
0
  6
CONTINUOUS
 10
3.748360
 20
3.179880
  0
VERTEX
  8
0
  6
CONTINUOUS
 10
3.703920
 20
2.976160
  0
VERTEX
  8
0
  6
CONTINUOUS
 10
3.052280
 20
3.354120
  0
VERTEX
  8
0
  6
CONTINUOUS
 10
3.096720
 20
3.558280
  0
SEQEND
  8
0
  0
SOLID
  8
0
 62
    15
 10
3.052280
 20
3.354120
 11
3.703920
 21
2.976160
 12
3.005640
 22
3.263920
 13
3.657280
 23
2.885520
  0
POLYLINE
  8
0
  6
CONTINUOUS
 66
     1
 40
0.000000
 41
0.000000
  0
VERTEX
  8
0
  6
CONTINUOUS
 10
3.052280
 20
3.354120
  0
VERTEX
  8
0
  6
CONTINUOUS
 10
3.703920
 20
2.976160
  0
VERTEX
  8
0
  6
CONTINUOUS
 10
3.657280
 20
2.885520
  0
VERTEX
  8
0
  6
CONTINUOUS
 10
3.005640
 20
3.263920
  0
VERTEX
  8
0
  6
CONTINUOUS
 10
3.052280
 20
3.354120
  0
SEQEND
  8
0
  0
SOLID
  8
0
 62
    15
 10
3.005640
 20
3.263920
 11
3.657280
 21
2.885520
 12
2.932160
 22
3.193080
 13
3.583800
 23
2.815120
  0
POLYLINE
  8
0
  6
CONTINUOUS
 66
     1
 40
0.000000
 41
0.000000
  0
VERTEX
  8
0
  6
CONTINUOUS
 10
3.005640
 20
3.263920
  0
VERTEX
  8
0
  6
CONTINUOUS
 10
3.657280
 20
2.885520
  0
VERTEX
  8
0
  6
CONTINUOUS
 10
3.583800
 20
2.815120
  0
VERTEX
  8
0
  6
CONTINUOUS
 10
2.932160
 20
3.193080
  0
VERTEX
  8
0
  6
CONTINUOUS
 10
3.005640
 20
3.263920
  0
SEQEND
  8
0
  0
SOLID
  8
0
 62
    15
 10
2.932160
 20
3.193080
 11
3.583800
 21
2.815120
 12
2.822600
 22
3.150840
 13
3.474240
 23
2.772880
  0
POLYLINE
  8
0
  6
CONTINUOUS
 66
     1
 40
0.000000
 41
0.000000
  0
VERTEX
  8
0
  6
CONTINUOUS
 10
2.932160
 20
3.193080
  0
VERTEX
  8
0
  6
CONTINUOUS
 10
3.583800
 20
2.815120
  0
VERTEX
  8
0
  6
CONTINUOUS
 10
3.474240
 20
2.772880
  0
VERTEX
  8
0
  6
CONTINUOUS
 10
2.822600
 20
3.150840
  0
VERTEX
  8
0
  6
CONTINUOUS
 10
2.932160
 20
3.193080
  0
SEQEND
  8
0
  0
SOLID
  8
0
 62
    15
 10
2.822600
 20
3.150840
 11
3.474240
 21
2.772880
 12
2.751760
 22
3.143360
 13
3.403840
 23
2.764960
  0
POLYLINE
  8
0
  6
CONTINUOUS
 66
     1
 40
0.000000
 41
0.000000
  0
VERTEX
  8
0
  6
CONTINUOUS
 10
2.822600
 20
3.150840
  0
VERTEX
  8
0
  6
CONTINUOUS
 10
3.474240
 20
2.772880
  0
VERTEX
  8
0
  6
CONTINUOUS
 10
3.403840
 20
2.764960
  0
VERTEX
  8
0
  6
CONTINUOUS
 10
2.751760
 20
3.143360
  0
VERTEX
  8
0
  6
CONTINUOUS
 10
2.822600
 20
3.150840
  0
SEQEND
  8
0
  0
SOLID
  8
0
 62
    15
 10
2.751760
 20
3.143360
 11
3.403840
 21
2.764960
 12
2.669040
 22
3.146000
 13
3.320680
 23
2.768040
  0
POLYLINE
  8
0
  6
CONTINUOUS
 66
     1
 40
0.000000
 41
0.000000
  0
VERTEX
  8
0
  6
CONTINUOUS
 10
2.751760
 20
3.143360
  0
VERTEX
  8
0
  6
CONTINUOUS
 10
3.403840
 20
2.764960
  0
VERTEX
  8
0
  6
CONTINUOUS
 10
3.320680
 20
2.768040
  0
VERTEX
  8
0
  6
CONTINUOUS
 10
2.669040
 20
3.146000
  0
VERTEX
  8
0
  6
CONTINUOUS
 10
2.751760
 20
3.143360
  0
SEQEND
  8
0
  0
SOLID
  8
0
 62
    15
 10
2.669040
 20
3.146000
 11
3.320680
 21
2.768040
 12
2.671680
 22
2.955920
 13
3.323320
 23
2.577960
  0
POLYLINE
  8
0
  6
CONTINUOUS
 66
     1
 40
0.000000
 41
0.000000
  0
VERTEX
  8
0
  6
CONTINUOUS
 10
2.669040
 20
3.146000
  0
VERTEX
  8
0
  6
CONTINUOUS
 10
3.320680
 20
2.768040
  0
VERTEX
  8
0
  6
CONTINUOUS
 10
3.323320
 20
2.577960
  0
VERTEX
  8
0
  6
CONTINUOUS
 10
2.671680
 20
2.955920
  0
VERTEX
  8
0
  6
CONTINUOUS
 10
2.669040
 20
3.146000
  0
SEQEND
  8
0
  0
SOLID
  8
0
 62
    15
 10
2.671680
 20
2.955920
 11
3.323320
 21
2.577960
 12
2.582800
 22
2.926880
 13
3.234440
 23
2.548920
  0
POLYLINE
  8
0
  6
CONTINUOUS
 66
     1
 40
0.000000
 41
0.000000
  0
VERTEX
  8
0
  6
CONTINUOUS
 10
2.671680
 20
2.955920
  0
VERTEX
  8
0
  6
CONTINUOUS
 10
3.323320
 20
2.577960
  0
VERTEX
  8
0
  6
CONTINUOUS
 10
3.234440
 20
2.548920
  0
VERTEX
  8
0
  6
CONTINUOUS
 10
2.582800
 20
2.926880
  0
VERTEX
  8
0
  6
CONTINUOUS
 10
2.671680
 20
2.955920
  0
SEQEND
  8
0
  0
SOLID
  8
0
 62
    15
 10
2.582800
 20
2.926880
 11
3.234440
 21
2.548920
 12
2.507560
 22
2.889040
 13
3.159200
 23
2.511080
  0
POLYLINE
  8
0
  6
CONTINUOUS
 66
     1
 40
0.000000
 41
0.000000
  0
VERTEX
  8
0
  6
CONTINUOUS
 10
2.582800
 20
2.926880
  0
VERTEX
  8
0
  6
CONTINUOUS
 10
3.234440
 20
2.548920
  0
VERTEX
  8
0
  6
CONTINUOUS
 10
3.159200
 20
2.511080
  0
VERTEX
  8
0
  6
CONTINUOUS
 10
2.507560
 20
2.889040
  0
VERTEX
  8
0
  6
CONTINUOUS
 10
2.582800
 20
2.926880
  0
SEQEND
  8
0
  0
SOLID
  8
0
 62
    15
 10
2.507560
 20
2.889040
 11
3.159200
 21
2.511080
 12
2.445960
 22
2.842400
 13
3.097600
 23
2.464440
  0
POLYLINE
  8
0
  6
CONTINUOUS
 66
     1
 40
0.000000
 41
0.000000
  0
VERTEX
  8
0
  6
CONTINUOUS
 10
2.507560
 20
2.889040
  0
VERTEX
  8
0
  6
CONTINUOUS
 10
3.159200
 20
2.511080
  0
VERTEX
  8
0
  6
CONTINUOUS
 10
3.097600
 20
2.464440
  0
VERTEX
  8
0
  6
CONTINUOUS
 10
2.445960
 20
2.842400
  0
VERTEX
  8
0
  6
CONTINUOUS
 10
2.507560
 20
2.889040
  0
SEQEND
  8
0
  0
SOLID
  8
0
 62
    15
 10
3.680160
 20
4.845720
 11
4.331800
 21
4.467760
 12
3.680600
 22
4.090240
 13
4.332240
 23
3.712280
  0
POLYLINE
  8
0
  6
CONTINUOUS
 66
     1
 40
0.000000
 41
0.000000
  0
VERTEX
  8
0
  6
CONTINUOUS
 10
3.680160
 20
4.845720
  0
VERTEX
  8
0
  6
CONTINUOUS
 10
4.331800
 20
4.467760
  0
VERTEX
  8
0
  6
CONTINUOUS
 10
4.332240
 20
3.712280
  0
VERTEX
  8
0
  6
CONTINUOUS
 10
3.680600
 20
4.090240
  0
VERTEX
  8
0
  6
CONTINUOUS
 10
3.680160
 20
4.845720
  0
SEQEND
  8
0
  0
SOLID
  8
0
 62
    15
 10
2.396240
 20
2.786520
 11
3.047880
 21
2.408560
 12
2.358840
 22
2.721840
 13
3.010480
 23
2.343440
  0
POLYLINE
  8
0
  6
CONTINUOUS
 66
     1
 40
0.000000
 41
0.000000
  0
VERTEX
  8
0
  6
CONTINUOUS
 10
2.396240
 20
2.786520
  0
VERTEX
  8
0
  6
CONTINUOUS
 10
3.047880
 20
2.408560
  0
VERTEX
  8
0
  6
CONTINUOUS
 10
3.010480
 20
2.343440
  0
VERTEX
  8
0
  6
CONTINUOUS
 10
2.358840
 20
2.721840
  0
VERTEX
  8
0
  6
CONTINUOUS
 10
2.396240
 20
2.786520
  0
SEQEND
  8
0
  0
SOLID
  8
0
 62
    15
 10
2.358840
 20
2.721840
 11
3.010480
 21
2.343440
 12
2.332000
 22
2.647480
 13
2.983640
 23
2.269520
  0
POLYLINE
  8
0
  6
CONTINUOUS
 66
     1
 40
0.000000
 41
0.000000
  0
VERTEX
  8
0
  6
CONTINUOUS
 10
2.358840
 20
2.721840
  0
VERTEX
  8
0
  6
CONTINUOUS
 10
3.010480
 20
2.343440
  0
VERTEX
  8
0
  6
CONTINUOUS
 10
2.983640
 20
2.269520
  0
VERTEX
  8
0
  6
CONTINUOUS
 10
2.332000
 20
2.647480
  0
VERTEX
  8
0
  6
CONTINUOUS
 10
2.358840
 20
2.721840
  0
SEQEND
  8
0
  0
SOLID
  8
0
 62
    15
 10
2.332000
 20
2.647480
 11
2.983640
 21
2.269520
 12
2.310000
 22
2.471920
 13
2.961640
 23
2.093960
  0
POLYLINE
  8
0
  6
CONTINUOUS
 66
     1
 40
0.000000
 41
0.000000
  0
VERTEX
  8
0
  6
CONTINUOUS
 10
2.332000
 20
2.647480
  0
VERTEX
  8
0
  6
CONTINUOUS
 10
2.983640
 20
2.269520
  0
VERTEX
  8
0
  6
CONTINUOUS
 10
2.961640
 20
2.093960
  0
VERTEX
  8
0
  6
CONTINUOUS
 10
2.310000
 20
2.471920
  0
VERTEX
  8
0
  6
CONTINUOUS
 10
2.332000
 20
2.647480
  0
SEQEND
  8
0
  0
SOLID
  8
0
 62
    15
 10
2.310000
 20
2.471920
 11
2.961640
 21
2.093960
 12
1.849320
 22
2.473680
 13
2.500960
 23
2.095720
  0
POLYLINE
  8
0
  6
CONTINUOUS
 66
     1
 40
0.000000
 41
0.000000
  0
VERTEX
  8
0
  6
CONTINUOUS
 10
2.310000
 20
2.471920
  0
VERTEX
  8
0
  6
CONTINUOUS
 10
2.961640
 20
2.093960
  0
VERTEX
  8
0
  6
CONTINUOUS
 10
2.500960
 20
2.095720
  0
VERTEX
  8
0
  6
CONTINUOUS
 10
1.849320
 20
2.473680
  0
VERTEX
  8
0
  6
CONTINUOUS
 10
2.310000
 20
2.471920
  0
SEQEND
  8
0
  0
SOLID
  8
0
 62
    15
 10
1.849320
 20
2.473680
 11
2.500960
 21
2.095720
 12
1.850640
 22
1.701920
 13
2.502280
 23
1.323960
  0
POLYLINE
  8
0
  6
CONTINUOUS
 66
     1
 40
0.000000
 41
0.000000
  0
VERTEX
  8
0
  6
CONTINUOUS
 10
1.849320
 20
2.473680
  0
VERTEX
  8
0
  6
CONTINUOUS
 10
2.500960
 20
2.095720
  0
VERTEX
  8
0
  6
CONTINUOUS
 10
2.502280
 20
1.323960
  0
VERTEX
  8
0
  6
CONTINUOUS
 10
1.850640
 20
1.701920
  0
VERTEX
  8
0
  6
CONTINUOUS
 10
1.849320
 20
2.473680
  0
SEQEND
  8
0
  0
SOLID
  8
0
 62
    15
 10
1.850640
 20
1.701920
 11
2.502280
 21
1.323960
 12
1.618320
 22
1.700160
 13
2.269960
 23
1.321760
  0
POLYLINE
  8
0
  6
CONTINUOUS
 66
     1
 40
0.000000
 41
0.000000
  0
VERTEX
  8
0
  6
CONTINUOUS
 10
1.850640
 20
1.701920
  0
VERTEX
  8
0
  6
CONTINUOUS
 10
2.502280
 20
1.323960
  0
VERTEX
  8
0
  6
CONTINUOUS
 10
2.269960
 20
1.321760
  0
VERTEX
  8
0
  6
CONTINUOUS
 10
1.618320
 20
1.700160
  0
VERTEX
  8
0
  6
CONTINUOUS
 10
1.850640
 20
1.701920
  0
SEQEND
  8
0
  0
SOLID
  8
0
 62
    15
 10
1.618320
 20
1.700160
 11
2.269960
 21
1.321760
 12
1.643400
 22
1.596760
 13
2.295040
 23
1.218800
  0
POLYLINE
  8
0
  6
CONTINUOUS
 66
     1
 40
0.000000
 41
0.000000
  0
VERTEX
  8
0
  6
CONTINUOUS
 10
1.618320
 20
1.700160
  0
VERTEX
  8
0
  6
CONTINUOUS
 10
2.269960
 20
1.321760
  0
VERTEX
  8
0
  6
CONTINUOUS
 10
2.295040
 20
1.218800
  0
VERTEX
  8
0
  6
CONTINUOUS
 10
1.643400
 20
1.596760
  0
VERTEX
  8
0
  6
CONTINUOUS
 10
1.618320
 20
1.700160
  0
SEQEND
  8
0
  0
SOLID
  8
0
 62
    15
 10
1.643400
 20
1.596760
 11
2.295040
 21
1.218800
 12
1.638560
 22
1.513600
 13
2.290200
 23
1.135640
  0
POLYLINE
  8
0
  6
CONTINUOUS
 66
     1
 40
0.000000
 41
0.000000
  0
VERTEX
  8
0
  6
CONTINUOUS
 10
1.643400
 20
1.596760
  0
VERTEX
  8
0
  6
CONTINUOUS
 10
2.295040
 20
1.218800
  0
VERTEX
  8
0
  6
CONTINUOUS
 10
2.290200
 20
1.135640
  0
VERTEX
  8
0
  6
CONTINUOUS
 10
1.638560
 20
1.513600
  0
VERTEX
  8
0
  6
CONTINUOUS
 10
1.643400
 20
1.596760
  0
SEQEND
  8
0
  0
SOLID
  8
0
 62
    15
 10
1.638560
 20
1.513600
 11
2.290200
 21
1.135640
 12
1.610840
 22
1.448040
 13
2.262480
 23
1.070080
  0
POLYLINE
  8
0
  6
CONTINUOUS
 66
     1
 40
0.000000
 41
0.000000
  0
VERTEX
  8
0
  6
CONTINUOUS
 10
1.638560
 20
1.513600
  0
VERTEX
  8
0
  6
CONTINUOUS
 10
2.290200
 20
1.135640
  0
VERTEX
  8
0
  6
CONTINUOUS
 10
2.262480
 20
1.070080
  0
VERTEX
  8
0
  6
CONTINUOUS
 10
1.610840
 20
1.448040
  0
VERTEX
  8
0
  6
CONTINUOUS
 10
1.638560
 20
1.513600
  0
SEQEND
  8
0
  0
SOLID
  8
0
 62
    15
 10
1.610840
 20
1.448040
 11
2.262480
 21
1.070080
 12
1.565960
 22
1.397440
 13
2.217600
 23
1.019480
  0
POLYLINE
  8
0
  6
CONTINUOUS
 66
     1
 40
0.000000
 41
0.000000
  0
VERTEX
  8
0
  6
CONTINUOUS
 10
1.610840
 20
1.448040
  0
VERTEX
  8
0
  6
CONTINUOUS
 10
2.262480
 20
1.070080
  0
VERTEX
  8
0
  6
CONTINUOUS
 10
2.217600
 20
1.019480
  0
VERTEX
  8
0
  6
CONTINUOUS
 10
1.565960
 20
1.397440
  0
VERTEX
  8
0
  6
CONTINUOUS
 10
1.610840
 20
1.448040
  0
SEQEND
  8
0
  0
SOLID
  8
0
 62
    15
 10
1.565960
 20
1.397440
 11
2.217600
 21
1.019480
 12
1.451120
 22
1.331440
 13
2.102760
 23
0.953040
  0
POLYLINE
  8
0
  6
CONTINUOUS
 66
     1
 40
0.000000
 41
0.000000
  0
VERTEX
  8
0
  6
CONTINUOUS
 10
1.565960
 20
1.397440
  0
VERTEX
  8
0
  6
CONTINUOUS
 10
2.217600
 20
1.019480
  0
VERTEX
  8
0
  6
CONTINUOUS
 10
2.102760
 20
0.953040
  0
VERTEX
  8
0
  6
CONTINUOUS
 10
1.451120
 20
1.331440
  0
VERTEX
  8
0
  6
CONTINUOUS
 10
1.565960
 20
1.397440
  0
SEQEND
  8
0
  0
SOLID
  8
0
 62
    15
 10
1.451120
 20
1.331440
 11
2.102760
 21
0.953040
 12
1.345520
 22
1.294480
 13
1.997160
 23
0.916520
  0
POLYLINE
  8
0
  6
CONTINUOUS
 66
     1
 40
0.000000
 41
0.000000
  0
VERTEX
  8
0
  6
CONTINUOUS
 10
1.451120
 20
1.331440
  0
VERTEX
  8
0
  6
CONTINUOUS
 10
2.102760
 20
0.953040
  0
VERTEX
  8
0
  6
CONTINUOUS
 10
1.997160
 20
0.916520
  0
VERTEX
  8
0
  6
CONTINUOUS
 10
1.345520
 20
1.294480
  0
VERTEX
  8
0
  6
CONTINUOUS
 10
1.451120
 20
1.331440
  0
SEQEND
  8
0
  0
SOLID
  8
0
 62
    15
 10
1.345520
 20
1.294480
 11
1.997160
 21
0.916520
 12
1.256200
 22
1.249600
 13
1.907840
 23
0.871640
  0
POLYLINE
  8
0
  6
CONTINUOUS
 66
     1
 40
0.000000
 41
0.000000
  0
VERTEX
  8
0
  6
CONTINUOUS
 10
1.345520
 20
1.294480
  0
VERTEX
  8
0
  6
CONTINUOUS
 10
1.997160
 20
0.916520
  0
VERTEX
  8
0
  6
CONTINUOUS
 10
1.907840
 20
0.871640
  0
VERTEX
  8
0
  6
CONTINUOUS
 10
1.256200
 20
1.249600
  0
VERTEX
  8
0
  6
CONTINUOUS
 10
1.345520
 20
1.294480
  0
SEQEND
  8
0
  0
SOLID
  8
0
 62
    15
 10
1.256200
 20
1.249600
 11
1.907840
 21
0.871640
 12
1.212200
 22
1.211760
 13
1.863840
 23
0.833800
  0
POLYLINE
  8
0
  6
CONTINUOUS
 66
     1
 40
0.000000
 41
0.000000
  0
VERTEX
  8
0
  6
CONTINUOUS
 10
1.256200
 20
1.249600
  0
VERTEX
  8
0
  6
CONTINUOUS
 10
1.907840
 20
0.871640
  0
VERTEX
  8
0
  6
CONTINUOUS
 10
1.863840
 20
0.833800
  0
VERTEX
  8
0
  6
CONTINUOUS
 10
1.212200
 20
1.211760
  0
VERTEX
  8
0
  6
CONTINUOUS
 10
1.256200
 20
1.249600
  0
SEQEND
  8
0
  0
SOLID
  8
0
 62
    15
 10
1.212200
 20
1.211760
 11
1.863840
 21
0.833800
 12
1.173040
 22
1.160720
 13
1.824680
 23
0.782760
  0
POLYLINE
  8
0
  6
CONTINUOUS
 66
     1
 40
0.000000
 41
0.000000
  0
VERTEX
  8
0
  6
CONTINUOUS
 10
1.212200
 20
1.211760
  0
VERTEX
  8
0
  6
CONTINUOUS
 10
1.863840
 20
0.833800
  0
VERTEX
  8
0
  6
CONTINUOUS
 10
1.824680
 20
0.782760
  0
VERTEX
  8
0
  6
CONTINUOUS
 10
1.173040
 20
1.160720
  0
VERTEX
  8
0
  6
CONTINUOUS
 10
1.212200
 20
1.211760
  0
SEQEND
  8
0
  0
SOLID
  8
0
 62
    15
 10
1.173040
 20
1.160720
 11
1.824680
 21
0.782760
 12
1.141800
 22
1.093840
 13
1.793440
 23
0.715880
  0
POLYLINE
  8
0
  6
CONTINUOUS
 66
     1
 40
0.000000
 41
0.000000
  0
VERTEX
  8
0
  6
CONTINUOUS
 10
1.173040
 20
1.160720
  0
VERTEX
  8
0
  6
CONTINUOUS
 10
1.824680
 20
0.782760
  0
VERTEX
  8
0
  6
CONTINUOUS
 10
1.793440
 20
0.715880
  0
VERTEX
  8
0
  6
CONTINUOUS
 10
1.141800
 20
1.093840
  0
VERTEX
  8
0
  6
CONTINUOUS
 10
1.173040
 20
1.160720
  0
SEQEND
  8
0
  0
SOLID
  8
0
 62
    15
 10
1.141800
 20
1.093840
 11
1.793440
 21
0.715880
 12
1.121120
 22
1.009360
 13
1.772760
 23
0.631400
  0
POLYLINE
  8
0
  6
CONTINUOUS
 66
     1
 40
0.000000
 41
0.000000
  0
VERTEX
  8
0
  6
CONTINUOUS
 10
1.141800
 20
1.093840
  0
VERTEX
  8
0
  6
CONTINUOUS
 10
1.793440
 20
0.715880
  0
VERTEX
  8
0
  6
CONTINUOUS
 10
1.772760
 20
0.631400
  0
VERTEX
  8
0
  6
CONTINUOUS
 10
1.121120
 20
1.009360
  0
VERTEX
  8
0
  6
CONTINUOUS
 10
1.141800
 20
1.093840
  0
SEQEND
  8
0
  0
SOLID
  8
0
 62
    15
 10
1.121120
 20
1.009360
 11
1.772760
 21
0.631400
 12
1.114960
 22
0.904640
 13
1.766600
 23
0.526680
  0
POLYLINE
  8
0
  6
CONTINUOUS
 66
     1
 40
0.000000
 41
0.000000
  0
VERTEX
  8
0
  6
CONTINUOUS
 10
1.121120
 20
1.009360
  0
VERTEX
  8
0
  6
CONTINUOUS
 10
1.772760
 20
0.631400
  0
VERTEX
  8
0
  6
CONTINUOUS
 10
1.766600
 20
0.526680
  0
VERTEX
  8
0
  6
CONTINUOUS
 10
1.114960
 20
0.904640
  0
VERTEX
  8
0
  6
CONTINUOUS
 10
1.121120
 20
1.009360
  0
SEQEND
  8
0
  0
SOLID
  8
0
 62
    15
 10
1.114960
 20
0.904640
 11
1.766600
 21
0.526680
 12
1.125960
 22
0.777480
 13
1.777600
 23
0.399520
  0
POLYLINE
  8
0
  6
CONTINUOUS
 66
     1
 40
0.000000
 41
0.000000
  0
VERTEX
  8
0
  6
CONTINUOUS
 10
1.114960
 20
0.904640
  0
VERTEX
  8
0
  6
CONTINUOUS
 10
1.766600
 20
0.526680
  0
VERTEX
  8
0
  6
CONTINUOUS
 10
1.777600
 20
0.399520
  0
VERTEX
  8
0
  6
CONTINUOUS
 10
1.125960
 20
0.777480
  0
VERTEX
  8
0
  6
CONTINUOUS
 10
1.114960
 20
0.904640
  0
SEQEND
  8
0
  0
SOLID
  8
0
 62
    15
 10
1.125960
 20
0.777480
 11
1.777600
 21
0.399520
 12
0.778360
 22
0.779680
 13
1.430000
 23
0.401720
  0
POLYLINE
  8
0
  6
CONTINUOUS
 66
     1
 40
0.000000
 41
0.000000
  0
VERTEX
  8
0
  6
CONTINUOUS
 10
1.125960
 20
0.777480
  0
VERTEX
  8
0
  6
CONTINUOUS
 10
1.777600
 20
0.399520
  0
VERTEX
  8
0
  6
CONTINUOUS
 10
1.430000
 20
0.401720
  0
VERTEX
  8
0
  6
CONTINUOUS
 10
0.778360
 20
0.779680
  0
VERTEX
  8
0
  6
CONTINUOUS
 10
1.125960
 20
0.777480
  0
SEQEND
  8
0
  0
POLYLINE
  8
0
  6
CONTINUOUS
 66
     1
 40
0.000000
 41
0.000000
  0
VERTEX
  8
0
  6
CONTINUOUS
 10
3.264800
 20
4.847040
  0
VERTEX
  8
0
  6
CONTINUOUS
 10
3.680160
 20
4.845720
  0
VERTEX
  8
0
  6
CONTINUOUS
 10
3.680600
 20
4.090240
  0
VERTEX
  8
0
  6
CONTINUOUS
 10
3.565760
 20
4.082760
  0
VERTEX
  8
0
  6
CONTINUOUS
 10
3.466760
 20
4.060760
  0
VERTEX
  8
0
  6
CONTINUOUS
 10
3.382280
 20
4.026440
  0
VERTEX
  8
0
  6
CONTINUOUS
 10
3.311440
 20
3.982000
  0
VERTEX
  8
0
  6
CONTINUOUS
 10
3.203640
 20
3.868040
  0
VERTEX
  8
0
  6
CONTINUOUS
 10
3.133240
 20
3.734720
  0
VERTEX
  8
0
  6
CONTINUOUS
 10
3.112120
 20
3.654200
  0
VERTEX
  8
0
  6
CONTINUOUS
 10
3.104200
 20
3.607560
  0
VERTEX
  8
0
  6
CONTINUOUS
 10
3.100680
 20
3.583360
  0
VERTEX
  8
0
  6
CONTINUOUS
 10
3.096720
 20
3.558280
  0
VERTEX
  8
0
  6
CONTINUOUS
 10
3.052280
 20
3.354120
  0
VERTEX
  8
0
  6
CONTINUOUS
 10
3.005640
 20
3.263920
  0
VERTEX
  8
0
  6
CONTINUOUS
 10
2.932160
 20
3.193080
  0
VERTEX
  8
0
  6
CONTINUOUS
 10
2.822600
 20
3.150840
  0
VERTEX
  8
0
  6
CONTINUOUS
 10
2.751760
 20
3.143360
  0
VERTEX
  8
0
  6
CONTINUOUS
 10
2.669040
 20
3.146000
  0
VERTEX
  8
0
  6
CONTINUOUS
 10
2.671680
 20
2.955920
  0
VERTEX
  8
0
  6
CONTINUOUS
 10
2.582800
 20
2.926880
  0
VERTEX
  8
0
  6
CONTINUOUS
 10
2.507560
 20
2.889040
  0
VERTEX
  8
0
  6
CONTINUOUS
 10
2.445960
 20
2.842400
  0
VERTEX
  8
0
  6
CONTINUOUS
 10
2.396240
 20
2.786520
  0
VERTEX
  8
0
  6
CONTINUOUS
 10
2.358840
 20
2.721840
  0
VERTEX
  8
0
  6
CONTINUOUS
 10
2.332000
 20
2.647480
  0
VERTEX
  8
0
  6
CONTINUOUS
 10
2.310000
 20
2.471920
  0
VERTEX
  8
0
  6
CONTINUOUS
 10
1.849320
 20
2.473680
  0
VERTEX
  8
0
  6
CONTINUOUS
 10
1.850640
 20
1.701920
  0
VERTEX
  8
0
  6
CONTINUOUS
 10
1.618320
 20
1.700160
  0
VERTEX
  8
0
  6
CONTINUOUS
 10
1.643400
 20
1.596760
  0
VERTEX
  8
0
  6
CONTINUOUS
 10
1.638560
 20
1.513600
  0
VERTEX
  8
0
  6
CONTINUOUS
 10
1.610840
 20
1.448040
  0
VERTEX
  8
0
  6
CONTINUOUS
 10
1.565960
 20
1.397440
  0
VERTEX
  8
0
  6
CONTINUOUS
 10
1.451120
 20
1.331440
  0
VERTEX
  8
0
  6
CONTINUOUS
 10
1.345520
 20
1.294480
  0
VERTEX
  8
0
  6
CONTINUOUS
 10
1.256200
 20
1.249600
  0
VERTEX
  8
0
  6
CONTINUOUS
 10
1.212200
 20
1.211760
  0
VERTEX
  8
0
  6
CONTINUOUS
 10
1.173040
 20
1.160720
  0
VERTEX
  8
0
  6
CONTINUOUS
 10
1.141800
 20
1.093840
  0
VERTEX
  8
0
  6
CONTINUOUS
 10
1.121120
 20
1.009360
  0
VERTEX
  8
0
  6
CONTINUOUS
 10
1.114960
 20
0.904640
  0
VERTEX
  8
0
  6
CONTINUOUS
 10
1.125960
 20
0.777480
  0
VERTEX
  8
0
  6
CONTINUOUS
 10
0.778360
 20
0.779680
  0
VERTEX
  8
0
  6
CONTINUOUS
 10
0.778360
 20
1.600720
  0
VERTEX
  8
0
  6
CONTINUOUS
 10
3.264800
 20
4.847040
  0
SEQEND
  8
0
  0
TEXT
  8
0
 10
2.382160
 20
0.597080
 40
0.138255
  1
BA  955
 41
1.000000
  7
SN0
 71
     0
 72
     5
 11
2.971987
 21
0.597080
  0
TEXT
  8
0
 10
2.277440
 20
0.405680
 40
0.138255
  1
13/16" x 5"
 41
1.000000
  7
SN0
 71
     0
 72
     5
 11
3.077323
 21
0.405680
  0
POLYLINE
  8
0
  6
CONTINUOUS
 66
     1
 40
0.014080
 41
0.014080
  0
VERTEX
  8
0
  6
CONTINUOUS
 10
3.294720
 20
5.217080
  0
VERTEX
  8
0
  6
CONTINUOUS
 10
3.043480
 20
5.547520
  0
VERTEX
  8
0
  6
CONTINUOUS
 10
3.643640
 20
6.006880
  0
VERTEX
  8
0
  6
CONTINUOUS
 10
3.681480
 20
5.960680
  0
VERTEX
  8
0
  6
CONTINUOUS
 10
3.719320
 20
5.920200
  0
VERTEX
  8
0
  6
CONTINUOUS
 10
3.758040
 20
5.885000
  0
VERTEX
  8
0
  6
CONTINUOUS
 10
3.796760
 20
5.855080
  0
VERTEX
  8
0
  6
CONTINUOUS
 10
3.835920
 20
5.829560
  0
VERTEX
  8
0
  6
CONTINUOUS
 10
3.875080
 20
5.808880
  0
VERTEX
  8
0
  6
CONTINUOUS
 10
3.934480
 20
5.785120
  0
VERTEX
  8
0
  6
CONTINUOUS
 10
3.973640
 20
5.774560
  0
VERTEX
  8
0
  6
CONTINUOUS
 10
4.012800
 20
5.767080
  0
VERTEX
  8
0
  6
CONTINUOUS
 10
4.051520
 20
5.763120
  0
VERTEX
  8
0
  6
CONTINUOUS
 10
4.090240
 20
5.762240
  0
VERTEX
  8
0
  6
CONTINUOUS
 10
4.128520
 20
5.764000
  0
VERTEX
  8
0
  6
CONTINUOUS
 10
4.185280
 20
5.771480
  0
VERTEX
  8
0
  6
CONTINUOUS
 10
4.222240
 20
5.778960
  0
VERTEX
  8
0
  6
CONTINUOUS
 10
4.276800
 20
5.793920
  0
VERTEX
  8
0
  6
CONTINUOUS
 10
4.334880
 20
5.819880
  0
VERTEX
  8
0
  6
CONTINUOUS
 10
4.512640
 20
5.915360
  0
VERTEX
  8
0
  6
CONTINUOUS
 10
4.585240
 20
5.946600
  0
VERTEX
  8
0
  6
CONTINUOUS
 10
4.634520
 20
5.961560
  0
VERTEX
  8
0
  6
CONTINUOUS
 10
4.659600
 20
5.967280
  0
VERTEX
  8
0
  6
CONTINUOUS
 10
4.684680
 20
5.970800
  0
VERTEX
  8
0
  6
CONTINUOUS
 10
4.709760
 20
5.972560
  0
VERTEX
  8
0
  6
CONTINUOUS
 10
4.735280
 20
5.972560
  0
VERTEX
  8
0
  6
CONTINUOUS
 10
4.760360
 20
5.969920
  0
VERTEX
  8
0
  6
CONTINUOUS
 10
4.798200
 20
5.961120
  0
VERTEX
  8
0
  6
CONTINUOUS
 10
4.823720
 20
5.952320
  0
VERTEX
  8
0
  6
CONTINUOUS
 10
4.861120
 20
5.932960
  0
VERTEX
  8
0
  6
CONTINUOUS
 10
4.898520
 20
5.906560
  0
VERTEX
  8
0
  6
CONTINUOUS
 10
4.935480
 20
5.871800
  0
VERTEX
  8
0
  6
CONTINUOUS
 10
4.972000
 20
5.829120
  0
VERTEX
  8
0
  6
CONTINUOUS
 10
5.008080
 20
5.776760
  0
VERTEX
  8
0
  6
CONTINUOUS
 10
5.157240
 20
5.894240
  0
VERTEX
  8
0
  6
CONTINUOUS
 10
5.195960
 20
5.865640
  0
VERTEX
  8
0
  6
CONTINUOUS
 10
5.253160
 20
5.830440
  0
VERTEX
  8
0
  6
CONTINUOUS
 10
5.309920
 20
5.804480
  0
VERTEX
  8
0
  6
CONTINUOUS
 10
5.347320
 20
5.792160
  0
VERTEX
  8
0
  6
CONTINUOUS
 10
5.384720
 20
5.783800
  0
VERTEX
  8
0
  6
CONTINUOUS
 10
5.422120
 20
5.779400
  0
VERTEX
  8
0
  6
CONTINUOUS
 10
5.459080
 20
5.778520
  0
VERTEX
  8
0
  6
CONTINUOUS
 10
5.496480
 20
5.781160
  0
VERTEX
  8
0
  6
CONTINUOUS
 10
5.533440
 20
5.787760
  0
VERTEX
  8
0
  6
CONTINUOUS
 10
5.589760
 20
5.804480
  0
VERTEX
  8
0
  6
CONTINUOUS
 10
5.627160
 20
5.819880
  0
VERTEX
  8
0
  6
CONTINUOUS
 10
5.684360
 20
5.849800
  0
VERTEX
  8
0
  6
CONTINUOUS
 10
5.742000
 20
5.887200
  0
VERTEX
  8
0
  6
CONTINUOUS
 10
5.761360
 20
5.901280
  0
VERTEX
  8
0
  6
CONTINUOUS
 10
6.039880
 20
5.533880
  0
VERTEX
  8
0
  6
CONTINUOUS
 10
6.652360
 20
6.003360
  0
VERTEX
  8
0
  6
CONTINUOUS
 10
6.794920
 20
5.820320
  0
VERTEX
  8
0
  6
CONTINUOUS
 10
6.827920
 20
5.866520
  0
VERTEX
  8
0
  6
CONTINUOUS
 10
6.861800
 20
5.903040
  0
VERTEX
  8
0
  6
CONTINUOUS
 10
6.896120
 20
5.930320
  0
VERTEX
  8
0
  6
CONTINUOUS
 10
6.930440
 20
5.949680
  0
VERTEX
  8
0
  6
CONTINUOUS
 10
6.965200
 20
5.961560
  0
VERTEX
  8
0
  6
CONTINUOUS
 10
6.999520
 20
5.967280
  0
VERTEX
  8
0
  6
CONTINUOUS
 10
7.033840
 20
5.967280
  0
VERTEX
  8
0
  6
CONTINUOUS
 10
7.067280
 20
5.962440
  0
VERTEX
  8
0
  6
CONTINUOUS
 10
7.099400
 20
5.953640
  0
VERTEX
  8
0
  6
CONTINUOUS
 10
7.131080
 20
5.941320
  0
VERTEX
  8
0
  6
CONTINUOUS
 10
7.161000
 20
5.927240
  0
VERTEX
  8
0
  6
CONTINUOUS
 10
7.189600
 20
5.911400
  0
VERTEX
  8
0
  6
CONTINUOUS
 10
7.302240
 20
5.837920
  0
VERTEX
  8
0
  6
CONTINUOUS
 10
7.345800
 20
5.816360
  0
VERTEX
  8
0
  6
CONTINUOUS
 10
7.383640
 20
5.804040
  0
VERTEX
  8
0
  6
CONTINUOUS
 10
7.425000
 20
5.797440
  0
VERTEX
  8
0
  6
CONTINUOUS
 10
7.454920
 20
5.796560
  0
VERTEX
  8
0
  6
CONTINUOUS
 10
7.487040
 20
5.799200
  0
VERTEX
  8
0
  6
CONTINUOUS
 10
7.520480
 20
5.805800
  0
VERTEX
  8
0
  6
CONTINUOUS
 10
7.556560
 20
5.816800
  0
VERTEX
  8
0
  6
CONTINUOUS
 10
7.593960
 20
5.832200
  0
VERTEX
  8
0
  6
CONTINUOUS
 10
7.633560
 20
5.853320
  0
VERTEX
  8
0
  6
CONTINUOUS
 10
7.675360
 20
5.880160
  0
VERTEX
  8
0
  6
CONTINUOUS
 10
7.741800
 20
5.932080
  0
VERTEX
  8
0
  6
CONTINUOUS
 10
7.812640
 20
5.999400
  0
VERTEX
  8
0
  6
CONTINUOUS
 10
8.036160
 20
5.712080
  0
VERTEX
  8
0
  6
CONTINUOUS
 10
7.384080
 20
5.213560
  0
VERTEX
  8
0
  6
CONTINUOUS
 10
3.294720
 20
5.217080
  0
SEQEND
  8
0
  0
TEXT
  8
0
 10
4.947360
 20
5.482840
 40
0.138255
  1
BA  955
 41
1.000000
  7
SN0
 71
     0
 72
     5
 11
5.537187
 21
5.482840
  0
TEXT
  8
0
 10
4.842200
 20
5.291000
 40
0.138255
  1
13/16" x 5"
 41
1.000000
  7
SN0
 71
     0
 72
     5
 11
5.642083
 21
5.291000
  0
ENDSEC
  0
EOF
