  0
SECTION
  2
HEADER
  9
$ACADVER
  1
AC1006
  9
$EXTMIN
 10
0.328680
 20
0.476520
  9
$EXTMAX
 10
8.274200
 20
10.142000
  9
$LTSCALE
 40
0.044000
  9
$PDMODE
 70
    35
  9
$PDSIZE
 40
0.035200
  0
ENDSEC
  0
SECTION
  2
TABLES
  0
TABLE
  2
LTYPE
 70
     9
  0
LTYPE
  2
CONTINUOUS
 70
    64
  3
Solid line
 72
    65
 73
     0
 40
0.000000
  0
LTYPE
  2
DASHED
 70
    64
  3
__ __ __ __ __ __ __ __ __ __ __ __ __ __ __
 72
    65
 73
     2
 40
0.000330
 49
0.000220
 49
-0.000110
  0
LTYPE
  2
HIDDEN
 70
    64
  3
 _ _ _ _ _ _ _ _ _ _ _ _ _ _ _ _ _ _ _ _ _ _
 72
    65
 73
     2
 40
0.000165
 49
0.000110
 49
-0.000055
  0
LTYPE
  2
CENTER
 70
    64
  3
____ _ ____ _ ____ _ ____ _ ____ _ ____ _ ____
 72
    65
 73
     4
 40
0.000880
 49
0.000550
 49
-0.000110
 49
0.000110
 49
-0.000110
  0
LTYPE
  2
PHANTOM
 70
    64
  3
_____ _ _ _____ _ _ _____ _ _ _____ _ _ ____
 72
    65
 73
     6
 40
0.001100
 49
0.000550
 49
-0.000110
 49
0.000110
 49
-0.000110
 49
0.000110
 49
-0.000110
  0
LTYPE
  2
DOT
 70
    64
  3
...............................................
 72
    65
 73
     2
 40
0.000110
 49
0.000000
 49
-0.000110
  0
LTYPE
  2
DASHDOT
 70
    64
  3
__ . __ . __ . __ . __ . __ . __ . __ . __ . __
 72
    65
 73
     4
 40
0.000440
 49
0.000220
 49
-0.000110
 49
0.000000
 49
-0.000110
  0
LTYPE
  2
BORDER
 70
    64
  3
__ __ . __ __ . __ __ . __ __ . __ __ . __ __
 72
    65
 73
     6
 40
0.000770
 49
0.000220
 49
-0.000110
 49
0.000220
 49
-0.000110
 49
0.000000
 49
-0.000110
  0
LTYPE
  2
DIVIDE
 70
    64
  3
__ . . __ . . __ . . __ . . __ . . __ . . __
 72
    65
 73
     6
 40
0.000550
 49
0.000220
 49
-0.000110
 49
0.000000
 49
-0.000110
 49
0.000000
 49
-0.000110
  0
LTYPE
  2
DOTDOT
 70
    64
  3
 . .  . .  . .  . .  . .  . . 
 72
    65
 73
     5
 40
0.000242
 49
-0.000110
 49
0.000000
 49
-0.000110
 49
0.000000
 49
-0.000110
  0
ENDTAB
  0
TABLE
  2
STYLE
 70
     2
  0
STYLE
 70
     0
  2
SN0
 40
0.000000
 41
0.000440
 50
0.000000
 71
     0
 42
0.000000
  3
ROMAND
  0
STYLE
 70
    68
  2
SV0
 40
0.000000
 41
0.000440
 50
0.000000
 71
     0
 42
0.000000
  3
ROMAND
  0
ENDTAB
  0
TABLE
  2
LAYER
 70
     3
  0
LAYER
  2
FOREGROUND
 70
    64
 62
     7
  6
CONTINUOUS
  0
LAYER
  2
BACKGROUND
 70
    65
 62
    -7
  6
CONTINUOUS
  0
LAYER
  2
0
 70
    64
 62
     7
  6
CONTINUOUS
  0
ENDTAB
  0
ENDSEC
  0
SECTION
  2
ENTITIES
  0
POLYLINE
  8
FOREGROUND
  6
CONTINUOUS
 66
     1
 40
0.000000
 41
0.000000
  0
VERTEX
  8
FOREGROUND
  6
CONTINUOUS
 10
0.000000
 20
10.618520
  0
VERTEX
  8
FOREGROUND
  6
CONTINUOUS
 10
8.499920
 20
10.618520
  0
VERTEX
  8
FOREGROUND
  6
CONTINUOUS
 10
8.499920
 20
-0.381480
  0
VERTEX
  8
FOREGROUND
  6
CONTINUOUS
 10
0.000000
 20
-0.381480
  0
VERTEX
  8
FOREGROUND
  6
CONTINUOUS
 10
0.000000
 20
10.618520
  0
SEQEND
  8
0
  0
POLYLINE
  8
FOREGROUND
  6
CONTINUOUS
 66
     1
 40
0.000000
 41
0.000000
  0
VERTEX
  8
FOREGROUND
  6
CONTINUOUS
 10
0.000000
 20
10.618520
  0
VERTEX
  8
FOREGROUND
  6
CONTINUOUS
 10
8.499920
 20
10.618520
  0
VERTEX
  8
FOREGROUND
  6
CONTINUOUS
 10
8.499920
 20
-0.381480
  0
VERTEX
  8
FOREGROUND
  6
CONTINUOUS
 10
0.000000
 20
-0.381480
  0
VERTEX
  8
FOREGROUND
  6
CONTINUOUS
 10
0.000000
 20
10.618520
  0
SEQEND
  8
0
  0
SOLID
  8
0
 62
    15
 10
4.056800
 20
4.494600
 11
4.721640
 21
4.138640
 12
3.713160
 22
3.631760
 13
4.378000
 23
3.275800
  0
POLYLINE
  8
0
  6
CONTINUOUS
 66
     1
 40
0.000000
 41
0.000000
  0
VERTEX
  8
0
  6
CONTINUOUS
 10
4.056800
 20
4.494600
  0
VERTEX
  8
0
  6
CONTINUOUS
 10
4.721640
 20
4.138640
  0
VERTEX
  8
0
  6
CONTINUOUS
 10
4.378000
 20
3.275800
  0
VERTEX
  8
0
  6
CONTINUOUS
 10
3.713160
 20
3.631760
  0
VERTEX
  8
0
  6
CONTINUOUS
 10
4.056800
 20
4.494600
  0
SEQEND
  8
0
  0
SOLID
  8
0
 62
    15
 10
5.946160
 20
7.118320
 11
6.611000
 21
6.762360
 12
5.610880
 22
6.812520
 13
6.276160
 23
6.457000
  0
POLYLINE
  8
0
  6
CONTINUOUS
 66
     1
 40
0.000000
 41
0.000000
  0
VERTEX
  8
0
  6
CONTINUOUS
 10
5.946160
 20
7.118320
  0
VERTEX
  8
0
  6
CONTINUOUS
 10
6.611000
 20
6.762360
  0
VERTEX
  8
0
  6
CONTINUOUS
 10
6.276160
 20
6.457000
  0
VERTEX
  8
0
  6
CONTINUOUS
 10
5.610880
 20
6.812520
  0
VERTEX
  8
0
  6
CONTINUOUS
 10
5.946160
 20
7.118320
  0
SEQEND
  8
0
  0
SOLID
  8
0
 62
    15
 10
5.610880
 20
6.812520
 11
6.276160
 21
6.457000
 12
5.297600
 22
6.477680
 13
5.962440
 23
6.121720
  0
POLYLINE
  8
0
  6
CONTINUOUS
 66
     1
 40
0.000000
 41
0.000000
  0
VERTEX
  8
0
  6
CONTINUOUS
 10
5.610880
 20
6.812520
  0
VERTEX
  8
0
  6
CONTINUOUS
 10
6.276160
 20
6.457000
  0
VERTEX
  8
0
  6
CONTINUOUS
 10
5.962440
 20
6.121720
  0
VERTEX
  8
0
  6
CONTINUOUS
 10
5.297600
 20
6.477680
  0
VERTEX
  8
0
  6
CONTINUOUS
 10
5.610880
 20
6.812520
  0
SEQEND
  8
0
  0
SOLID
  8
0
 62
    15
 10
5.297600
 20
6.477680
 11
5.962440
 21
6.121720
 12
5.005880
 22
6.116440
 13
5.671160
 23
5.760480
  0
POLYLINE
  8
0
  6
CONTINUOUS
 66
     1
 40
0.000000
 41
0.000000
  0
VERTEX
  8
0
  6
CONTINUOUS
 10
5.297600
 20
6.477680
  0
VERTEX
  8
0
  6
CONTINUOUS
 10
5.962440
 20
6.121720
  0
VERTEX
  8
0
  6
CONTINUOUS
 10
5.671160
 20
5.760480
  0
VERTEX
  8
0
  6
CONTINUOUS
 10
5.005880
 20
6.116440
  0
VERTEX
  8
0
  6
CONTINUOUS
 10
5.297600
 20
6.477680
  0
SEQEND
  8
0
  0
SOLID
  8
0
 62
    15
 10
5.005880
 20
6.116440
 11
5.671160
 21
5.760480
 12
4.735720
 22
5.733640
 13
5.401000
 23
5.378120
  0
POLYLINE
  8
0
  6
CONTINUOUS
 66
     1
 40
0.000000
 41
0.000000
  0
VERTEX
  8
0
  6
CONTINUOUS
 10
5.005880
 20
6.116440
  0
VERTEX
  8
0
  6
CONTINUOUS
 10
5.671160
 20
5.760480
  0
VERTEX
  8
0
  6
CONTINUOUS
 10
5.401000
 20
5.378120
  0
VERTEX
  8
0
  6
CONTINUOUS
 10
4.735720
 20
5.733640
  0
VERTEX
  8
0
  6
CONTINUOUS
 10
5.005880
 20
6.116440
  0
SEQEND
  8
0
  0
SOLID
  8
0
 62
    15
 10
4.735720
 20
5.733640
 11
5.401000
 21
5.378120
 12
4.487560
 22
5.333240
 13
5.152840
 23
4.977280
  0
POLYLINE
  8
0
  6
CONTINUOUS
 66
     1
 40
0.000000
 41
0.000000
  0
VERTEX
  8
0
  6
CONTINUOUS
 10
4.735720
 20
5.733640
  0
VERTEX
  8
0
  6
CONTINUOUS
 10
5.401000
 20
5.378120
  0
VERTEX
  8
0
  6
CONTINUOUS
 10
5.152840
 20
4.977280
  0
VERTEX
  8
0
  6
CONTINUOUS
 10
4.487560
 20
5.333240
  0
VERTEX
  8
0
  6
CONTINUOUS
 10
4.735720
 20
5.733640
  0
SEQEND
  8
0
  0
SOLID
  8
0
 62
    15
 10
4.487560
 20
5.333240
 11
5.152840
 21
4.977280
 12
4.261400
 22
4.918760
 13
4.926240
 23
4.562800
  0
POLYLINE
  8
0
  6
CONTINUOUS
 66
     1
 40
0.000000
 41
0.000000
  0
VERTEX
  8
0
  6
CONTINUOUS
 10
4.487560
 20
5.333240
  0
VERTEX
  8
0
  6
CONTINUOUS
 10
5.152840
 20
4.977280
  0
VERTEX
  8
0
  6
CONTINUOUS
 10
4.926240
 20
4.562800
  0
VERTEX
  8
0
  6
CONTINUOUS
 10
4.261400
 20
4.918760
  0
VERTEX
  8
0
  6
CONTINUOUS
 10
4.487560
 20
5.333240
  0
SEQEND
  8
0
  0
SOLID
  8
0
 62
    15
 10
4.261400
 20
4.918760
 11
4.926240
 21
4.562800
 12
4.056800
 22
4.494600
 13
4.721640
 23
4.138640
  0
POLYLINE
  8
0
  6
CONTINUOUS
 66
     1
 40
0.000000
 41
0.000000
  0
VERTEX
  8
0
  6
CONTINUOUS
 10
4.261400
 20
4.918760
  0
VERTEX
  8
0
  6
CONTINUOUS
 10
4.926240
 20
4.562800
  0
VERTEX
  8
0
  6
CONTINUOUS
 10
4.721640
 20
4.138640
  0
VERTEX
  8
0
  6
CONTINUOUS
 10
4.056800
 20
4.494600
  0
VERTEX
  8
0
  6
CONTINUOUS
 10
4.261400
 20
4.918760
  0
SEQEND
  8
0
  0
SOLID
  8
0
 62
    15
 10
6.302560
 20
7.390680
 11
6.967840
 21
7.034720
 12
5.946160
 22
7.118320
 13
6.611000
 23
6.762360
  0
POLYLINE
  8
0
  6
CONTINUOUS
 66
     1
 40
0.000000
 41
0.000000
  0
VERTEX
  8
0
  6
CONTINUOUS
 10
6.302560
 20
7.390680
  0
VERTEX
  8
0
  6
CONTINUOUS
 10
6.967840
 20
7.034720
  0
VERTEX
  8
0
  6
CONTINUOUS
 10
6.611000
 20
6.762360
  0
VERTEX
  8
0
  6
CONTINUOUS
 10
5.946160
 20
7.118320
  0
VERTEX
  8
0
  6
CONTINUOUS
 10
6.302560
 20
7.390680
  0
SEQEND
  8
0
  0
SOLID
  8
0
 62
    15
 10
3.713160
 20
3.631760
 11
4.378000
 21
3.275800
 12
3.574120
 22
3.201000
 13
4.238960
 23
2.845040
  0
POLYLINE
  8
0
  6
CONTINUOUS
 66
     1
 40
0.000000
 41
0.000000
  0
VERTEX
  8
0
  6
CONTINUOUS
 10
3.713160
 20
3.631760
  0
VERTEX
  8
0
  6
CONTINUOUS
 10
4.378000
 20
3.275800
  0
VERTEX
  8
0
  6
CONTINUOUS
 10
4.238960
 20
2.845040
  0
VERTEX
  8
0
  6
CONTINUOUS
 10
3.574120
 20
3.201000
  0
VERTEX
  8
0
  6
CONTINUOUS
 10
3.713160
 20
3.631760
  0
SEQEND
  8
0
  0
SOLID
  8
0
 62
    15
 10
3.574120
 20
3.201000
 11
4.238960
 21
2.845040
 12
3.457080
 22
2.775960
 13
4.122360
 23
2.420000
  0
POLYLINE
  8
0
  6
CONTINUOUS
 66
     1
 40
0.000000
 41
0.000000
  0
VERTEX
  8
0
  6
CONTINUOUS
 10
3.574120
 20
3.201000
  0
VERTEX
  8
0
  6
CONTINUOUS
 10
4.238960
 20
2.845040
  0
VERTEX
  8
0
  6
CONTINUOUS
 10
4.122360
 20
2.420000
  0
VERTEX
  8
0
  6
CONTINUOUS
 10
3.457080
 20
2.775960
  0
VERTEX
  8
0
  6
CONTINUOUS
 10
3.574120
 20
3.201000
  0
SEQEND
  8
0
  0
SOLID
  8
0
 62
    15
 10
3.457080
 20
2.775960
 11
4.122360
 21
2.420000
 12
3.362040
 22
2.360600
 13
4.026880
 23
2.004640
  0
POLYLINE
  8
0
  6
CONTINUOUS
 66
     1
 40
0.000000
 41
0.000000
  0
VERTEX
  8
0
  6
CONTINUOUS
 10
3.457080
 20
2.775960
  0
VERTEX
  8
0
  6
CONTINUOUS
 10
4.122360
 20
2.420000
  0
VERTEX
  8
0
  6
CONTINUOUS
 10
4.026880
 20
2.004640
  0
VERTEX
  8
0
  6
CONTINUOUS
 10
3.362040
 20
2.360600
  0
VERTEX
  8
0
  6
CONTINUOUS
 10
3.457080
 20
2.775960
  0
SEQEND
  8
0
  0
SOLID
  8
0
 62
    15
 10
3.362040
 20
2.360600
 11
4.026880
 21
2.004640
 12
3.288560
 22
1.958880
 13
3.953840
 23
1.602920
  0
POLYLINE
  8
0
  6
CONTINUOUS
 66
     1
 40
0.000000
 41
0.000000
  0
VERTEX
  8
0
  6
CONTINUOUS
 10
3.362040
 20
2.360600
  0
VERTEX
  8
0
  6
CONTINUOUS
 10
4.026880
 20
2.004640
  0
VERTEX
  8
0
  6
CONTINUOUS
 10
3.953840
 20
1.602920
  0
VERTEX
  8
0
  6
CONTINUOUS
 10
3.288560
 20
1.958880
  0
VERTEX
  8
0
  6
CONTINUOUS
 10
3.362040
 20
2.360600
  0
SEQEND
  8
0
  0
SOLID
  8
0
 62
    15
 10
3.288560
 20
1.958880
 11
3.953840
 21
1.602920
 12
3.237520
 22
1.574760
 13
3.902800
 23
1.218800
  0
POLYLINE
  8
0
  6
CONTINUOUS
 66
     1
 40
0.000000
 41
0.000000
  0
VERTEX
  8
0
  6
CONTINUOUS
 10
3.288560
 20
1.958880
  0
VERTEX
  8
0
  6
CONTINUOUS
 10
3.953840
 20
1.602920
  0
VERTEX
  8
0
  6
CONTINUOUS
 10
3.902800
 20
1.218800
  0
VERTEX
  8
0
  6
CONTINUOUS
 10
3.237520
 20
1.574760
  0
VERTEX
  8
0
  6
CONTINUOUS
 10
3.288560
 20
1.958880
  0
SEQEND
  8
0
  0
SOLID
  8
0
 62
    15
 10
3.208480
 20
1.212200
 11
3.873760
 21
0.856240
 12
2.280080
 22
0.872080
 13
2.944920
 23
0.516120
  0
POLYLINE
  8
0
  6
CONTINUOUS
 66
     1
 40
0.000000
 41
0.000000
  0
VERTEX
  8
0
  6
CONTINUOUS
 10
3.208480
 20
1.212200
  0
VERTEX
  8
0
  6
CONTINUOUS
 10
3.873760
 20
0.856240
  0
VERTEX
  8
0
  6
CONTINUOUS
 10
2.944920
 20
0.516120
  0
VERTEX
  8
0
  6
CONTINUOUS
 10
2.280080
 20
0.872080
  0
VERTEX
  8
0
  6
CONTINUOUS
 10
3.208480
 20
1.212200
  0
SEQEND
  8
0
  0
SOLID
  8
0
 62
    15
 10
3.237520
 20
1.574760
 11
3.902800
 21
1.218800
 12
3.208480
 22
1.212200
 13
3.873760
 23
0.856240
  0
POLYLINE
  8
0
  6
CONTINUOUS
 66
     1
 40
0.000000
 41
0.000000
  0
VERTEX
  8
0
  6
CONTINUOUS
 10
3.237520
 20
1.574760
  0
VERTEX
  8
0
  6
CONTINUOUS
 10
3.902800
 20
1.218800
  0
VERTEX
  8
0
  6
CONTINUOUS
 10
3.873760
 20
0.856240
  0
VERTEX
  8
0
  6
CONTINUOUS
 10
3.208480
 20
1.212200
  0
VERTEX
  8
0
  6
CONTINUOUS
 10
3.237520
 20
1.574760
  0
SEQEND
  8
0
  0
SOLID
  8
0
 62
    15
 10
2.280080
 20
0.872080
 11
2.944920
 21
0.516120
 12
1.652640
 22
0.871200
 13
2.317920
 23
0.515240
  0
POLYLINE
  8
0
  6
CONTINUOUS
 66
     1
 40
0.000000
 41
0.000000
  0
VERTEX
  8
0
  6
CONTINUOUS
 10
2.280080
 20
0.872080
  0
VERTEX
  8
0
  6
CONTINUOUS
 10
2.944920
 20
0.516120
  0
VERTEX
  8
0
  6
CONTINUOUS
 10
2.317920
 20
0.515240
  0
VERTEX
  8
0
  6
CONTINUOUS
 10
1.652640
 20
0.871200
  0
VERTEX
  8
0
  6
CONTINUOUS
 10
2.280080
 20
0.872080
  0
SEQEND
  8
0
  0
POLYLINE
  8
0
  6
CONTINUOUS
 66
     1
 40
0.000000
 41
0.000000
  0
VERTEX
  8
0
  6
CONTINUOUS
 10
1.649120
 20
2.007720
  0
VERTEX
  8
0
  6
CONTINUOUS
 10
4.737480
 20
8.174320
  0
VERTEX
  8
0
  6
CONTINUOUS
 10
6.302560
 20
7.390680
  0
VERTEX
  8
0
  6
CONTINUOUS
 10
5.946160
 20
7.118320
  0
VERTEX
  8
0
  6
CONTINUOUS
 10
5.610880
 20
6.812520
  0
VERTEX
  8
0
  6
CONTINUOUS
 10
5.297600
 20
6.477680
  0
VERTEX
  8
0
  6
CONTINUOUS
 10
5.005880
 20
6.116440
  0
VERTEX
  8
0
  6
CONTINUOUS
 10
4.735720
 20
5.733640
  0
VERTEX
  8
0
  6
CONTINUOUS
 10
4.487560
 20
5.333240
  0
VERTEX
  8
0
  6
CONTINUOUS
 10
4.261400
 20
4.918760
  0
VERTEX
  8
0
  6
CONTINUOUS
 10
4.056800
 20
4.494600
  0
VERTEX
  8
0
  6
CONTINUOUS
 10
3.713160
 20
3.631760
  0
VERTEX
  8
0
  6
CONTINUOUS
 10
3.574120
 20
3.201000
  0
VERTEX
  8
0
  6
CONTINUOUS
 10
3.457080
 20
2.775960
  0
VERTEX
  8
0
  6
CONTINUOUS
 10
3.362040
 20
2.360600
  0
VERTEX
  8
0
  6
CONTINUOUS
 10
3.288560
 20
1.958880
  0
VERTEX
  8
0
  6
CONTINUOUS
 10
3.237520
 20
1.574760
  0
VERTEX
  8
0
  6
CONTINUOUS
 10
3.208480
 20
1.212200
  0
VERTEX
  8
0
  6
CONTINUOUS
 10
2.280080
 20
0.872080
  0
VERTEX
  8
0
  6
CONTINUOUS
 10
1.652640
 20
0.871200
  0
VERTEX
  8
0
  6
CONTINUOUS
 10
1.649120
 20
2.007720
  0
SEQEND
  8
0
  0
TEXT
  8
0
 10
4.216520
 20
0.714560
 40
0.137778
  1
BA  954
 41
1.000000
  7
SN0
 71
     0
 72
     5
 11
4.807564
 21
0.714560
  0
TEXT
  8
0
 10
4.129840
 20
0.522720
 40
0.137778
  1
1-3/4" x 8"
 41
1.000000
  7
SN0
 71
     0
 72
     5
 11
4.894863
 21
0.522720
  0
POLYLINE
  8
0
  6
CONTINUOUS
 66
     1
 40
0.014080
 41
0.014080
  0
VERTEX
  8
0
  6
CONTINUOUS
 10
8.267600
 20
8.895480
  0
VERTEX
  8
0
  6
CONTINUOUS
 10
7.986440
 20
9.456480
  0
VERTEX
  8
0
  6
CONTINUOUS
 10
7.266600
 20
10.134520
  0
VERTEX
  8
0
  6
CONTINUOUS
 10
7.101600
 20
10.065000
  0
VERTEX
  8
0
  6
CONTINUOUS
 10
6.929120
 20
9.998120
  0
VERTEX
  8
0
  6
CONTINUOUS
 10
6.749600
 20
9.933440
  0
VERTEX
  8
0
  6
CONTINUOUS
 10
6.563040
 20
9.871840
  0
VERTEX
  8
0
  6
CONTINUOUS
 10
6.369880
 20
9.812880
  0
VERTEX
  8
0
  6
CONTINUOUS
 10
6.171000
 20
9.757440
  0
VERTEX
  8
0
  6
CONTINUOUS
 10
6.069360
 20
9.730600
  0
VERTEX
  8
0
  6
CONTINUOUS
 10
5.862120
 20
9.680000
  0
VERTEX
  8
0
  6
CONTINUOUS
 10
5.650480
 20
9.633360
  0
VERTEX
  8
0
  6
CONTINUOUS
 10
5.434000
 20
9.590680
  0
VERTEX
  8
0
  6
CONTINUOUS
 10
5.324440
 20
9.570440
  0
VERTEX
  8
0
  6
CONTINUOUS
 10
5.102680
 20
9.533920
  0
VERTEX
  8
0
  6
CONTINUOUS
 10
4.877400
 20
9.502240
  0
VERTEX
  8
0
  6
CONTINUOUS
 10
4.649040
 20
9.474520
  0
VERTEX
  8
0
  6
CONTINUOUS
 10
4.418480
 20
9.452080
  0
VERTEX
  8
0
  6
CONTINUOUS
 10
4.185720
 20
9.434920
  0
VERTEX
  8
0
  6
CONTINUOUS
 10
3.951640
 20
9.423040
  0
VERTEX
  8
0
  6
CONTINUOUS
 10
3.716680
 20
9.416440
  0
VERTEX
  8
0
  6
CONTINUOUS
 10
3.480840
 20
9.416000
  0
VERTEX
  8
0
  6
CONTINUOUS
 10
3.362480
 20
9.417760
  0
VERTEX
  8
0
  6
CONTINUOUS
 10
3.126640
 20
9.426120
  0
VERTEX
  8
0
  6
CONTINUOUS
 10
2.891240
 20
9.440640
  0
VERTEX
  8
0
  6
CONTINUOUS
 10
2.656280
 20
9.462200
  0
VERTEX
  8
0
  6
CONTINUOUS
 10
2.423080
 20
9.489920
  0
VERTEX
  8
0
  6
CONTINUOUS
 10
2.306920
 20
9.506640
  0
VERTEX
  8
0
  6
CONTINUOUS
 10
2.191200
 20
9.525120
  0
VERTEX
  8
0
  6
CONTINUOUS
 10
2.076360
 20
9.545360
  0
VERTEX
  8
0
  6
CONTINUOUS
 10
1.961960
 20
9.567360
  0
VERTEX
  8
0
  6
CONTINUOUS
 10
1.848440
 20
9.591120
  0
VERTEX
  8
0
  6
CONTINUOUS
 10
1.623160
 20
9.644360
  0
VERTEX
  8
0
  6
CONTINUOUS
 10
1.511400
 20
9.673840
  0
VERTEX
  8
0
  6
CONTINUOUS
 10
1.400960
 20
9.705520
  0
VERTEX
  8
0
  6
CONTINUOUS
 10
1.291400
 20
9.738960
  0
VERTEX
  8
0
  6
CONTINUOUS
 10
1.182720
 20
9.774600
  0
VERTEX
  8
0
  6
CONTINUOUS
 10
1.075360
 20
9.812000
  0
VERTEX
  8
0
  6
CONTINUOUS
 10
0.968880
 20
9.851600
  0
VERTEX
  8
0
  6
CONTINUOUS
 10
0.811360
 20
9.915400
  0
VERTEX
  8
0
  6
CONTINUOUS
 10
0.656480
 20
9.983160
  0
VERTEX
  8
0
  6
CONTINUOUS
 10
0.555280
 20
10.031560
  0
VERTEX
  8
0
  6
CONTINUOUS
 10
0.454960
 20
10.081720
  0
VERTEX
  8
0
  6
CONTINUOUS
 10
0.356400
 20
10.134520
  0
VERTEX
  8
0
  6
CONTINUOUS
 10
0.356400
 20
8.383760
  0
VERTEX
  8
0
  6
CONTINUOUS
 10
7.252960
 20
8.383760
  0
VERTEX
  8
0
  6
CONTINUOUS
 10
8.267600
 20
8.895480
  0
SEQEND
  8
0
  0
TEXT
  8
0
 10
4.006200
 20
8.754240
 40
0.137778
  1
BA  954
 41
1.000000
  7
SN0
 71
     0
 72
     5
 11
4.597244
 21
8.754240
  0
TEXT
  8
0
 10
3.919520
 20
8.562400
 40
0.137778
  1
1-3/4" x 8"
 41
1.000000
  7
SN0
 71
     0
 72
     5
 11
4.684543
 21
8.562400
  0
ENDSEC
  0
EOF
