  0
SECTION
  2
HEADER
  9
$ACADVER
  1
AC1006
  9
$EXTMIN
 10
4.576000
 20
0.444400
  9
$EXTMAX
 10
7.449200
 20
2.497440
  9
$LTSCALE
 40
0.044000
  9
$PDMODE
 70
    35
  9
$PDSIZE
 40
0.035200
  0
ENDSEC
  0
SECTION
  2
TABLES
  0
TABLE
  2
LTYPE
 70
     9
  0
LTYPE
  2
CONTINUOUS
 70
    64
  3
Solid line
 72
    65
 73
     0
 40
0.000000
  0
LTYPE
  2
DASHED
 70
    64
  3
__ __ __ __ __ __ __ __ __ __ __ __ __ __ __
 72
    65
 73
     2
 40
0.000330
 49
0.000220
 49
-0.000110
  0
LTYPE
  2
HIDDEN
 70
    64
  3
 _ _ _ _ _ _ _ _ _ _ _ _ _ _ _ _ _ _ _ _ _ _
 72
    65
 73
     2
 40
0.000165
 49
0.000110
 49
-0.000055
  0
LTYPE
  2
CENTER
 70
    64
  3
____ _ ____ _ ____ _ ____ _ ____ _ ____ _ ____
 72
    65
 73
     4
 40
0.000880
 49
0.000550
 49
-0.000110
 49
0.000110
 49
-0.000110
  0
LTYPE
  2
PHANTOM
 70
    64
  3
_____ _ _ _____ _ _ _____ _ _ _____ _ _ ____
 72
    65
 73
     6
 40
0.001100
 49
0.000550
 49
-0.000110
 49
0.000110
 49
-0.000110
 49
0.000110
 49
-0.000110
  0
LTYPE
  2
DOT
 70
    64
  3
...............................................
 72
    65
 73
     2
 40
0.000110
 49
0.000000
 49
-0.000110
  0
LTYPE
  2
DASHDOT
 70
    64
  3
__ . __ . __ . __ . __ . __ . __ . __ . __ . __
 72
    65
 73
     4
 40
0.000440
 49
0.000220
 49
-0.000110
 49
0.000000
 49
-0.000110
  0
LTYPE
  2
BORDER
 70
    64
  3
__ __ . __ __ . __ __ . __ __ . __ __ . __ __
 72
    65
 73
     6
 40
0.000770
 49
0.000220
 49
-0.000110
 49
0.000220
 49
-0.000110
 49
0.000000
 49
-0.000110
  0
LTYPE
  2
DIVIDE
 70
    64
  3
__ . . __ . . __ . . __ . . __ . . __ . . __
 72
    65
 73
     6
 40
0.000550
 49
0.000220
 49
-0.000110
 49
0.000000
 49
-0.000110
 49
0.000000
 49
-0.000110
  0
LTYPE
  2
DOTDOT
 70
    64
  3
 . .  . .  . .  . .  . .  . . 
 72
    65
 73
     5
 40
0.000242
 49
-0.000110
 49
0.000000
 49
-0.000110
 49
0.000000
 49
-0.000110
  0
ENDTAB
  0
TABLE
  2
STYLE
 70
     2
  0
STYLE
 70
     0
  2
SN0
 40
0.000000
 41
0.000440
 50
0.000000
 71
     0
 42
0.000000
  3
ROMAND
  0
STYLE
 70
    68
  2
SV0
 40
0.000000
 41
0.000440
 50
0.000000
 71
     0
 42
0.000000
  3
ROMAND
  0
ENDTAB
  0
TABLE
  2
LAYER
 70
     3
  0
LAYER
  2
FOREGROUND
 70
    64
 62
     7
  6
CONTINUOUS
  0
LAYER
  2
BACKGROUND
 70
    65
 62
    -7
  6
CONTINUOUS
  0
LAYER
  2
0
 70
    64
 62
     7
  6
CONTINUOUS
  0
ENDTAB
  0
ENDSEC
  0
SECTION
  2
ENTITIES
  0
POLYLINE
  8
FOREGROUND
  6
CONTINUOUS
 66
     1
 40
0.000000
 41
0.000000
  0
VERTEX
  8
FOREGROUND
  6
CONTINUOUS
 10
0.000000
 20
2.941840
  0
VERTEX
  8
FOREGROUND
  6
CONTINUOUS
 10
8.499920
 20
2.941840
  0
VERTEX
  8
FOREGROUND
  6
CONTINUOUS
 10
8.499920
 20
-8.058160
  0
VERTEX
  8
FOREGROUND
  6
CONTINUOUS
 10
0.000000
 20
-8.058160
  0
VERTEX
  8
FOREGROUND
  6
CONTINUOUS
 10
0.000000
 20
2.941840
  0
SEQEND
  8
0
  0
POLYLINE
  8
FOREGROUND
  6
CONTINUOUS
 66
     1
 40
0.000000
 41
0.000000
  0
VERTEX
  8
FOREGROUND
  6
CONTINUOUS
 10
0.000000
 20
2.941840
  0
VERTEX
  8
FOREGROUND
  6
CONTINUOUS
 10
8.499920
 20
2.941840
  0
VERTEX
  8
FOREGROUND
  6
CONTINUOUS
 10
8.499920
 20
-8.058160
  0
VERTEX
  8
FOREGROUND
  6
CONTINUOUS
 10
0.000000
 20
-8.058160
  0
VERTEX
  8
FOREGROUND
  6
CONTINUOUS
 10
0.000000
 20
2.941840
  0
SEQEND
  8
0
  0
SOLID
  8
0
 62
    15
 10
5.022160
 20
1.602040
 11
5.668520
 21
1.973400
 12
5.067040
 22
1.588400
 13
5.713400
 23
1.959760
  0
POLYLINE
  8
0
  6
CONTINUOUS
 66
     1
 40
0.000000
 41
0.000000
  0
VERTEX
  8
0
  6
CONTINUOUS
 10
5.022160
 20
1.602040
  0
VERTEX
  8
0
  6
CONTINUOUS
 10
5.668520
 20
1.973400
  0
VERTEX
  8
0
  6
CONTINUOUS
 10
5.713400
 20
1.959760
  0
VERTEX
  8
0
  6
CONTINUOUS
 10
5.067040
 20
1.588400
  0
VERTEX
  8
0
  6
CONTINUOUS
 10
5.022160
 20
1.602040
  0
SEQEND
  8
0
  0
SOLID
  8
0
 62
     7
 10
4.760800
 20
2.125200
 11
5.406720
 21
2.496560
 12
4.766520
 22
2.068000
 13
5.412880
 23
2.439360
  0
POLYLINE
  8
0
  6
CONTINUOUS
 66
     1
 40
0.000000
 41
0.000000
  0
VERTEX
  8
0
  6
CONTINUOUS
 10
4.760800
 20
2.125200
  0
VERTEX
  8
0
  6
CONTINUOUS
 10
5.406720
 20
2.496560
  0
VERTEX
  8
0
  6
CONTINUOUS
 10
5.412880
 20
2.439360
  0
VERTEX
  8
0
  6
CONTINUOUS
 10
4.766520
 20
2.068000
  0
VERTEX
  8
0
  6
CONTINUOUS
 10
4.760800
 20
2.125200
  0
SEQEND
  8
0
  0
SOLID
  8
0
 62
     7
 10
4.766520
 20
2.068000
 11
5.412880
 21
2.439360
 12
4.774000
 22
2.016520
 13
5.420360
 23
2.387880
  0
POLYLINE
  8
0
  6
CONTINUOUS
 66
     1
 40
0.000000
 41
0.000000
  0
VERTEX
  8
0
  6
CONTINUOUS
 10
4.766520
 20
2.068000
  0
VERTEX
  8
0
  6
CONTINUOUS
 10
5.412880
 20
2.439360
  0
VERTEX
  8
0
  6
CONTINUOUS
 10
5.420360
 20
2.387880
  0
VERTEX
  8
0
  6
CONTINUOUS
 10
4.774000
 20
2.016520
  0
VERTEX
  8
0
  6
CONTINUOUS
 10
4.766520
 20
2.068000
  0
SEQEND
  8
0
  0
SOLID
  8
0
 62
     7
 10
4.774000
 20
2.016520
 11
5.420360
 21
2.387880
 12
4.783680
 22
1.971200
 13
5.430040
 23
2.342560
  0
POLYLINE
  8
0
  6
CONTINUOUS
 66
     1
 40
0.000000
 41
0.000000
  0
VERTEX
  8
0
  6
CONTINUOUS
 10
4.774000
 20
2.016520
  0
VERTEX
  8
0
  6
CONTINUOUS
 10
5.420360
 20
2.387880
  0
VERTEX
  8
0
  6
CONTINUOUS
 10
5.430040
 20
2.342560
  0
VERTEX
  8
0
  6
CONTINUOUS
 10
4.783680
 20
1.971200
  0
VERTEX
  8
0
  6
CONTINUOUS
 10
4.774000
 20
2.016520
  0
SEQEND
  8
0
  0
SOLID
  8
0
 62
     7
 10
4.783680
 20
1.971200
 11
5.430040
 21
2.342560
 12
4.794680
 22
1.930720
 13
5.441040
 23
2.302080
  0
POLYLINE
  8
0
  6
CONTINUOUS
 66
     1
 40
0.000000
 41
0.000000
  0
VERTEX
  8
0
  6
CONTINUOUS
 10
4.783680
 20
1.971200
  0
VERTEX
  8
0
  6
CONTINUOUS
 10
5.430040
 20
2.342560
  0
VERTEX
  8
0
  6
CONTINUOUS
 10
5.441040
 20
2.302080
  0
VERTEX
  8
0
  6
CONTINUOUS
 10
4.794680
 20
1.930720
  0
VERTEX
  8
0
  6
CONTINUOUS
 10
4.783680
 20
1.971200
  0
SEQEND
  8
0
  0
SOLID
  8
0
 62
     7
 10
4.794680
 20
1.930720
 11
5.441040
 21
2.302080
 12
4.807440
 22
1.895520
 13
5.453800
 23
2.266880
  0
POLYLINE
  8
0
  6
CONTINUOUS
 66
     1
 40
0.000000
 41
0.000000
  0
VERTEX
  8
0
  6
CONTINUOUS
 10
4.794680
 20
1.930720
  0
VERTEX
  8
0
  6
CONTINUOUS
 10
5.441040
 20
2.302080
  0
VERTEX
  8
0
  6
CONTINUOUS
 10
5.453800
 20
2.266880
  0
VERTEX
  8
0
  6
CONTINUOUS
 10
4.807440
 20
1.895520
  0
VERTEX
  8
0
  6
CONTINUOUS
 10
4.794680
 20
1.930720
  0
SEQEND
  8
0
  0
SOLID
  8
0
 62
     7
 10
4.807440
 20
1.895520
 11
5.453800
 21
2.266880
 12
4.821960
 22
1.865160
 13
5.468320
 23
2.236520
  0
POLYLINE
  8
0
  6
CONTINUOUS
 66
     1
 40
0.000000
 41
0.000000
  0
VERTEX
  8
0
  6
CONTINUOUS
 10
4.807440
 20
1.895520
  0
VERTEX
  8
0
  6
CONTINUOUS
 10
5.453800
 20
2.266880
  0
VERTEX
  8
0
  6
CONTINUOUS
 10
5.468320
 20
2.236520
  0
VERTEX
  8
0
  6
CONTINUOUS
 10
4.821960
 20
1.865160
  0
VERTEX
  8
0
  6
CONTINUOUS
 10
4.807440
 20
1.895520
  0
SEQEND
  8
0
  0
SOLID
  8
0
 62
     7
 10
4.821960
 20
1.865160
 11
5.468320
 21
2.236520
 12
4.837800
 22
1.838320
 13
5.483720
 23
2.209680
  0
POLYLINE
  8
0
  6
CONTINUOUS
 66
     1
 40
0.000000
 41
0.000000
  0
VERTEX
  8
0
  6
CONTINUOUS
 10
4.821960
 20
1.865160
  0
VERTEX
  8
0
  6
CONTINUOUS
 10
5.468320
 20
2.236520
  0
VERTEX
  8
0
  6
CONTINUOUS
 10
5.483720
 20
2.209680
  0
VERTEX
  8
0
  6
CONTINUOUS
 10
4.837800
 20
1.838320
  0
VERTEX
  8
0
  6
CONTINUOUS
 10
4.821960
 20
1.865160
  0
SEQEND
  8
0
  0
SOLID
  8
0
 62
     7
 10
4.837800
 20
1.838320
 11
5.483720
 21
2.209680
 12
4.854520
 22
1.815880
 13
5.500880
 23
2.187240
  0
POLYLINE
  8
0
  6
CONTINUOUS
 66
     1
 40
0.000000
 41
0.000000
  0
VERTEX
  8
0
  6
CONTINUOUS
 10
4.837800
 20
1.838320
  0
VERTEX
  8
0
  6
CONTINUOUS
 10
5.483720
 20
2.209680
  0
VERTEX
  8
0
  6
CONTINUOUS
 10
5.500880
 20
2.187240
  0
VERTEX
  8
0
  6
CONTINUOUS
 10
4.854520
 20
1.815880
  0
VERTEX
  8
0
  6
CONTINUOUS
 10
4.837800
 20
1.838320
  0
SEQEND
  8
0
  0
SOLID
  8
0
 62
     7
 10
4.854520
 20
1.815880
 11
5.500880
 21
2.187240
 12
4.872560
 22
1.796520
 13
5.518920
 23
2.167880
  0
POLYLINE
  8
0
  6
CONTINUOUS
 66
     1
 40
0.000000
 41
0.000000
  0
VERTEX
  8
0
  6
CONTINUOUS
 10
4.854520
 20
1.815880
  0
VERTEX
  8
0
  6
CONTINUOUS
 10
5.500880
 20
2.187240
  0
VERTEX
  8
0
  6
CONTINUOUS
 10
5.518920
 20
2.167880
  0
VERTEX
  8
0
  6
CONTINUOUS
 10
4.872560
 20
1.796520
  0
VERTEX
  8
0
  6
CONTINUOUS
 10
4.854520
 20
1.815880
  0
SEQEND
  8
0
  0
SOLID
  8
0
 62
     7
 10
4.872560
 20
1.796520
 11
5.518920
 21
2.167880
 12
4.891920
 22
1.780240
 13
5.537840
 23
2.151600
  0
POLYLINE
  8
0
  6
CONTINUOUS
 66
     1
 40
0.000000
 41
0.000000
  0
VERTEX
  8
0
  6
CONTINUOUS
 10
4.872560
 20
1.796520
  0
VERTEX
  8
0
  6
CONTINUOUS
 10
5.518920
 20
2.167880
  0
VERTEX
  8
0
  6
CONTINUOUS
 10
5.537840
 20
2.151600
  0
VERTEX
  8
0
  6
CONTINUOUS
 10
4.891920
 20
1.780240
  0
VERTEX
  8
0
  6
CONTINUOUS
 10
4.872560
 20
1.796520
  0
SEQEND
  8
0
  0
SOLID
  8
0
 62
     7
 10
4.891920
 20
1.780240
 11
5.537840
 21
2.151600
 12
4.932840
 22
1.755160
 13
5.578760
 23
2.126520
  0
POLYLINE
  8
0
  6
CONTINUOUS
 66
     1
 40
0.000000
 41
0.000000
  0
VERTEX
  8
0
  6
CONTINUOUS
 10
4.891920
 20
1.780240
  0
VERTEX
  8
0
  6
CONTINUOUS
 10
5.537840
 20
2.151600
  0
VERTEX
  8
0
  6
CONTINUOUS
 10
5.578760
 20
2.126520
  0
VERTEX
  8
0
  6
CONTINUOUS
 10
4.932840
 20
1.755160
  0
VERTEX
  8
0
  6
CONTINUOUS
 10
4.891920
 20
1.780240
  0
SEQEND
  8
0
  0
SOLID
  8
0
 62
     7
 10
4.932840
 20
1.755160
 11
5.578760
 21
2.126520
 12
4.976400
 22
1.737560
 13
5.622760
 23
2.108920
  0
POLYLINE
  8
0
  6
CONTINUOUS
 66
     1
 40
0.000000
 41
0.000000
  0
VERTEX
  8
0
  6
CONTINUOUS
 10
4.932840
 20
1.755160
  0
VERTEX
  8
0
  6
CONTINUOUS
 10
5.578760
 20
2.126520
  0
VERTEX
  8
0
  6
CONTINUOUS
 10
5.622760
 20
2.108920
  0
VERTEX
  8
0
  6
CONTINUOUS
 10
4.976400
 20
1.737560
  0
VERTEX
  8
0
  6
CONTINUOUS
 10
4.932840
 20
1.755160
  0
SEQEND
  8
0
  0
SOLID
  8
0
 62
    15
 10
4.976400
 20
1.737560
 11
5.622760
 21
2.108920
 12
5.022160
 22
1.724360
 13
5.668520
 23
2.095720
  0
POLYLINE
  8
0
  6
CONTINUOUS
 66
     1
 40
0.000000
 41
0.000000
  0
VERTEX
  8
0
  6
CONTINUOUS
 10
4.976400
 20
1.737560
  0
VERTEX
  8
0
  6
CONTINUOUS
 10
5.622760
 20
2.108920
  0
VERTEX
  8
0
  6
CONTINUOUS
 10
5.668520
 20
2.095720
  0
VERTEX
  8
0
  6
CONTINUOUS
 10
5.022160
 20
1.724360
  0
VERTEX
  8
0
  6
CONTINUOUS
 10
4.976400
 20
1.737560
  0
SEQEND
  8
0
  0
SOLID
  8
0
 62
    15
 10
5.022160
 20
1.724360
 11
5.668520
 21
2.095720
 12
5.022160
 22
1.602040
 13
5.668520
 23
1.973400
  0
POLYLINE
  8
0
  6
CONTINUOUS
 66
     1
 40
0.000000
 41
0.000000
  0
VERTEX
  8
0
  6
CONTINUOUS
 10
5.022160
 20
1.724360
  0
VERTEX
  8
0
  6
CONTINUOUS
 10
5.668520
 20
2.095720
  0
VERTEX
  8
0
  6
CONTINUOUS
 10
5.668520
 20
1.973400
  0
VERTEX
  8
0
  6
CONTINUOUS
 10
5.022160
 20
1.602040
  0
VERTEX
  8
0
  6
CONTINUOUS
 10
5.022160
 20
1.724360
  0
SEQEND
  8
0
  0
SOLID
  8
0
 62
    15
 10
4.576880
 20
2.125200
 11
5.223240
 21
2.496560
 12
4.760800
 22
2.125200
 13
5.406720
 23
2.496560
  0
POLYLINE
  8
0
  6
CONTINUOUS
 66
     1
 40
0.000000
 41
0.000000
  0
VERTEX
  8
0
  6
CONTINUOUS
 10
4.576880
 20
2.125200
  0
VERTEX
  8
0
  6
CONTINUOUS
 10
5.223240
 20
2.496560
  0
VERTEX
  8
0
  6
CONTINUOUS
 10
5.406720
 20
2.496560
  0
VERTEX
  8
0
  6
CONTINUOUS
 10
4.760800
 20
2.125200
  0
VERTEX
  8
0
  6
CONTINUOUS
 10
4.576880
 20
2.125200
  0
SEQEND
  8
0
  0
SOLID
  8
0
 62
     7
 10
5.067040
 20
1.588400
 11
5.713400
 21
1.959760
 12
5.107960
 22
1.566840
 13
5.754320
 23
1.938200
  0
POLYLINE
  8
0
  6
CONTINUOUS
 66
     1
 40
0.000000
 41
0.000000
  0
VERTEX
  8
0
  6
CONTINUOUS
 10
5.067040
 20
1.588400
  0
VERTEX
  8
0
  6
CONTINUOUS
 10
5.713400
 20
1.959760
  0
VERTEX
  8
0
  6
CONTINUOUS
 10
5.754320
 20
1.938200
  0
VERTEX
  8
0
  6
CONTINUOUS
 10
5.107960
 20
1.566840
  0
VERTEX
  8
0
  6
CONTINUOUS
 10
5.067040
 20
1.588400
  0
SEQEND
  8
0
  0
SOLID
  8
0
 62
     7
 10
5.107960
 20
1.566840
 11
5.754320
 21
1.938200
 12
5.144480
 22
1.538240
 13
5.790840
 23
1.909600
  0
POLYLINE
  8
0
  6
CONTINUOUS
 66
     1
 40
0.000000
 41
0.000000
  0
VERTEX
  8
0
  6
CONTINUOUS
 10
5.107960
 20
1.566840
  0
VERTEX
  8
0
  6
CONTINUOUS
 10
5.754320
 20
1.938200
  0
VERTEX
  8
0
  6
CONTINUOUS
 10
5.790840
 20
1.909600
  0
VERTEX
  8
0
  6
CONTINUOUS
 10
5.144480
 20
1.538240
  0
VERTEX
  8
0
  6
CONTINUOUS
 10
5.107960
 20
1.566840
  0
SEQEND
  8
0
  0
SOLID
  8
0
 62
     7
 10
5.144480
 20
1.538240
 11
5.790840
 21
1.909600
 12
5.176160
 22
1.503920
 13
5.822520
 23
1.875280
  0
POLYLINE
  8
0
  6
CONTINUOUS
 66
     1
 40
0.000000
 41
0.000000
  0
VERTEX
  8
0
  6
CONTINUOUS
 10
5.144480
 20
1.538240
  0
VERTEX
  8
0
  6
CONTINUOUS
 10
5.790840
 20
1.909600
  0
VERTEX
  8
0
  6
CONTINUOUS
 10
5.822520
 20
1.875280
  0
VERTEX
  8
0
  6
CONTINUOUS
 10
5.176160
 20
1.503920
  0
VERTEX
  8
0
  6
CONTINUOUS
 10
5.144480
 20
1.538240
  0
SEQEND
  8
0
  0
SOLID
  8
0
 62
     7
 10
5.176160
 20
1.503920
 11
5.822520
 21
1.875280
 12
5.203000
 22
1.464320
 13
5.849360
 23
1.835680
  0
POLYLINE
  8
0
  6
CONTINUOUS
 66
     1
 40
0.000000
 41
0.000000
  0
VERTEX
  8
0
  6
CONTINUOUS
 10
5.176160
 20
1.503920
  0
VERTEX
  8
0
  6
CONTINUOUS
 10
5.822520
 20
1.875280
  0
VERTEX
  8
0
  6
CONTINUOUS
 10
5.849360
 20
1.835680
  0
VERTEX
  8
0
  6
CONTINUOUS
 10
5.203000
 20
1.464320
  0
VERTEX
  8
0
  6
CONTINUOUS
 10
5.176160
 20
1.503920
  0
SEQEND
  8
0
  0
SOLID
  8
0
 62
     7
 10
5.203000
 20
1.464320
 11
5.849360
 21
1.835680
 12
5.224120
 22
1.420760
 13
5.870480
 23
1.792120
  0
POLYLINE
  8
0
  6
CONTINUOUS
 66
     1
 40
0.000000
 41
0.000000
  0
VERTEX
  8
0
  6
CONTINUOUS
 10
5.203000
 20
1.464320
  0
VERTEX
  8
0
  6
CONTINUOUS
 10
5.849360
 20
1.835680
  0
VERTEX
  8
0
  6
CONTINUOUS
 10
5.870480
 20
1.792120
  0
VERTEX
  8
0
  6
CONTINUOUS
 10
5.224120
 20
1.420760
  0
VERTEX
  8
0
  6
CONTINUOUS
 10
5.203000
 20
1.464320
  0
SEQEND
  8
0
  0
SOLID
  8
0
 62
     7
 10
5.224120
 20
1.420760
 11
5.870480
 21
1.792120
 12
5.239520
 22
1.374560
 13
5.885880
 23
1.745920
  0
POLYLINE
  8
0
  6
CONTINUOUS
 66
     1
 40
0.000000
 41
0.000000
  0
VERTEX
  8
0
  6
CONTINUOUS
 10
5.224120
 20
1.420760
  0
VERTEX
  8
0
  6
CONTINUOUS
 10
5.870480
 20
1.792120
  0
VERTEX
  8
0
  6
CONTINUOUS
 10
5.885880
 20
1.745920
  0
VERTEX
  8
0
  6
CONTINUOUS
 10
5.239520
 20
1.374560
  0
VERTEX
  8
0
  6
CONTINUOUS
 10
5.224120
 20
1.420760
  0
SEQEND
  8
0
  0
SOLID
  8
0
 62
    15
 10
5.239520
 20
1.374560
 11
5.885880
 21
1.745920
 12
5.248760
 22
1.326160
 13
5.895120
 23
1.697520
  0
POLYLINE
  8
0
  6
CONTINUOUS
 66
     1
 40
0.000000
 41
0.000000
  0
VERTEX
  8
0
  6
CONTINUOUS
 10
5.239520
 20
1.374560
  0
VERTEX
  8
0
  6
CONTINUOUS
 10
5.885880
 20
1.745920
  0
VERTEX
  8
0
  6
CONTINUOUS
 10
5.895120
 20
1.697520
  0
VERTEX
  8
0
  6
CONTINUOUS
 10
5.248760
 20
1.326160
  0
VERTEX
  8
0
  6
CONTINUOUS
 10
5.239520
 20
1.374560
  0
SEQEND
  8
0
  0
SOLID
  8
0
 62
    15
 10
5.248760
 20
1.326160
 11
5.895120
 21
1.697520
 12
5.250960
 22
1.277320
 13
5.897320
 23
1.648680
  0
POLYLINE
  8
0
  6
CONTINUOUS
 66
     1
 40
0.000000
 41
0.000000
  0
VERTEX
  8
0
  6
CONTINUOUS
 10
5.248760
 20
1.326160
  0
VERTEX
  8
0
  6
CONTINUOUS
 10
5.895120
 20
1.697520
  0
VERTEX
  8
0
  6
CONTINUOUS
 10
5.897320
 20
1.648680
  0
VERTEX
  8
0
  6
CONTINUOUS
 10
5.250960
 20
1.277320
  0
VERTEX
  8
0
  6
CONTINUOUS
 10
5.248760
 20
1.326160
  0
SEQEND
  8
0
  0
SOLID
  8
0
 62
    15
 10
5.250960
 20
1.277320
 11
5.897320
 21
1.648680
 12
5.246560
 22
1.228480
 13
5.892920
 23
1.599840
  0
POLYLINE
  8
0
  6
CONTINUOUS
 66
     1
 40
0.000000
 41
0.000000
  0
VERTEX
  8
0
  6
CONTINUOUS
 10
5.250960
 20
1.277320
  0
VERTEX
  8
0
  6
CONTINUOUS
 10
5.897320
 20
1.648680
  0
VERTEX
  8
0
  6
CONTINUOUS
 10
5.892920
 20
1.599840
  0
VERTEX
  8
0
  6
CONTINUOUS
 10
5.246560
 20
1.228480
  0
VERTEX
  8
0
  6
CONTINUOUS
 10
5.250960
 20
1.277320
  0
SEQEND
  8
0
  0
SOLID
  8
0
 62
    15
 10
5.246560
 20
1.228480
 11
5.892920
 21
1.599840
 12
5.234240
 22
1.180960
 13
5.880600
 23
1.552320
  0
POLYLINE
  8
0
  6
CONTINUOUS
 66
     1
 40
0.000000
 41
0.000000
  0
VERTEX
  8
0
  6
CONTINUOUS
 10
5.246560
 20
1.228480
  0
VERTEX
  8
0
  6
CONTINUOUS
 10
5.892920
 20
1.599840
  0
VERTEX
  8
0
  6
CONTINUOUS
 10
5.880600
 20
1.552320
  0
VERTEX
  8
0
  6
CONTINUOUS
 10
5.234240
 20
1.180960
  0
VERTEX
  8
0
  6
CONTINUOUS
 10
5.246560
 20
1.228480
  0
SEQEND
  8
0
  0
SOLID
  8
0
 62
    15
 10
5.234240
 20
1.180960
 11
5.880600
 21
1.552320
 12
5.214000
 22
1.135640
 13
5.860360
 23
1.507000
  0
POLYLINE
  8
0
  6
CONTINUOUS
 66
     1
 40
0.000000
 41
0.000000
  0
VERTEX
  8
0
  6
CONTINUOUS
 10
5.234240
 20
1.180960
  0
VERTEX
  8
0
  6
CONTINUOUS
 10
5.880600
 20
1.552320
  0
VERTEX
  8
0
  6
CONTINUOUS
 10
5.860360
 20
1.507000
  0
VERTEX
  8
0
  6
CONTINUOUS
 10
5.214000
 20
1.135640
  0
VERTEX
  8
0
  6
CONTINUOUS
 10
5.234240
 20
1.180960
  0
SEQEND
  8
0
  0
SOLID
  8
0
 62
    15
 10
5.214000
 20
1.135640
 11
5.860360
 21
1.507000
 12
5.185840
 22
1.093400
 13
5.832200
 23
1.464760
  0
POLYLINE
  8
0
  6
CONTINUOUS
 66
     1
 40
0.000000
 41
0.000000
  0
VERTEX
  8
0
  6
CONTINUOUS
 10
5.214000
 20
1.135640
  0
VERTEX
  8
0
  6
CONTINUOUS
 10
5.860360
 20
1.507000
  0
VERTEX
  8
0
  6
CONTINUOUS
 10
5.832200
 20
1.464760
  0
VERTEX
  8
0
  6
CONTINUOUS
 10
5.185840
 20
1.093400
  0
VERTEX
  8
0
  6
CONTINUOUS
 10
5.214000
 20
1.135640
  0
SEQEND
  8
0
  0
SOLID
  8
0
 62
    15
 10
5.185840
 20
1.093400
 11
5.832200
 21
1.464760
 12
5.148880
 22
1.055560
 13
5.794800
 23
1.426920
  0
POLYLINE
  8
0
  6
CONTINUOUS
 66
     1
 40
0.000000
 41
0.000000
  0
VERTEX
  8
0
  6
CONTINUOUS
 10
5.185840
 20
1.093400
  0
VERTEX
  8
0
  6
CONTINUOUS
 10
5.832200
 20
1.464760
  0
VERTEX
  8
0
  6
CONTINUOUS
 10
5.794800
 20
1.426920
  0
VERTEX
  8
0
  6
CONTINUOUS
 10
5.148880
 20
1.055560
  0
VERTEX
  8
0
  6
CONTINUOUS
 10
5.185840
 20
1.093400
  0
SEQEND
  8
0
  0
SOLID
  8
0
 62
    15
 10
5.046800
 20
0.997040
 11
5.693160
 21
1.368400
 12
5.046800
 22
0.875160
 13
5.693160
 23
1.246520
  0
POLYLINE
  8
0
  6
CONTINUOUS
 66
     1
 40
0.000000
 41
0.000000
  0
VERTEX
  8
0
  6
CONTINUOUS
 10
5.046800
 20
0.997040
  0
VERTEX
  8
0
  6
CONTINUOUS
 10
5.693160
 20
1.368400
  0
VERTEX
  8
0
  6
CONTINUOUS
 10
5.693160
 20
1.246520
  0
VERTEX
  8
0
  6
CONTINUOUS
 10
5.046800
 20
0.875160
  0
VERTEX
  8
0
  6
CONTINUOUS
 10
5.046800
 20
0.997040
  0
SEQEND
  8
0
  0
SOLID
  8
0
 62
    15
 10
5.148880
 20
1.055560
 11
5.794800
 21
1.426920
 12
5.102680
 22
1.023000
 13
5.749040
 23
1.394360
  0
POLYLINE
  8
0
  6
CONTINUOUS
 66
     1
 40
0.000000
 41
0.000000
  0
VERTEX
  8
0
  6
CONTINUOUS
 10
5.148880
 20
1.055560
  0
VERTEX
  8
0
  6
CONTINUOUS
 10
5.794800
 20
1.426920
  0
VERTEX
  8
0
  6
CONTINUOUS
 10
5.749040
 20
1.394360
  0
VERTEX
  8
0
  6
CONTINUOUS
 10
5.102680
 20
1.023000
  0
VERTEX
  8
0
  6
CONTINUOUS
 10
5.148880
 20
1.055560
  0
SEQEND
  8
0
  0
POLYLINE
  8
0
  6
CONTINUOUS
 66
     1
 40
0.000000
 41
0.000000
  0
VERTEX
  8
0
  6
CONTINUOUS
 10
4.576880
 20
2.125200
  0
VERTEX
  8
0
  6
CONTINUOUS
 10
4.760800
 20
2.125200
  0
VERTEX
  8
0
  6
CONTINUOUS
 10
4.766520
 20
2.068000
  0
VERTEX
  8
0
  6
CONTINUOUS
 10
4.774000
 20
2.016520
  0
VERTEX
  8
0
  6
CONTINUOUS
 10
4.783680
 20
1.971200
  0
VERTEX
  8
0
  6
CONTINUOUS
 10
4.794680
 20
1.930720
  0
VERTEX
  8
0
  6
CONTINUOUS
 10
4.807440
 20
1.895520
  0
VERTEX
  8
0
  6
CONTINUOUS
 10
4.821960
 20
1.865160
  0
VERTEX
  8
0
  6
CONTINUOUS
 10
4.837800
 20
1.838320
  0
VERTEX
  8
0
  6
CONTINUOUS
 10
4.854520
 20
1.815880
  0
VERTEX
  8
0
  6
CONTINUOUS
 10
4.872560
 20
1.796520
  0
VERTEX
  8
0
  6
CONTINUOUS
 10
4.891920
 20
1.780240
  0
VERTEX
  8
0
  6
CONTINUOUS
 10
4.932840
 20
1.755160
  0
VERTEX
  8
0
  6
CONTINUOUS
 10
4.976400
 20
1.737560
  0
VERTEX
  8
0
  6
CONTINUOUS
 10
5.022160
 20
1.724360
  0
VERTEX
  8
0
  6
CONTINUOUS
 10
5.022160
 20
1.602040
  0
VERTEX
  8
0
  6
CONTINUOUS
 10
5.067040
 20
1.588400
  0
VERTEX
  8
0
  6
CONTINUOUS
 10
5.107960
 20
1.566840
  0
VERTEX
  8
0
  6
CONTINUOUS
 10
5.144480
 20
1.538240
  0
VERTEX
  8
0
  6
CONTINUOUS
 10
5.176160
 20
1.503920
  0
VERTEX
  8
0
  6
CONTINUOUS
 10
5.203000
 20
1.464320
  0
VERTEX
  8
0
  6
CONTINUOUS
 10
5.224120
 20
1.420760
  0
VERTEX
  8
0
  6
CONTINUOUS
 10
5.239520
 20
1.374560
  0
VERTEX
  8
0
  6
CONTINUOUS
 10
5.248760
 20
1.326160
  0
VERTEX
  8
0
  6
CONTINUOUS
 10
5.250960
 20
1.277320
  0
VERTEX
  8
0
  6
CONTINUOUS
 10
5.246560
 20
1.228480
  0
VERTEX
  8
0
  6
CONTINUOUS
 10
5.234240
 20
1.180960
  0
VERTEX
  8
0
  6
CONTINUOUS
 10
5.214000
 20
1.135640
  0
VERTEX
  8
0
  6
CONTINUOUS
 10
5.185840
 20
1.093400
  0
VERTEX
  8
0
  6
CONTINUOUS
 10
5.148880
 20
1.055560
  0
VERTEX
  8
0
  6
CONTINUOUS
 10
5.102680
 20
1.023000
  0
VERTEX
  8
0
  6
CONTINUOUS
 10
5.046800
 20
0.997040
  0
VERTEX
  8
0
  6
CONTINUOUS
 10
5.046800
 20
0.875160
  0
VERTEX
  8
0
  6
CONTINUOUS
 10
4.576440
 20
0.875160
  0
VERTEX
  8
0
  6
CONTINUOUS
 10
4.576440
 20
2.123880
  0
VERTEX
  8
0
  6
CONTINUOUS
 10
4.576880
 20
2.125200
  0
SEQEND
  8
0
  0
TEXT
  8
0
 10
4.941640
 20
0.683320
 40
0.138146
  1
BA  953
 41
1.000000
  7
SN0
 71
     0
 72
     5
 11
5.531652
 21
0.683320
  0
TEXT
  8
0
 10
4.693480
 20
0.491920
 40
0.138146
  1
11/16" x 1-1/4"
 41
1.000000
  7
SN0
 71
     0
 72
     5
 11
5.777969
 21
0.491920
  0
TEXT
  8
0
 10
6.497040
 20
1.268960
 40
0.138146
  1
BA  953
 41
1.000000
  7
SN0
 71
     0
 72
     5
 11
7.087052
 21
1.268960
  0
TEXT
  8
0
 10
6.248880
 20
1.077120
 40
0.138146
  1
11/16" x 1-1/4"
 41
1.000000
  7
SN0
 71
     0
 72
     5
 11
7.333369
 21
1.077120
  0
POLYLINE
  8
0
  6
CONTINUOUS
 66
     1
 40
0.014080
 41
0.014080
  0
VERTEX
  8
0
  6
CONTINUOUS
 10
6.168360
 20
1.554080
  0
VERTEX
  8
0
  6
CONTINUOUS
 10
7.417080
 20
1.554080
  0
VERTEX
  8
0
  6
CONTINUOUS
 10
7.417080
 20
2.024440
  0
VERTEX
  8
0
  6
CONTINUOUS
 10
7.295200
 20
2.024440
  0
VERTEX
  8
0
  6
CONTINUOUS
 10
7.276280
 20
2.067120
  0
VERTEX
  8
0
  6
CONTINUOUS
 10
7.253400
 20
2.104520
  0
VERTEX
  8
0
  6
CONTINUOUS
 10
7.227440
 20
2.136200
  0
VERTEX
  8
0
  6
CONTINUOUS
 10
7.198840
 20
2.163480
  0
VERTEX
  8
0
  6
CONTINUOUS
 10
7.178160
 20
2.178440
  0
VERTEX
  8
0
  6
CONTINUOUS
 10
7.156600
 20
2.191640
  0
VERTEX
  8
0
  6
CONTINUOUS
 10
7.134600
 20
2.202640
  0
VERTEX
  8
0
  6
CONTINUOUS
 10
7.111280
 20
2.211880
  0
VERTEX
  8
0
  6
CONTINUOUS
 10
7.087960
 20
2.218920
  0
VERTEX
  8
0
  6
CONTINUOUS
 10
7.063760
 20
2.224200
  0
VERTEX
  8
0
  6
CONTINUOUS
 10
7.039560
 20
2.227280
  0
VERTEX
  8
0
  6
CONTINUOUS
 10
7.014920
 20
2.228600
  0
VERTEX
  8
0
  6
CONTINUOUS
 10
6.966080
 20
2.226400
  0
VERTEX
  8
0
  6
CONTINUOUS
 10
6.917680
 20
2.217160
  0
VERTEX
  8
0
  6
CONTINUOUS
 10
6.871480
 20
2.201760
  0
VERTEX
  8
0
  6
CONTINUOUS
 10
6.849480
 20
2.192080
  0
VERTEX
  8
0
  6
CONTINUOUS
 10
6.807680
 20
2.167880
  0
VERTEX
  8
0
  6
CONTINUOUS
 10
6.770720
 20
2.138400
  0
VERTEX
  8
0
  6
CONTINUOUS
 10
6.754000
 20
2.122120
  0
VERTEX
  8
0
  6
CONTINUOUS
 10
6.725400
 20
2.085160
  0
VERTEX
  8
0
  6
CONTINUOUS
 10
6.713520
 20
2.065360
  0
VERTEX
  8
0
  6
CONTINUOUS
 10
6.703840
 20
2.044680
  0
VERTEX
  8
0
  6
CONTINUOUS
 10
6.695920
 20
2.022680
  0
VERTEX
  8
0
  6
CONTINUOUS
 10
6.690200
 20
1.999800
  0
VERTEX
  8
0
  6
CONTINUOUS
 10
6.567880
 20
1.999800
  0
VERTEX
  8
0
  6
CONTINUOUS
 10
6.554680
 20
1.954040
  0
VERTEX
  8
0
  6
CONTINUOUS
 10
6.546760
 20
1.931600
  0
VERTEX
  8
0
  6
CONTINUOUS
 10
6.537080
 20
1.910040
  0
VERTEX
  8
0
  6
CONTINUOUS
 10
6.519040
 20
1.879240
  0
VERTEX
  8
0
  6
CONTINUOUS
 10
6.504520
 20
1.859440
  0
VERTEX
  8
0
  6
CONTINUOUS
 10
6.476360
 20
1.832160
  0
VERTEX
  8
0
  6
CONTINUOUS
 10
6.453920
 20
1.815440
  0
VERTEX
  8
0
  6
CONTINUOUS
 10
6.427520
 20
1.799600
  0
VERTEX
  8
0
  6
CONTINUOUS
 10
6.396720
 20
1.785520
  0
VERTEX
  8
0
  6
CONTINUOUS
 10
6.342160
 20
1.766600
  0
VERTEX
  8
0
  6
CONTINUOUS
 10
6.275720
 20
1.752080
  0
VERTEX
  8
0
  6
CONTINUOUS
 10
6.224240
 20
1.744160
  0
VERTEX
  8
0
  6
CONTINUOUS
 10
6.167040
 20
1.738440
  0
VERTEX
  8
0
  6
CONTINUOUS
 10
6.167040
 20
1.554960
  0
VERTEX
  8
0
  6
CONTINUOUS
 10
6.168360
 20
1.554080
  0
SEQEND
  8
0
  0
ENDSEC
  0
EOF
