  0
SECTION
  2
HEADER
  9
$ACADVER
  1
AC1006
  9
$EXTMIN
 10
3.287680
 20
0.629200
  9
$EXTMAX
 10
7.945960
 20
3.292080
  9
$LTSCALE
 40
0.044000
  9
$PDMODE
 70
    35
  9
$PDSIZE
 40
0.035200
  0
ENDSEC
  0
SECTION
  2
TABLES
  0
TABLE
  2
LTYPE
 70
     9
  0
LTYPE
  2
CONTINUOUS
 70
    64
  3
Solid line
 72
    65
 73
     0
 40
0.000000
  0
LTYPE
  2
DASHED
 70
    64
  3
__ __ __ __ __ __ __ __ __ __ __ __ __ __ __
 72
    65
 73
     2
 40
0.000330
 49
0.000220
 49
-0.000110
  0
LTYPE
  2
HIDDEN
 70
    64
  3
 _ _ _ _ _ _ _ _ _ _ _ _ _ _ _ _ _ _ _ _ _ _
 72
    65
 73
     2
 40
0.000165
 49
0.000110
 49
-0.000055
  0
LTYPE
  2
CENTER
 70
    64
  3
____ _ ____ _ ____ _ ____ _ ____ _ ____ _ ____
 72
    65
 73
     4
 40
0.000880
 49
0.000550
 49
-0.000110
 49
0.000110
 49
-0.000110
  0
LTYPE
  2
PHANTOM
 70
    64
  3
_____ _ _ _____ _ _ _____ _ _ _____ _ _ ____
 72
    65
 73
     6
 40
0.001100
 49
0.000550
 49
-0.000110
 49
0.000110
 49
-0.000110
 49
0.000110
 49
-0.000110
  0
LTYPE
  2
DOT
 70
    64
  3
...............................................
 72
    65
 73
     2
 40
0.000110
 49
0.000000
 49
-0.000110
  0
LTYPE
  2
DASHDOT
 70
    64
  3
__ . __ . __ . __ . __ . __ . __ . __ . __ . __
 72
    65
 73
     4
 40
0.000440
 49
0.000220
 49
-0.000110
 49
0.000000
 49
-0.000110
  0
LTYPE
  2
BORDER
 70
    64
  3
__ __ . __ __ . __ __ . __ __ . __ __ . __ __
 72
    65
 73
     6
 40
0.000770
 49
0.000220
 49
-0.000110
 49
0.000220
 49
-0.000110
 49
0.000000
 49
-0.000110
  0
LTYPE
  2
DIVIDE
 70
    64
  3
__ . . __ . . __ . . __ . . __ . . __ . . __
 72
    65
 73
     6
 40
0.000550
 49
0.000220
 49
-0.000110
 49
0.000000
 49
-0.000110
 49
0.000000
 49
-0.000110
  0
LTYPE
  2
DOTDOT
 70
    64
  3
 . .  . .  . .  . .  . .  . . 
 72
    65
 73
     5
 40
0.000242
 49
-0.000110
 49
0.000000
 49
-0.000110
 49
0.000000
 49
-0.000110
  0
ENDTAB
  0
TABLE
  2
STYLE
 70
     2
  0
STYLE
 70
     0
  2
SN0
 40
0.000000
 41
0.000440
 50
0.000000
 71
     0
 42
0.000000
  3
ROMAND
  0
STYLE
 70
    68
  2
SV0
 40
0.000000
 41
0.000440
 50
0.000000
 71
     0
 42
0.000000
  3
ROMAND
  0
ENDTAB
  0
TABLE
  2
LAYER
 70
     3
  0
LAYER
  2
FOREGROUND
 70
    64
 62
     7
  6
CONTINUOUS
  0
LAYER
  2
BACKGROUND
 70
    65
 62
    -7
  6
CONTINUOUS
  0
LAYER
  2
0
 70
    64
 62
     7
  6
CONTINUOUS
  0
ENDTAB
  0
ENDSEC
  0
SECTION
  2
ENTITIES
  0
POLYLINE
  8
FOREGROUND
  6
CONTINUOUS
 66
     1
 40
0.000000
 41
0.000000
  0
VERTEX
  8
FOREGROUND
  6
CONTINUOUS
 10
0.000000
 20
3.921280
  0
VERTEX
  8
FOREGROUND
  6
CONTINUOUS
 10
8.499920
 20
3.921280
  0
VERTEX
  8
FOREGROUND
  6
CONTINUOUS
 10
8.499920
 20
-7.078720
  0
VERTEX
  8
FOREGROUND
  6
CONTINUOUS
 10
0.000000
 20
-7.078720
  0
VERTEX
  8
FOREGROUND
  6
CONTINUOUS
 10
0.000000
 20
3.921280
  0
SEQEND
  8
0
  0
POLYLINE
  8
FOREGROUND
  6
CONTINUOUS
 66
     1
 40
0.000000
 41
0.000000
  0
VERTEX
  8
FOREGROUND
  6
CONTINUOUS
 10
0.000000
 20
3.921280
  0
VERTEX
  8
FOREGROUND
  6
CONTINUOUS
 10
8.499920
 20
3.921280
  0
VERTEX
  8
FOREGROUND
  6
CONTINUOUS
 10
8.499920
 20
-7.078720
  0
VERTEX
  8
FOREGROUND
  6
CONTINUOUS
 10
0.000000
 20
-7.078720
  0
VERTEX
  8
FOREGROUND
  6
CONTINUOUS
 10
0.000000
 20
3.921280
  0
SEQEND
  8
0
  0
POLYLINE
  8
0
  6
CONTINUOUS
 66
     1
 40
0.014080
 41
0.014080
  0
VERTEX
  8
0
  6
CONTINUOUS
 10
5.806240
 20
2.698960
  0
VERTEX
  8
0
  6
CONTINUOUS
 10
7.805600
 20
2.525600
  0
VERTEX
  8
0
  6
CONTINUOUS
 10
7.805160
 20
3.284600
  0
VERTEX
  8
0
  6
CONTINUOUS
 10
7.606720
 20
3.284600
  0
VERTEX
  8
0
  6
CONTINUOUS
 10
3.795880
 20
3.284600
  0
VERTEX
  8
0
  6
CONTINUOUS
 10
3.795880
 20
2.525160
  0
VERTEX
  8
0
  6
CONTINUOUS
 10
5.806240
 20
2.698960
  0
SEQEND
  8
0
  0
SOLID
  8
0
 62
    15
 10
7.298280
 20
2.163920
 11
7.945520
 21
1.792120
 12
7.298720
 22
1.404920
 13
7.945960
 23
1.033120
  0
POLYLINE
  8
0
  6
CONTINUOUS
 66
     1
 40
0.000000
 41
0.000000
  0
VERTEX
  8
0
  6
CONTINUOUS
 10
7.298280
 20
2.163920
  0
VERTEX
  8
0
  6
CONTINUOUS
 10
7.945520
 20
1.792120
  0
VERTEX
  8
0
  6
CONTINUOUS
 10
7.945960
 20
1.033120
  0
VERTEX
  8
0
  6
CONTINUOUS
 10
7.298720
 20
1.404920
  0
VERTEX
  8
0
  6
CONTINUOUS
 10
7.298280
 20
2.163920
  0
SEQEND
  8
0
  0
SOLID
  8
0
 62
    15
 10
5.298920
 20
1.578280
 11
5.946600
 21
1.206480
 12
3.288560
 22
1.404480
 13
3.935800
 23
1.032240
  0
POLYLINE
  8
0
  6
CONTINUOUS
 66
     1
 40
0.000000
 41
0.000000
  0
VERTEX
  8
0
  6
CONTINUOUS
 10
5.298920
 20
1.578280
  0
VERTEX
  8
0
  6
CONTINUOUS
 10
5.946600
 20
1.206480
  0
VERTEX
  8
0
  6
CONTINUOUS
 10
3.935800
 20
1.032240
  0
VERTEX
  8
0
  6
CONTINUOUS
 10
3.288560
 20
1.404480
  0
VERTEX
  8
0
  6
CONTINUOUS
 10
5.298920
 20
1.578280
  0
SEQEND
  8
0
  0
SOLID
  8
0
 62
    15
 10
7.298720
 20
1.404920
 11
7.945960
 21
1.033120
 12
5.298920
 22
1.578280
 13
5.946160
 23
1.206480
  0
POLYLINE
  8
0
  6
CONTINUOUS
 66
     1
 40
0.000000
 41
0.000000
  0
VERTEX
  8
0
  6
CONTINUOUS
 10
7.298720
 20
1.404920
  0
VERTEX
  8
0
  6
CONTINUOUS
 10
7.945960
 20
1.033120
  0
VERTEX
  8
0
  6
CONTINUOUS
 10
5.946160
 20
1.206480
  0
VERTEX
  8
0
  6
CONTINUOUS
 10
5.298920
 20
1.578280
  0
VERTEX
  8
0
  6
CONTINUOUS
 10
7.298720
 20
1.404920
  0
SEQEND
  8
0
  0
POLYLINE
  8
0
  6
CONTINUOUS
 66
     1
 40
0.000000
 41
0.000000
  0
VERTEX
  8
0
  6
CONTINUOUS
 10
5.298920
 20
1.578280
  0
VERTEX
  8
0
  6
CONTINUOUS
 10
3.288560
 20
1.404480
  0
VERTEX
  8
0
  6
CONTINUOUS
 10
3.288560
 20
2.163920
  0
VERTEX
  8
0
  6
CONTINUOUS
 10
7.298280
 20
2.163920
  0
VERTEX
  8
0
  6
CONTINUOUS
 10
7.298720
 20
1.404920
  0
VERTEX
  8
0
  6
CONTINUOUS
 10
5.298920
 20
1.578280
  0
SEQEND
  8
0
  0
TEXT
  8
0
 10
5.321360
 20
0.867240
 40
0.138142
  1
BA  952
 41
1.000000
  7
SN0
 71
     0
 72
     5
 11
5.912962
 21
0.867240
  0
TEXT
  8
0
 10
5.096520
 20
0.675400
 40
0.138142
  1
4" x specified"
 41
1.000000
  7
SN0
 71
     0
 72
     5
 11
6.138344
 21
0.675400
  0
TEXT
  8
0
 10
5.518920
 20
3.030280
 40
0.138142
  1
BA  952
 41
1.000000
  7
SN0
 71
     0
 72
     5
 11
6.110522
 21
3.030280
  0
TEXT
  8
0
 10
5.294080
 20
2.838440
 40
0.138142
  1
4" x specified"
 41
1.000000
  7
SN0
 71
     0
 72
     5
 11
6.335904
 21
2.838440
  0
ENDSEC
  0
EOF
