  0
SECTION
  2
HEADER
  9
$ACADVER
  1
AC1006
  9
$EXTMIN
 10
4.401320
 20
0.372680
  9
$EXTMAX
 10
7.922640
 20
2.993760
  9
$LTSCALE
 40
0.044000
  9
$PDMODE
 70
    35
  9
$PDSIZE
 40
0.035200
  0
ENDSEC
  0
SECTION
  2
TABLES
  0
TABLE
  2
LTYPE
 70
     9
  0
LTYPE
  2
CONTINUOUS
 70
    64
  3
Solid line
 72
    65
 73
     0
 40
0.000000
  0
LTYPE
  2
DASHED
 70
    64
  3
__ __ __ __ __ __ __ __ __ __ __ __ __ __ __
 72
    65
 73
     2
 40
0.000330
 49
0.000220
 49
-0.000110
  0
LTYPE
  2
HIDDEN
 70
    64
  3
 _ _ _ _ _ _ _ _ _ _ _ _ _ _ _ _ _ _ _ _ _ _
 72
    65
 73
     2
 40
0.000165
 49
0.000110
 49
-0.000055
  0
LTYPE
  2
CENTER
 70
    64
  3
____ _ ____ _ ____ _ ____ _ ____ _ ____ _ ____
 72
    65
 73
     4
 40
0.000880
 49
0.000550
 49
-0.000110
 49
0.000110
 49
-0.000110
  0
LTYPE
  2
PHANTOM
 70
    64
  3
_____ _ _ _____ _ _ _____ _ _ _____ _ _ ____
 72
    65
 73
     6
 40
0.001100
 49
0.000550
 49
-0.000110
 49
0.000110
 49
-0.000110
 49
0.000110
 49
-0.000110
  0
LTYPE
  2
DOT
 70
    64
  3
...............................................
 72
    65
 73
     2
 40
0.000110
 49
0.000000
 49
-0.000110
  0
LTYPE
  2
DASHDOT
 70
    64
  3
__ . __ . __ . __ . __ . __ . __ . __ . __ . __
 72
    65
 73
     4
 40
0.000440
 49
0.000220
 49
-0.000110
 49
0.000000
 49
-0.000110
  0
LTYPE
  2
BORDER
 70
    64
  3
__ __ . __ __ . __ __ . __ __ . __ __ . __ __
 72
    65
 73
     6
 40
0.000770
 49
0.000220
 49
-0.000110
 49
0.000220
 49
-0.000110
 49
0.000000
 49
-0.000110
  0
LTYPE
  2
DIVIDE
 70
    64
  3
__ . . __ . . __ . . __ . . __ . . __ . . __
 72
    65
 73
     6
 40
0.000550
 49
0.000220
 49
-0.000110
 49
0.000000
 49
-0.000110
 49
0.000000
 49
-0.000110
  0
LTYPE
  2
DOTDOT
 70
    64
  3
 . .  . .  . .  . .  . .  . . 
 72
    65
 73
     5
 40
0.000242
 49
-0.000110
 49
0.000000
 49
-0.000110
 49
0.000000
 49
-0.000110
  0
ENDTAB
  0
TABLE
  2
STYLE
 70
     2
  0
STYLE
 70
     0
  2
SN0
 40
0.000000
 41
0.000440
 50
0.000000
 71
     0
 42
0.000000
  3
ROMAND
  0
STYLE
 70
    68
  2
SV0
 40
0.000000
 41
0.000440
 50
0.000000
 71
     0
 42
0.000000
  3
ROMAND
  0
ENDTAB
  0
TABLE
  2
LAYER
 70
     3
  0
LAYER
  2
FOREGROUND
 70
    64
 62
     7
  6
CONTINUOUS
  0
LAYER
  2
BACKGROUND
 70
    65
 62
    -7
  6
CONTINUOUS
  0
LAYER
  2
0
 70
    64
 62
     7
  6
CONTINUOUS
  0
ENDTAB
  0
ENDSEC
  0
SECTION
  2
ENTITIES
  0
POLYLINE
  8
FOREGROUND
  6
CONTINUOUS
 66
     1
 40
0.000000
 41
0.000000
  0
VERTEX
  8
FOREGROUND
  6
CONTINUOUS
 10
0.000000
 20
3.366440
  0
VERTEX
  8
FOREGROUND
  6
CONTINUOUS
 10
8.499920
 20
3.366440
  0
VERTEX
  8
FOREGROUND
  6
CONTINUOUS
 10
8.499920
 20
-7.633560
  0
VERTEX
  8
FOREGROUND
  6
CONTINUOUS
 10
0.000000
 20
-7.633560
  0
VERTEX
  8
FOREGROUND
  6
CONTINUOUS
 10
0.000000
 20
3.366440
  0
SEQEND
  8
0
  0
POLYLINE
  8
FOREGROUND
  6
CONTINUOUS
 66
     1
 40
0.000000
 41
0.000000
  0
VERTEX
  8
FOREGROUND
  6
CONTINUOUS
 10
0.000000
 20
3.366440
  0
VERTEX
  8
FOREGROUND
  6
CONTINUOUS
 10
8.499920
 20
3.366440
  0
VERTEX
  8
FOREGROUND
  6
CONTINUOUS
 10
8.499920
 20
-7.633560
  0
VERTEX
  8
FOREGROUND
  6
CONTINUOUS
 10
0.000000
 20
-7.633560
  0
VERTEX
  8
FOREGROUND
  6
CONTINUOUS
 10
0.000000
 20
3.366440
  0
SEQEND
  8
0
  0
SOLID
  8
0
 62
     7
 10
4.781920
 20
1.902560
 11
5.426520
 21
2.265120
 12
4.800840
 22
1.862960
 13
5.445440
 23
2.225960
  0
POLYLINE
  8
0
  6
CONTINUOUS
 66
     1
 40
0.000000
 41
0.000000
  0
VERTEX
  8
0
  6
CONTINUOUS
 10
4.781920
 20
1.902560
  0
VERTEX
  8
0
  6
CONTINUOUS
 10
5.426520
 20
2.265120
  0
VERTEX
  8
0
  6
CONTINUOUS
 10
5.445440
 20
2.225960
  0
VERTEX
  8
0
  6
CONTINUOUS
 10
4.800840
 20
1.862960
  0
VERTEX
  8
0
  6
CONTINUOUS
 10
4.781920
 20
1.902560
  0
SEQEND
  8
0
  0
SOLID
  8
0
 62
    15
 10
4.451040
 20
2.630320
 11
5.095640
 21
2.992880
 12
4.491960
 22
2.625920
 13
5.136560
 23
2.988920
  0
POLYLINE
  8
0
  6
CONTINUOUS
 66
     1
 40
0.000000
 41
0.000000
  0
VERTEX
  8
0
  6
CONTINUOUS
 10
4.451040
 20
2.630320
  0
VERTEX
  8
0
  6
CONTINUOUS
 10
5.095640
 20
2.992880
  0
VERTEX
  8
0
  6
CONTINUOUS
 10
5.136560
 20
2.988920
  0
VERTEX
  8
0
  6
CONTINUOUS
 10
4.491960
 20
2.625920
  0
VERTEX
  8
0
  6
CONTINUOUS
 10
4.451040
 20
2.630320
  0
SEQEND
  8
0
  0
SOLID
  8
0
 62
    15
 10
4.491960
 20
2.625920
 11
5.136560
 21
2.988920
 12
4.528920
 22
2.617120
 13
5.173520
 23
2.980120
  0
POLYLINE
  8
0
  6
CONTINUOUS
 66
     1
 40
0.000000
 41
0.000000
  0
VERTEX
  8
0
  6
CONTINUOUS
 10
4.491960
 20
2.625920
  0
VERTEX
  8
0
  6
CONTINUOUS
 10
5.136560
 20
2.988920
  0
VERTEX
  8
0
  6
CONTINUOUS
 10
5.173520
 20
2.980120
  0
VERTEX
  8
0
  6
CONTINUOUS
 10
4.528920
 20
2.617120
  0
VERTEX
  8
0
  6
CONTINUOUS
 10
4.491960
 20
2.625920
  0
SEQEND
  8
0
  0
SOLID
  8
0
 62
    15
 10
4.528920
 20
2.617120
 11
5.173520
 21
2.980120
 12
4.561920
 22
2.604800
 13
5.206520
 23
2.967800
  0
POLYLINE
  8
0
  6
CONTINUOUS
 66
     1
 40
0.000000
 41
0.000000
  0
VERTEX
  8
0
  6
CONTINUOUS
 10
4.528920
 20
2.617120
  0
VERTEX
  8
0
  6
CONTINUOUS
 10
5.173520
 20
2.980120
  0
VERTEX
  8
0
  6
CONTINUOUS
 10
5.206520
 20
2.967800
  0
VERTEX
  8
0
  6
CONTINUOUS
 10
4.561920
 20
2.604800
  0
VERTEX
  8
0
  6
CONTINUOUS
 10
4.528920
 20
2.617120
  0
SEQEND
  8
0
  0
SOLID
  8
0
 62
    15
 10
4.561920
 20
2.604800
 11
5.206520
 21
2.967800
 12
4.591400
 22
2.588520
 13
5.236000
 23
2.951520
  0
POLYLINE
  8
0
  6
CONTINUOUS
 66
     1
 40
0.000000
 41
0.000000
  0
VERTEX
  8
0
  6
CONTINUOUS
 10
4.561920
 20
2.604800
  0
VERTEX
  8
0
  6
CONTINUOUS
 10
5.206520
 20
2.967800
  0
VERTEX
  8
0
  6
CONTINUOUS
 10
5.236000
 20
2.951520
  0
VERTEX
  8
0
  6
CONTINUOUS
 10
4.591400
 20
2.588520
  0
VERTEX
  8
0
  6
CONTINUOUS
 10
4.561920
 20
2.604800
  0
SEQEND
  8
0
  0
SOLID
  8
0
 62
    15
 10
4.591400
 20
2.588520
 11
5.236000
 21
2.951520
 12
4.617360
 22
2.569600
 13
5.261960
 23
2.932600
  0
POLYLINE
  8
0
  6
CONTINUOUS
 66
     1
 40
0.000000
 41
0.000000
  0
VERTEX
  8
0
  6
CONTINUOUS
 10
4.591400
 20
2.588520
  0
VERTEX
  8
0
  6
CONTINUOUS
 10
5.236000
 20
2.951520
  0
VERTEX
  8
0
  6
CONTINUOUS
 10
5.261960
 20
2.932600
  0
VERTEX
  8
0
  6
CONTINUOUS
 10
4.617360
 20
2.569600
  0
VERTEX
  8
0
  6
CONTINUOUS
 10
4.591400
 20
2.588520
  0
SEQEND
  8
0
  0
SOLID
  8
0
 62
    15
 10
4.617360
 20
2.569600
 11
5.261960
 21
2.932600
 12
4.639800
 22
2.548040
 13
5.284840
 23
2.911040
  0
POLYLINE
  8
0
  6
CONTINUOUS
 66
     1
 40
0.000000
 41
0.000000
  0
VERTEX
  8
0
  6
CONTINUOUS
 10
4.617360
 20
2.569600
  0
VERTEX
  8
0
  6
CONTINUOUS
 10
5.261960
 20
2.932600
  0
VERTEX
  8
0
  6
CONTINUOUS
 10
5.284840
 20
2.911040
  0
VERTEX
  8
0
  6
CONTINUOUS
 10
4.639800
 20
2.548040
  0
VERTEX
  8
0
  6
CONTINUOUS
 10
4.617360
 20
2.569600
  0
SEQEND
  8
0
  0
SOLID
  8
0
 62
    15
 10
4.639800
 20
2.548040
 11
5.284840
 21
2.911040
 12
4.660040
 22
2.524720
 13
5.304640
 23
2.887280
  0
POLYLINE
  8
0
  6
CONTINUOUS
 66
     1
 40
0.000000
 41
0.000000
  0
VERTEX
  8
0
  6
CONTINUOUS
 10
4.639800
 20
2.548040
  0
VERTEX
  8
0
  6
CONTINUOUS
 10
5.284840
 20
2.911040
  0
VERTEX
  8
0
  6
CONTINUOUS
 10
5.304640
 20
2.887280
  0
VERTEX
  8
0
  6
CONTINUOUS
 10
4.660040
 20
2.524720
  0
VERTEX
  8
0
  6
CONTINUOUS
 10
4.639800
 20
2.548040
  0
SEQEND
  8
0
  0
SOLID
  8
0
 62
    15
 10
4.660040
 20
2.524720
 11
5.304640
 21
2.887280
 12
4.691280
 22
2.472800
 13
5.336320
 23
2.835800
  0
POLYLINE
  8
0
  6
CONTINUOUS
 66
     1
 40
0.000000
 41
0.000000
  0
VERTEX
  8
0
  6
CONTINUOUS
 10
4.660040
 20
2.524720
  0
VERTEX
  8
0
  6
CONTINUOUS
 10
5.304640
 20
2.887280
  0
VERTEX
  8
0
  6
CONTINUOUS
 10
5.336320
 20
2.835800
  0
VERTEX
  8
0
  6
CONTINUOUS
 10
4.691280
 20
2.472800
  0
VERTEX
  8
0
  6
CONTINUOUS
 10
4.660040
 20
2.524720
  0
SEQEND
  8
0
  0
SOLID
  8
0
 62
    15
 10
4.691280
 20
2.472800
 11
5.336320
 21
2.835800
 12
4.713720
 22
2.418240
 13
5.358320
 23
2.781240
  0
POLYLINE
  8
0
  6
CONTINUOUS
 66
     1
 40
0.000000
 41
0.000000
  0
VERTEX
  8
0
  6
CONTINUOUS
 10
4.691280
 20
2.472800
  0
VERTEX
  8
0
  6
CONTINUOUS
 10
5.336320
 20
2.835800
  0
VERTEX
  8
0
  6
CONTINUOUS
 10
5.358320
 20
2.781240
  0
VERTEX
  8
0
  6
CONTINUOUS
 10
4.713720
 20
2.418240
  0
VERTEX
  8
0
  6
CONTINUOUS
 10
4.691280
 20
2.472800
  0
SEQEND
  8
0
  0
SOLID
  8
0
 62
    15
 10
4.713720
 20
2.418240
 11
5.358320
 21
2.781240
 12
4.728240
 22
2.364560
 13
5.373280
 23
2.727120
  0
POLYLINE
  8
0
  6
CONTINUOUS
 66
     1
 40
0.000000
 41
0.000000
  0
VERTEX
  8
0
  6
CONTINUOUS
 10
4.713720
 20
2.418240
  0
VERTEX
  8
0
  6
CONTINUOUS
 10
5.358320
 20
2.781240
  0
VERTEX
  8
0
  6
CONTINUOUS
 10
5.373280
 20
2.727120
  0
VERTEX
  8
0
  6
CONTINUOUS
 10
4.728240
 20
2.364560
  0
VERTEX
  8
0
  6
CONTINUOUS
 10
4.713720
 20
2.418240
  0
SEQEND
  8
0
  0
SOLID
  8
0
 62
    15
 10
4.728240
 20
2.364560
 11
5.373280
 21
2.727120
 12
4.737040
 22
2.314840
 13
5.382080
 23
2.677840
  0
POLYLINE
  8
0
  6
CONTINUOUS
 66
     1
 40
0.000000
 41
0.000000
  0
VERTEX
  8
0
  6
CONTINUOUS
 10
4.728240
 20
2.364560
  0
VERTEX
  8
0
  6
CONTINUOUS
 10
5.373280
 20
2.727120
  0
VERTEX
  8
0
  6
CONTINUOUS
 10
5.382080
 20
2.677840
  0
VERTEX
  8
0
  6
CONTINUOUS
 10
4.737040
 20
2.314840
  0
VERTEX
  8
0
  6
CONTINUOUS
 10
4.728240
 20
2.364560
  0
SEQEND
  8
0
  0
SOLID
  8
0
 62
    15
 10
4.737040
 20
2.314840
 11
5.382080
 21
2.677840
 12
4.740120
 22
2.267760
 13
5.385160
 23
2.630320
  0
POLYLINE
  8
0
  6
CONTINUOUS
 66
     1
 40
0.000000
 41
0.000000
  0
VERTEX
  8
0
  6
CONTINUOUS
 10
4.737040
 20
2.314840
  0
VERTEX
  8
0
  6
CONTINUOUS
 10
5.382080
 20
2.677840
  0
VERTEX
  8
0
  6
CONTINUOUS
 10
5.385160
 20
2.630320
  0
VERTEX
  8
0
  6
CONTINUOUS
 10
4.740120
 20
2.267760
  0
VERTEX
  8
0
  6
CONTINUOUS
 10
4.737040
 20
2.314840
  0
SEQEND
  8
0
  0
SOLID
  8
0
 62
    15
 10
4.740120
 20
2.267760
 11
5.385160
 21
2.630320
 12
4.738800
 22
2.217600
 13
5.383400
 23
2.580600
  0
POLYLINE
  8
0
  6
CONTINUOUS
 66
     1
 40
0.000000
 41
0.000000
  0
VERTEX
  8
0
  6
CONTINUOUS
 10
4.740120
 20
2.267760
  0
VERTEX
  8
0
  6
CONTINUOUS
 10
5.385160
 20
2.630320
  0
VERTEX
  8
0
  6
CONTINUOUS
 10
5.383400
 20
2.580600
  0
VERTEX
  8
0
  6
CONTINUOUS
 10
4.738800
 20
2.217600
  0
VERTEX
  8
0
  6
CONTINUOUS
 10
4.740120
 20
2.267760
  0
SEQEND
  8
0
  0
SOLID
  8
0
 62
    15
 10
4.738800
 20
2.217600
 11
5.383400
 21
2.580600
 12
4.737480
 22
2.191200
 13
5.382080
 23
2.554200
  0
POLYLINE
  8
0
  6
CONTINUOUS
 66
     1
 40
0.000000
 41
0.000000
  0
VERTEX
  8
0
  6
CONTINUOUS
 10
4.738800
 20
2.217600
  0
VERTEX
  8
0
  6
CONTINUOUS
 10
5.383400
 20
2.580600
  0
VERTEX
  8
0
  6
CONTINUOUS
 10
5.382080
 20
2.554200
  0
VERTEX
  8
0
  6
CONTINUOUS
 10
4.737480
 20
2.191200
  0
VERTEX
  8
0
  6
CONTINUOUS
 10
4.738800
 20
2.217600
  0
SEQEND
  8
0
  0
SOLID
  8
0
 62
    15
 10
4.737480
 20
2.191200
 11
5.382080
 21
2.554200
 12
4.736160
 22
2.163920
 13
5.381200
 23
2.526920
  0
POLYLINE
  8
0
  6
CONTINUOUS
 66
     1
 40
0.000000
 41
0.000000
  0
VERTEX
  8
0
  6
CONTINUOUS
 10
4.737480
 20
2.191200
  0
VERTEX
  8
0
  6
CONTINUOUS
 10
5.382080
 20
2.554200
  0
VERTEX
  8
0
  6
CONTINUOUS
 10
5.381200
 20
2.526920
  0
VERTEX
  8
0
  6
CONTINUOUS
 10
4.736160
 20
2.163920
  0
VERTEX
  8
0
  6
CONTINUOUS
 10
4.737480
 20
2.191200
  0
SEQEND
  8
0
  0
SOLID
  8
0
 62
    15
 10
4.736160
 20
2.163920
 11
5.381200
 21
2.526920
 12
4.735720
 22
2.106280
 13
5.380760
 23
2.469280
  0
POLYLINE
  8
0
  6
CONTINUOUS
 66
     1
 40
0.000000
 41
0.000000
  0
VERTEX
  8
0
  6
CONTINUOUS
 10
4.736160
 20
2.163920
  0
VERTEX
  8
0
  6
CONTINUOUS
 10
5.381200
 20
2.526920
  0
VERTEX
  8
0
  6
CONTINUOUS
 10
5.380760
 20
2.469280
  0
VERTEX
  8
0
  6
CONTINUOUS
 10
4.735720
 20
2.106280
  0
VERTEX
  8
0
  6
CONTINUOUS
 10
4.736160
 20
2.163920
  0
SEQEND
  8
0
  0
SOLID
  8
0
 62
    15
 10
4.735720
 20
2.106280
 11
5.380760
 21
2.469280
 12
4.741000
 22
2.043800
 13
5.386040
 23
2.406800
  0
POLYLINE
  8
0
  6
CONTINUOUS
 66
     1
 40
0.000000
 41
0.000000
  0
VERTEX
  8
0
  6
CONTINUOUS
 10
4.735720
 20
2.106280
  0
VERTEX
  8
0
  6
CONTINUOUS
 10
5.380760
 20
2.469280
  0
VERTEX
  8
0
  6
CONTINUOUS
 10
5.386040
 20
2.406800
  0
VERTEX
  8
0
  6
CONTINUOUS
 10
4.741000
 20
2.043800
  0
VERTEX
  8
0
  6
CONTINUOUS
 10
4.735720
 20
2.106280
  0
SEQEND
  8
0
  0
SOLID
  8
0
 62
    15
 10
4.741000
 20
2.043800
 11
5.386040
 21
2.406800
 12
4.755520
 22
1.976040
 13
5.400120
 23
2.339040
  0
POLYLINE
  8
0
  6
CONTINUOUS
 66
     1
 40
0.000000
 41
0.000000
  0
VERTEX
  8
0
  6
CONTINUOUS
 10
4.741000
 20
2.043800
  0
VERTEX
  8
0
  6
CONTINUOUS
 10
5.386040
 20
2.406800
  0
VERTEX
  8
0
  6
CONTINUOUS
 10
5.400120
 20
2.339040
  0
VERTEX
  8
0
  6
CONTINUOUS
 10
4.755520
 20
1.976040
  0
VERTEX
  8
0
  6
CONTINUOUS
 10
4.741000
 20
2.043800
  0
SEQEND
  8
0
  0
SOLID
  8
0
 62
    15
 10
4.755520
 20
1.976040
 11
5.400120
 21
2.339040
 12
4.766960
 22
1.939960
 13
5.411560
 23
2.302960
  0
POLYLINE
  8
0
  6
CONTINUOUS
 66
     1
 40
0.000000
 41
0.000000
  0
VERTEX
  8
0
  6
CONTINUOUS
 10
4.755520
 20
1.976040
  0
VERTEX
  8
0
  6
CONTINUOUS
 10
5.400120
 20
2.339040
  0
VERTEX
  8
0
  6
CONTINUOUS
 10
5.411560
 20
2.302960
  0
VERTEX
  8
0
  6
CONTINUOUS
 10
4.766960
 20
1.939960
  0
VERTEX
  8
0
  6
CONTINUOUS
 10
4.755520
 20
1.976040
  0
SEQEND
  8
0
  0
SOLID
  8
0
 62
    15
 10
4.766960
 20
1.939960
 11
5.411560
 21
2.302960
 12
4.781920
 22
1.902560
 13
5.426520
 23
2.265120
  0
POLYLINE
  8
0
  6
CONTINUOUS
 66
     1
 40
0.000000
 41
0.000000
  0
VERTEX
  8
0
  6
CONTINUOUS
 10
4.766960
 20
1.939960
  0
VERTEX
  8
0
  6
CONTINUOUS
 10
5.411560
 20
2.302960
  0
VERTEX
  8
0
  6
CONTINUOUS
 10
5.426520
 20
2.265120
  0
VERTEX
  8
0
  6
CONTINUOUS
 10
4.781920
 20
1.902560
  0
VERTEX
  8
0
  6
CONTINUOUS
 10
4.766960
 20
1.939960
  0
SEQEND
  8
0
  0
SOLID
  8
0
 62
    15
 10
4.405720
 20
2.629440
 11
5.050760
 21
2.992440
 12
4.451040
 22
2.630320
 13
5.095640
 23
2.992880
  0
POLYLINE
  8
0
  6
CONTINUOUS
 66
     1
 40
0.000000
 41
0.000000
  0
VERTEX
  8
0
  6
CONTINUOUS
 10
4.405720
 20
2.629440
  0
VERTEX
  8
0
  6
CONTINUOUS
 10
5.050760
 20
2.992440
  0
VERTEX
  8
0
  6
CONTINUOUS
 10
5.095640
 20
2.992880
  0
VERTEX
  8
0
  6
CONTINUOUS
 10
4.451040
 20
2.630320
  0
VERTEX
  8
0
  6
CONTINUOUS
 10
4.405720
 20
2.629440
  0
SEQEND
  8
0
  0
SOLID
  8
0
 62
     7
 10
4.800840
 20
1.862960
 11
5.445440
 21
2.225960
 12
4.824160
 22
1.822040
 13
5.468760
 23
2.185040
  0
POLYLINE
  8
0
  6
CONTINUOUS
 66
     1
 40
0.000000
 41
0.000000
  0
VERTEX
  8
0
  6
CONTINUOUS
 10
4.800840
 20
1.862960
  0
VERTEX
  8
0
  6
CONTINUOUS
 10
5.445440
 20
2.225960
  0
VERTEX
  8
0
  6
CONTINUOUS
 10
5.468760
 20
2.185040
  0
VERTEX
  8
0
  6
CONTINUOUS
 10
4.824160
 20
1.822040
  0
VERTEX
  8
0
  6
CONTINUOUS
 10
4.800840
 20
1.862960
  0
SEQEND
  8
0
  0
SOLID
  8
0
 62
     7
 10
4.824160
 20
1.822040
 11
5.468760
 21
2.185040
 12
4.877400
 22
1.741960
 13
5.522000
 23
2.104960
  0
POLYLINE
  8
0
  6
CONTINUOUS
 66
     1
 40
0.000000
 41
0.000000
  0
VERTEX
  8
0
  6
CONTINUOUS
 10
4.824160
 20
1.822040
  0
VERTEX
  8
0
  6
CONTINUOUS
 10
5.468760
 20
2.185040
  0
VERTEX
  8
0
  6
CONTINUOUS
 10
5.522000
 20
2.104960
  0
VERTEX
  8
0
  6
CONTINUOUS
 10
4.877400
 20
1.741960
  0
VERTEX
  8
0
  6
CONTINUOUS
 10
4.824160
 20
1.822040
  0
SEQEND
  8
0
  0
SOLID
  8
0
 62
     7
 10
4.877400
 20
1.741960
 11
5.522000
 21
2.104960
 12
4.932400
 22
1.668040
 13
5.577000
 23
2.031040
  0
POLYLINE
  8
0
  6
CONTINUOUS
 66
     1
 40
0.000000
 41
0.000000
  0
VERTEX
  8
0
  6
CONTINUOUS
 10
4.877400
 20
1.741960
  0
VERTEX
  8
0
  6
CONTINUOUS
 10
5.522000
 20
2.104960
  0
VERTEX
  8
0
  6
CONTINUOUS
 10
5.577000
 20
2.031040
  0
VERTEX
  8
0
  6
CONTINUOUS
 10
4.932400
 20
1.668040
  0
VERTEX
  8
0
  6
CONTINUOUS
 10
4.877400
 20
1.741960
  0
SEQEND
  8
0
  0
SOLID
  8
0
 62
     7
 10
4.932400
 20
1.668040
 11
5.577000
 21
2.031040
 12
4.986960
 22
1.599840
 13
5.631560
 23
1.962840
  0
POLYLINE
  8
0
  6
CONTINUOUS
 66
     1
 40
0.000000
 41
0.000000
  0
VERTEX
  8
0
  6
CONTINUOUS
 10
4.932400
 20
1.668040
  0
VERTEX
  8
0
  6
CONTINUOUS
 10
5.577000
 20
2.031040
  0
VERTEX
  8
0
  6
CONTINUOUS
 10
5.631560
 20
1.962840
  0
VERTEX
  8
0
  6
CONTINUOUS
 10
4.986960
 20
1.599840
  0
VERTEX
  8
0
  6
CONTINUOUS
 10
4.932400
 20
1.668040
  0
SEQEND
  8
0
  0
SOLID
  8
0
 62
     7
 10
4.986960
 20
1.599840
 11
5.631560
 21
1.962840
 12
5.013360
 22
1.567280
 13
5.657960
 23
1.930280
  0
POLYLINE
  8
0
  6
CONTINUOUS
 66
     1
 40
0.000000
 41
0.000000
  0
VERTEX
  8
0
  6
CONTINUOUS
 10
4.986960
 20
1.599840
  0
VERTEX
  8
0
  6
CONTINUOUS
 10
5.631560
 20
1.962840
  0
VERTEX
  8
0
  6
CONTINUOUS
 10
5.657960
 20
1.930280
  0
VERTEX
  8
0
  6
CONTINUOUS
 10
5.013360
 20
1.567280
  0
VERTEX
  8
0
  6
CONTINUOUS
 10
4.986960
 20
1.599840
  0
SEQEND
  8
0
  0
SOLID
  8
0
 62
     7
 10
5.013360
 20
1.567280
 11
5.657960
 21
1.930280
 12
5.038440
 22
1.535600
 13
5.683040
 23
1.898600
  0
POLYLINE
  8
0
  6
CONTINUOUS
 66
     1
 40
0.000000
 41
0.000000
  0
VERTEX
  8
0
  6
CONTINUOUS
 10
5.013360
 20
1.567280
  0
VERTEX
  8
0
  6
CONTINUOUS
 10
5.657960
 20
1.930280
  0
VERTEX
  8
0
  6
CONTINUOUS
 10
5.683040
 20
1.898600
  0
VERTEX
  8
0
  6
CONTINUOUS
 10
5.038440
 20
1.535600
  0
VERTEX
  8
0
  6
CONTINUOUS
 10
5.013360
 20
1.567280
  0
SEQEND
  8
0
  0
SOLID
  8
0
 62
     7
 10
5.038440
 20
1.535600
 11
5.683040
 21
1.898600
 12
5.083760
 22
1.474880
 13
5.728800
 23
1.837880
  0
POLYLINE
  8
0
  6
CONTINUOUS
 66
     1
 40
0.000000
 41
0.000000
  0
VERTEX
  8
0
  6
CONTINUOUS
 10
5.038440
 20
1.535600
  0
VERTEX
  8
0
  6
CONTINUOUS
 10
5.683040
 20
1.898600
  0
VERTEX
  8
0
  6
CONTINUOUS
 10
5.728800
 20
1.837880
  0
VERTEX
  8
0
  6
CONTINUOUS
 10
5.083760
 20
1.474880
  0
VERTEX
  8
0
  6
CONTINUOUS
 10
5.038440
 20
1.535600
  0
SEQEND
  8
0
  0
SOLID
  8
0
 62
     7
 10
5.083760
 20
1.474880
 11
5.728800
 21
1.837880
 12
5.121160
 22
1.415920
 13
5.765760
 23
1.778920
  0
POLYLINE
  8
0
  6
CONTINUOUS
 66
     1
 40
0.000000
 41
0.000000
  0
VERTEX
  8
0
  6
CONTINUOUS
 10
5.083760
 20
1.474880
  0
VERTEX
  8
0
  6
CONTINUOUS
 10
5.728800
 20
1.837880
  0
VERTEX
  8
0
  6
CONTINUOUS
 10
5.765760
 20
1.778920
  0
VERTEX
  8
0
  6
CONTINUOUS
 10
5.121160
 20
1.415920
  0
VERTEX
  8
0
  6
CONTINUOUS
 10
5.083760
 20
1.474880
  0
SEQEND
  8
0
  0
SOLID
  8
0
 62
    15
 10
5.121160
 20
1.415920
 11
5.765760
 21
1.778920
 12
5.147120
 22
1.358280
 13
5.791720
 23
1.721280
  0
POLYLINE
  8
0
  6
CONTINUOUS
 66
     1
 40
0.000000
 41
0.000000
  0
VERTEX
  8
0
  6
CONTINUOUS
 10
5.121160
 20
1.415920
  0
VERTEX
  8
0
  6
CONTINUOUS
 10
5.765760
 20
1.778920
  0
VERTEX
  8
0
  6
CONTINUOUS
 10
5.791720
 20
1.721280
  0
VERTEX
  8
0
  6
CONTINUOUS
 10
5.147120
 20
1.358280
  0
VERTEX
  8
0
  6
CONTINUOUS
 10
5.121160
 20
1.415920
  0
SEQEND
  8
0
  0
SOLID
  8
0
 62
    15
 10
5.147120
 20
1.358280
 11
5.791720
 21
1.721280
 12
5.155040
 22
1.329240
 13
5.800080
 23
1.692240
  0
POLYLINE
  8
0
  6
CONTINUOUS
 66
     1
 40
0.000000
 41
0.000000
  0
VERTEX
  8
0
  6
CONTINUOUS
 10
5.147120
 20
1.358280
  0
VERTEX
  8
0
  6
CONTINUOUS
 10
5.791720
 20
1.721280
  0
VERTEX
  8
0
  6
CONTINUOUS
 10
5.800080
 20
1.692240
  0
VERTEX
  8
0
  6
CONTINUOUS
 10
5.155040
 20
1.329240
  0
VERTEX
  8
0
  6
CONTINUOUS
 10
5.147120
 20
1.358280
  0
SEQEND
  8
0
  0
SOLID
  8
0
 62
    15
 10
5.155040
 20
1.329240
 11
5.800080
 21
1.692240
 12
5.159440
 22
1.300200
 13
5.804480
 23
1.663200
  0
POLYLINE
  8
0
  6
CONTINUOUS
 66
     1
 40
0.000000
 41
0.000000
  0
VERTEX
  8
0
  6
CONTINUOUS
 10
5.155040
 20
1.329240
  0
VERTEX
  8
0
  6
CONTINUOUS
 10
5.800080
 20
1.692240
  0
VERTEX
  8
0
  6
CONTINUOUS
 10
5.804480
 20
1.663200
  0
VERTEX
  8
0
  6
CONTINUOUS
 10
5.159440
 20
1.300200
  0
VERTEX
  8
0
  6
CONTINUOUS
 10
5.155040
 20
1.329240
  0
SEQEND
  8
0
  0
SOLID
  8
0
 62
    15
 10
5.159440
 20
1.300200
 11
5.804480
 21
1.663200
 12
5.159880
 22
1.239480
 13
5.804920
 23
1.602480
  0
POLYLINE
  8
0
  6
CONTINUOUS
 66
     1
 40
0.000000
 41
0.000000
  0
VERTEX
  8
0
  6
CONTINUOUS
 10
5.159440
 20
1.300200
  0
VERTEX
  8
0
  6
CONTINUOUS
 10
5.804480
 20
1.663200
  0
VERTEX
  8
0
  6
CONTINUOUS
 10
5.804920
 20
1.602480
  0
VERTEX
  8
0
  6
CONTINUOUS
 10
5.159880
 20
1.239480
  0
VERTEX
  8
0
  6
CONTINUOUS
 10
5.159440
 20
1.300200
  0
SEQEND
  8
0
  0
SOLID
  8
0
 62
    15
 10
5.159880
 20
1.239480
 11
5.804920
 21
1.602480
 12
5.151080
 22
1.175240
 13
5.795680
 23
1.538240
  0
POLYLINE
  8
0
  6
CONTINUOUS
 66
     1
 40
0.000000
 41
0.000000
  0
VERTEX
  8
0
  6
CONTINUOUS
 10
5.159880
 20
1.239480
  0
VERTEX
  8
0
  6
CONTINUOUS
 10
5.804920
 20
1.602480
  0
VERTEX
  8
0
  6
CONTINUOUS
 10
5.795680
 20
1.538240
  0
VERTEX
  8
0
  6
CONTINUOUS
 10
5.151080
 20
1.175240
  0
VERTEX
  8
0
  6
CONTINUOUS
 10
5.159880
 20
1.239480
  0
SEQEND
  8
0
  0
SOLID
  8
0
 62
    15
 10
5.151080
 20
1.175240
 11
5.795680
 21
1.538240
 12
5.131280
 22
1.111000
 13
5.775880
 23
1.474000
  0
POLYLINE
  8
0
  6
CONTINUOUS
 66
     1
 40
0.000000
 41
0.000000
  0
VERTEX
  8
0
  6
CONTINUOUS
 10
5.151080
 20
1.175240
  0
VERTEX
  8
0
  6
CONTINUOUS
 10
5.795680
 20
1.538240
  0
VERTEX
  8
0
  6
CONTINUOUS
 10
5.775880
 20
1.474000
  0
VERTEX
  8
0
  6
CONTINUOUS
 10
5.131280
 20
1.111000
  0
VERTEX
  8
0
  6
CONTINUOUS
 10
5.151080
 20
1.175240
  0
SEQEND
  8
0
  0
SOLID
  8
0
 62
    15
 10
5.131280
 20
1.111000
 11
5.775880
 21
1.474000
 12
5.099600
 22
1.049840
 13
5.744200
 23
1.412840
  0
POLYLINE
  8
0
  6
CONTINUOUS
 66
     1
 40
0.000000
 41
0.000000
  0
VERTEX
  8
0
  6
CONTINUOUS
 10
5.131280
 20
1.111000
  0
VERTEX
  8
0
  6
CONTINUOUS
 10
5.775880
 20
1.474000
  0
VERTEX
  8
0
  6
CONTINUOUS
 10
5.744200
 20
1.412840
  0
VERTEX
  8
0
  6
CONTINUOUS
 10
5.099600
 20
1.049840
  0
VERTEX
  8
0
  6
CONTINUOUS
 10
5.131280
 20
1.111000
  0
SEQEND
  8
0
  0
SOLID
  8
0
 62
    15
 10
4.828120
 20
0.894520
 11
5.473160
 21
1.257520
 12
4.828120
 22
0.840840
 13
5.473160
 23
1.203400
  0
POLYLINE
  8
0
  6
CONTINUOUS
 66
     1
 40
0.000000
 41
0.000000
  0
VERTEX
  8
0
  6
CONTINUOUS
 10
4.828120
 20
0.894520
  0
VERTEX
  8
0
  6
CONTINUOUS
 10
5.473160
 20
1.257520
  0
VERTEX
  8
0
  6
CONTINUOUS
 10
5.473160
 20
1.203400
  0
VERTEX
  8
0
  6
CONTINUOUS
 10
4.828120
 20
0.840840
  0
VERTEX
  8
0
  6
CONTINUOUS
 10
4.828120
 20
0.894520
  0
SEQEND
  8
0
  0
SOLID
  8
0
 62
    15
 10
5.078920
 20
1.021240
 11
5.723520
 21
1.384240
 12
5.054720
 22
0.994400
 13
5.699320
 23
1.357400
  0
POLYLINE
  8
0
  6
CONTINUOUS
 66
     1
 40
0.000000
 41
0.000000
  0
VERTEX
  8
0
  6
CONTINUOUS
 10
5.078920
 20
1.021240
  0
VERTEX
  8
0
  6
CONTINUOUS
 10
5.723520
 20
1.384240
  0
VERTEX
  8
0
  6
CONTINUOUS
 10
5.699320
 20
1.357400
  0
VERTEX
  8
0
  6
CONTINUOUS
 10
5.054720
 20
0.994400
  0
VERTEX
  8
0
  6
CONTINUOUS
 10
5.078920
 20
1.021240
  0
SEQEND
  8
0
  0
SOLID
  8
0
 62
    15
 10
5.054720
 20
0.994400
 11
5.699320
 21
1.357400
 12
5.027000
 22
0.970200
 13
5.671600
 23
1.333200
  0
POLYLINE
  8
0
  6
CONTINUOUS
 66
     1
 40
0.000000
 41
0.000000
  0
VERTEX
  8
0
  6
CONTINUOUS
 10
5.054720
 20
0.994400
  0
VERTEX
  8
0
  6
CONTINUOUS
 10
5.699320
 20
1.357400
  0
VERTEX
  8
0
  6
CONTINUOUS
 10
5.671600
 20
1.333200
  0
VERTEX
  8
0
  6
CONTINUOUS
 10
5.027000
 20
0.970200
  0
VERTEX
  8
0
  6
CONTINUOUS
 10
5.054720
 20
0.994400
  0
SEQEND
  8
0
  0
SOLID
  8
0
 62
    15
 10
5.027000
 20
0.970200
 11
5.671600
 21
1.333200
 12
4.995320
 22
0.948200
 13
5.640360
 23
1.311200
  0
POLYLINE
  8
0
  6
CONTINUOUS
 66
     1
 40
0.000000
 41
0.000000
  0
VERTEX
  8
0
  6
CONTINUOUS
 10
5.027000
 20
0.970200
  0
VERTEX
  8
0
  6
CONTINUOUS
 10
5.671600
 20
1.333200
  0
VERTEX
  8
0
  6
CONTINUOUS
 10
5.640360
 20
1.311200
  0
VERTEX
  8
0
  6
CONTINUOUS
 10
4.995320
 20
0.948200
  0
VERTEX
  8
0
  6
CONTINUOUS
 10
5.027000
 20
0.970200
  0
SEQEND
  8
0
  0
SOLID
  8
0
 62
    15
 10
5.099600
 20
1.049840
 11
5.744200
 21
1.412840
 12
5.078920
 22
1.021240
 13
5.723520
 23
1.384240
  0
POLYLINE
  8
0
  6
CONTINUOUS
 66
     1
 40
0.000000
 41
0.000000
  0
VERTEX
  8
0
  6
CONTINUOUS
 10
5.099600
 20
1.049840
  0
VERTEX
  8
0
  6
CONTINUOUS
 10
5.744200
 20
1.412840
  0
VERTEX
  8
0
  6
CONTINUOUS
 10
5.723520
 20
1.384240
  0
VERTEX
  8
0
  6
CONTINUOUS
 10
5.078920
 20
1.021240
  0
VERTEX
  8
0
  6
CONTINUOUS
 10
5.099600
 20
1.049840
  0
SEQEND
  8
0
  0
SOLID
  8
0
 62
    15
 10
4.401760
 20
2.629440
 11
5.046360
 21
2.992440
 12
4.405720
 22
2.629440
 13
5.050760
 23
2.992440
  0
POLYLINE
  8
0
  6
CONTINUOUS
 66
     1
 40
0.000000
 41
0.000000
  0
VERTEX
  8
0
  6
CONTINUOUS
 10
4.401760
 20
2.629440
  0
VERTEX
  8
0
  6
CONTINUOUS
 10
5.046360
 20
2.992440
  0
VERTEX
  8
0
  6
CONTINUOUS
 10
5.050760
 20
2.992440
  0
VERTEX
  8
0
  6
CONTINUOUS
 10
4.405720
 20
2.629440
  0
VERTEX
  8
0
  6
CONTINUOUS
 10
4.401760
 20
2.629440
  0
SEQEND
  8
0
  0
POLYLINE
  8
0
  6
CONTINUOUS
 66
     1
 40
0.000000
 41
0.000000
  0
VERTEX
  8
0
  6
CONTINUOUS
 10
4.405720
 20
2.629440
  0
VERTEX
  8
0
  6
CONTINUOUS
 10
4.451040
 20
2.630320
  0
VERTEX
  8
0
  6
CONTINUOUS
 10
4.491960
 20
2.625920
  0
VERTEX
  8
0
  6
CONTINUOUS
 10
4.528920
 20
2.617120
  0
VERTEX
  8
0
  6
CONTINUOUS
 10
4.561920
 20
2.604800
  0
VERTEX
  8
0
  6
CONTINUOUS
 10
4.591400
 20
2.588520
  0
VERTEX
  8
0
  6
CONTINUOUS
 10
4.617360
 20
2.569600
  0
VERTEX
  8
0
  6
CONTINUOUS
 10
4.639800
 20
2.548040
  0
VERTEX
  8
0
  6
CONTINUOUS
 10
4.660040
 20
2.524720
  0
VERTEX
  8
0
  6
CONTINUOUS
 10
4.691280
 20
2.472800
  0
VERTEX
  8
0
  6
CONTINUOUS
 10
4.713720
 20
2.418240
  0
VERTEX
  8
0
  6
CONTINUOUS
 10
4.728240
 20
2.364560
  0
VERTEX
  8
0
  6
CONTINUOUS
 10
4.737040
 20
2.314840
  0
VERTEX
  8
0
  6
CONTINUOUS
 10
4.740120
 20
2.267760
  0
VERTEX
  8
0
  6
CONTINUOUS
 10
4.738800
 20
2.217600
  0
VERTEX
  8
0
  6
CONTINUOUS
 10
4.737480
 20
2.191200
  0
VERTEX
  8
0
  6
CONTINUOUS
 10
4.736160
 20
2.163920
  0
VERTEX
  8
0
  6
CONTINUOUS
 10
4.735720
 20
2.106280
  0
VERTEX
  8
0
  6
CONTINUOUS
 10
4.741000
 20
2.043800
  0
VERTEX
  8
0
  6
CONTINUOUS
 10
4.755520
 20
1.976040
  0
VERTEX
  8
0
  6
CONTINUOUS
 10
4.766960
 20
1.939960
  0
VERTEX
  8
0
  6
CONTINUOUS
 10
4.781920
 20
1.902560
  0
VERTEX
  8
0
  6
CONTINUOUS
 10
4.800840
 20
1.862960
  0
VERTEX
  8
0
  6
CONTINUOUS
 10
4.824160
 20
1.822040
  0
VERTEX
  8
0
  6
CONTINUOUS
 10
4.877400
 20
1.741960
  0
VERTEX
  8
0
  6
CONTINUOUS
 10
4.932400
 20
1.668040
  0
VERTEX
  8
0
  6
CONTINUOUS
 10
4.986960
 20
1.599840
  0
VERTEX
  8
0
  6
CONTINUOUS
 10
5.013360
 20
1.567280
  0
VERTEX
  8
0
  6
CONTINUOUS
 10
5.038440
 20
1.535600
  0
VERTEX
  8
0
  6
CONTINUOUS
 10
5.083760
 20
1.474880
  0
VERTEX
  8
0
  6
CONTINUOUS
 10
5.121160
 20
1.415920
  0
VERTEX
  8
0
  6
CONTINUOUS
 10
5.147120
 20
1.358280
  0
VERTEX
  8
0
  6
CONTINUOUS
 10
5.155040
 20
1.329240
  0
VERTEX
  8
0
  6
CONTINUOUS
 10
5.159440
 20
1.300200
  0
VERTEX
  8
0
  6
CONTINUOUS
 10
5.159880
 20
1.239480
  0
VERTEX
  8
0
  6
CONTINUOUS
 10
5.151080
 20
1.175240
  0
VERTEX
  8
0
  6
CONTINUOUS
 10
5.131280
 20
1.111000
  0
VERTEX
  8
0
  6
CONTINUOUS
 10
5.099600
 20
1.049840
  0
VERTEX
  8
0
  6
CONTINUOUS
 10
5.078920
 20
1.021240
  0
VERTEX
  8
0
  6
CONTINUOUS
 10
5.054720
 20
0.994400
  0
VERTEX
  8
0
  6
CONTINUOUS
 10
5.027000
 20
0.970200
  0
VERTEX
  8
0
  6
CONTINUOUS
 10
4.995320
 20
0.948200
  0
VERTEX
  8
0
  6
CONTINUOUS
 10
4.959680
 20
0.929280
  0
VERTEX
  8
0
  6
CONTINUOUS
 10
4.920520
 20
0.913880
  0
VERTEX
  8
0
  6
CONTINUOUS
 10
4.876520
 20
0.902000
  0
VERTEX
  8
0
  6
CONTINUOUS
 10
4.828120
 20
0.894520
  0
VERTEX
  8
0
  6
CONTINUOUS
 10
4.828120
 20
0.840840
  0
VERTEX
  8
0
  6
CONTINUOUS
 10
4.401760
 20
0.840840
  0
VERTEX
  8
0
  6
CONTINUOUS
 10
4.401760
 20
2.629440
  0
VERTEX
  8
0
  6
CONTINUOUS
 10
4.405720
 20
2.629440
  0
SEQEND
  8
0
  0
TEXT
  8
0
 10
4.807440
 20
0.610280
 40
0.137997
  1
BA  951
 41
1.000000
  7
SN0
 71
     0
 72
     5
 11
5.397613
 21
0.610280
  0
TEXT
  8
0
 10
4.559280
 20
0.418880
 40
0.137997
  1
3/4" x 1-13/16"
 41
1.000000
  7
SN0
 71
     0
 72
     5
 11
5.644551
 21
0.418880
  0
TEXT
  8
0
 10
6.724960
 20
1.164240
 40
0.137997
  1
BA  951
 41
1.000000
  7
SN0
 71
     0
 72
     5
 11
7.315133
 21
1.164240
  0
TEXT
  8
0
 10
6.476800
 20
0.972840
 40
0.137997
  1
3/4" x 1-13/16"
 41
1.000000
  7
SN0
 71
     0
 72
     5
 11
7.562071
 21
0.972840
  0
POLYLINE
  8
0
  6
CONTINUOUS
 66
     1
 40
0.014080
 41
0.014080
  0
VERTEX
  8
0
  6
CONTINUOUS
 10
7.914720
 20
1.423840
  0
VERTEX
  8
0
  6
CONTINUOUS
 10
7.915160
 20
1.469160
  0
VERTEX
  8
0
  6
CONTINUOUS
 10
7.911200
 20
1.510080
  0
VERTEX
  8
0
  6
CONTINUOUS
 10
7.902400
 20
1.546600
  0
VERTEX
  8
0
  6
CONTINUOUS
 10
7.890080
 20
1.579600
  0
VERTEX
  8
0
  6
CONTINUOUS
 10
7.873800
 20
1.609080
  0
VERTEX
  8
0
  6
CONTINUOUS
 10
7.854880
 20
1.635040
  0
VERTEX
  8
0
  6
CONTINUOUS
 10
7.821880
 20
1.668040
  0
VERTEX
  8
0
  6
CONTINUOUS
 10
7.784480
 20
1.694880
  0
VERTEX
  8
0
  6
CONTINUOUS
 10
7.758080
 20
1.709400
  0
VERTEX
  8
0
  6
CONTINUOUS
 10
7.703520
 20
1.731400
  0
VERTEX
  8
0
  6
CONTINUOUS
 10
7.649400
 20
1.746360
  0
VERTEX
  8
0
  6
CONTINUOUS
 10
7.600120
 20
1.755160
  0
VERTEX
  8
0
  6
CONTINUOUS
 10
7.553040
 20
1.758240
  0
VERTEX
  8
0
  6
CONTINUOUS
 10
7.421040
 20
1.753400
  0
VERTEX
  8
0
  6
CONTINUOUS
 10
7.391560
 20
1.753400
  0
VERTEX
  8
0
  6
CONTINUOUS
 10
7.360760
 20
1.755160
  0
VERTEX
  8
0
  6
CONTINUOUS
 10
7.312800
 20
1.761320
  0
VERTEX
  8
0
  6
CONTINUOUS
 10
7.261320
 20
1.772760
  0
VERTEX
  8
0
  6
CONTINUOUS
 10
7.206760
 20
1.791680
  0
VERTEX
  8
0
  6
CONTINUOUS
 10
7.168040
 20
1.808400
  0
VERTEX
  8
0
  6
CONTINUOUS
 10
7.107320
 20
1.841840
  0
VERTEX
  8
0
  6
CONTINUOUS
 10
7.027240
 20
1.895080
  0
VERTEX
  8
0
  6
CONTINUOUS
 10
6.953320
 20
1.950080
  0
VERTEX
  8
0
  6
CONTINUOUS
 10
6.790080
 20
2.079880
  0
VERTEX
  8
0
  6
CONTINUOUS
 10
6.760160
 20
2.101880
  0
VERTEX
  8
0
  6
CONTINUOUS
 10
6.701200
 20
2.138840
  0
VERTEX
  8
0
  6
CONTINUOUS
 10
6.658080
 20
2.159520
  0
VERTEX
  8
0
  6
CONTINUOUS
 10
6.629040
 20
2.169200
  0
VERTEX
  8
0
  6
CONTINUOUS
 10
6.600000
 20
2.175360
  0
VERTEX
  8
0
  6
CONTINUOUS
 10
6.570520
 20
2.178000
  0
VERTEX
  8
0
  6
CONTINUOUS
 10
6.540160
 20
2.178440
  0
VERTEX
  8
0
  6
CONTINUOUS
 10
6.492640
 20
2.174480
  0
VERTEX
  8
0
  6
CONTINUOUS
 10
6.444240
 20
2.164800
  0
VERTEX
  8
0
  6
CONTINUOUS
 10
6.412120
 20
2.155120
  0
VERTEX
  8
0
  6
CONTINUOUS
 10
6.365040
 20
2.134880
  0
VERTEX
  8
0
  6
CONTINUOUS
 10
6.320600
 20
2.107160
  0
VERTEX
  8
0
  6
CONTINUOUS
 10
6.292880
 20
2.085160
  0
VERTEX
  8
0
  6
CONTINUOUS
 10
6.267360
 20
2.059200
  0
VERTEX
  8
0
  6
CONTINUOUS
 10
6.244040
 20
2.029280
  0
VERTEX
  8
0
  6
CONTINUOUS
 10
6.223800
 20
1.995840
  0
VERTEX
  8
0
  6
CONTINUOUS
 10
6.206640
 20
1.958440
  0
VERTEX
  8
0
  6
CONTINUOUS
 10
6.193000
 20
1.916640
  0
VERTEX
  8
0
  6
CONTINUOUS
 10
6.182880
 20
1.870880
  0
VERTEX
  8
0
  6
CONTINUOUS
 10
6.179800
 20
1.846240
  0
VERTEX
  8
0
  6
CONTINUOUS
 10
6.125680
 20
1.846240
  0
VERTEX
  8
0
  6
CONTINUOUS
 10
6.125680
 20
1.419440
  0
VERTEX
  8
0
  6
CONTINUOUS
 10
7.914720
 20
1.419440
  0
VERTEX
  8
0
  6
CONTINUOUS
 10
7.914720
 20
1.423840
  0
SEQEND
  8
0
  0
ENDSEC
  0
EOF
