  0
SECTION
  2
HEADER
  9
$ACADVER
  1
AC1006
  9
$EXTMIN
 10
3.368640
 20
1.088120
  9
$EXTMAX
 10
7.456240
 20
3.450480
  9
$LTSCALE
 40
0.044000
  9
$PDMODE
 70
    35
  9
$PDSIZE
 40
0.035200
  0
ENDSEC
  0
SECTION
  2
TABLES
  0
TABLE
  2
LTYPE
 70
     9
  0
LTYPE
  2
CONTINUOUS
 70
    64
  3
Solid line
 72
    65
 73
     0
 40
0.000000
  0
LTYPE
  2
DASHED
 70
    64
  3
__ __ __ __ __ __ __ __ __ __ __ __ __ __ __
 72
    65
 73
     2
 40
0.000330
 49
0.000220
 49
-0.000110
  0
LTYPE
  2
HIDDEN
 70
    64
  3
 _ _ _ _ _ _ _ _ _ _ _ _ _ _ _ _ _ _ _ _ _ _
 72
    65
 73
     2
 40
0.000165
 49
0.000110
 49
-0.000055
  0
LTYPE
  2
CENTER
 70
    64
  3
____ _ ____ _ ____ _ ____ _ ____ _ ____ _ ____
 72
    65
 73
     4
 40
0.000880
 49
0.000550
 49
-0.000110
 49
0.000110
 49
-0.000110
  0
LTYPE
  2
PHANTOM
 70
    64
  3
_____ _ _ _____ _ _ _____ _ _ _____ _ _ ____
 72
    65
 73
     6
 40
0.001100
 49
0.000550
 49
-0.000110
 49
0.000110
 49
-0.000110
 49
0.000110
 49
-0.000110
  0
LTYPE
  2
DOT
 70
    64
  3
...............................................
 72
    65
 73
     2
 40
0.000110
 49
0.000000
 49
-0.000110
  0
LTYPE
  2
DASHDOT
 70
    64
  3
__ . __ . __ . __ . __ . __ . __ . __ . __ . __
 72
    65
 73
     4
 40
0.000440
 49
0.000220
 49
-0.000110
 49
0.000000
 49
-0.000110
  0
LTYPE
  2
BORDER
 70
    64
  3
__ __ . __ __ . __ __ . __ __ . __ __ . __ __
 72
    65
 73
     6
 40
0.000770
 49
0.000220
 49
-0.000110
 49
0.000220
 49
-0.000110
 49
0.000000
 49
-0.000110
  0
LTYPE
  2
DIVIDE
 70
    64
  3
__ . . __ . . __ . . __ . . __ . . __ . . __
 72
    65
 73
     6
 40
0.000550
 49
0.000220
 49
-0.000110
 49
0.000000
 49
-0.000110
 49
0.000000
 49
-0.000110
  0
LTYPE
  2
DOTDOT
 70
    64
  3
 . .  . .  . .  . .  . .  . . 
 72
    65
 73
     5
 40
0.000242
 49
-0.000110
 49
0.000000
 49
-0.000110
 49
0.000000
 49
-0.000110
  0
ENDTAB
  0
TABLE
  2
STYLE
 70
     2
  0
STYLE
 70
     0
  2
SN0
 40
0.000000
 41
0.000440
 50
0.000000
 71
     0
 42
0.000000
  3
ROMAND
  0
STYLE
 70
    68
  2
SV0
 40
0.000000
 41
0.000440
 50
0.000000
 71
     0
 42
0.000000
  3
ROMAND
  0
ENDTAB
  0
TABLE
  2
LAYER
 70
     3
  0
LAYER
  2
FOREGROUND
 70
    64
 62
     7
  6
CONTINUOUS
  0
LAYER
  2
BACKGROUND
 70
    65
 62
    -7
  6
CONTINUOUS
  0
LAYER
  2
0
 70
    64
 62
     7
  6
CONTINUOUS
  0
ENDTAB
  0
ENDSEC
  0
SECTION
  2
ENTITIES
  0
POLYLINE
  8
FOREGROUND
  6
CONTINUOUS
 66
     1
 40
0.000000
 41
0.000000
  0
VERTEX
  8
FOREGROUND
  6
CONTINUOUS
 10
0.000000
 20
4.538600
  0
VERTEX
  8
FOREGROUND
  6
CONTINUOUS
 10
8.499920
 20
4.538600
  0
VERTEX
  8
FOREGROUND
  6
CONTINUOUS
 10
8.499920
 20
-6.461400
  0
VERTEX
  8
FOREGROUND
  6
CONTINUOUS
 10
0.000000
 20
-6.461400
  0
VERTEX
  8
FOREGROUND
  6
CONTINUOUS
 10
0.000000
 20
4.538600
  0
SEQEND
  8
0
  0
POLYLINE
  8
FOREGROUND
  6
CONTINUOUS
 66
     1
 40
0.000000
 41
0.000000
  0
VERTEX
  8
FOREGROUND
  6
CONTINUOUS
 10
0.000000
 20
4.538600
  0
VERTEX
  8
FOREGROUND
  6
CONTINUOUS
 10
8.499920
 20
4.538600
  0
VERTEX
  8
FOREGROUND
  6
CONTINUOUS
 10
8.499920
 20
-6.461400
  0
VERTEX
  8
FOREGROUND
  6
CONTINUOUS
 10
0.000000
 20
-6.461400
  0
VERTEX
  8
FOREGROUND
  6
CONTINUOUS
 10
0.000000
 20
4.538600
  0
SEQEND
  8
0
  0
SOLID
  8
0
 62
    15
 10
4.265800
 20
2.939640
 11
4.918320
 21
2.565200
 12
4.246440
 22
2.911040
 13
4.898960
 23
2.536600
  0
POLYLINE
  8
0
  6
CONTINUOUS
 66
     1
 40
0.000000
 41
0.000000
  0
VERTEX
  8
0
  6
CONTINUOUS
 10
4.265800
 20
2.939640
  0
VERTEX
  8
0
  6
CONTINUOUS
 10
4.918320
 20
2.565200
  0
VERTEX
  8
0
  6
CONTINUOUS
 10
4.898960
 20
2.536600
  0
VERTEX
  8
0
  6
CONTINUOUS
 10
4.246440
 20
2.911040
  0
VERTEX
  8
0
  6
CONTINUOUS
 10
4.265800
 20
2.939640
  0
SEQEND
  8
0
  0
SOLID
  8
0
 62
     7
 10
4.550920
 20
3.403840
 11
5.203440
 21
3.028960
 12
4.560160
 22
3.355440
 13
5.212680
 23
2.981000
  0
POLYLINE
  8
0
  6
CONTINUOUS
 66
     1
 40
0.000000
 41
0.000000
  0
VERTEX
  8
0
  6
CONTINUOUS
 10
4.550920
 20
3.403840
  0
VERTEX
  8
0
  6
CONTINUOUS
 10
5.203440
 20
3.028960
  0
VERTEX
  8
0
  6
CONTINUOUS
 10
5.212680
 20
2.981000
  0
VERTEX
  8
0
  6
CONTINUOUS
 10
4.560160
 20
3.355440
  0
VERTEX
  8
0
  6
CONTINUOUS
 10
4.550920
 20
3.403840
  0
SEQEND
  8
0
  0
SOLID
  8
0
 62
     7
 10
4.560160
 20
3.355440
 11
5.212680
 21
2.981000
 12
4.560600
 22
3.307480
 13
5.213120
 23
2.932600
  0
POLYLINE
  8
0
  6
CONTINUOUS
 66
     1
 40
0.000000
 41
0.000000
  0
VERTEX
  8
0
  6
CONTINUOUS
 10
4.560160
 20
3.355440
  0
VERTEX
  8
0
  6
CONTINUOUS
 10
5.212680
 20
2.981000
  0
VERTEX
  8
0
  6
CONTINUOUS
 10
5.213120
 20
2.932600
  0
VERTEX
  8
0
  6
CONTINUOUS
 10
4.560600
 20
3.307480
  0
VERTEX
  8
0
  6
CONTINUOUS
 10
4.560160
 20
3.355440
  0
SEQEND
  8
0
  0
SOLID
  8
0
 62
     7
 10
4.560600
 20
3.307480
 11
5.213120
 21
2.932600
 12
4.554000
 22
3.261280
 13
5.206080
 23
2.886400
  0
POLYLINE
  8
0
  6
CONTINUOUS
 66
     1
 40
0.000000
 41
0.000000
  0
VERTEX
  8
0
  6
CONTINUOUS
 10
4.560600
 20
3.307480
  0
VERTEX
  8
0
  6
CONTINUOUS
 10
5.213120
 20
2.932600
  0
VERTEX
  8
0
  6
CONTINUOUS
 10
5.206080
 20
2.886400
  0
VERTEX
  8
0
  6
CONTINUOUS
 10
4.554000
 20
3.261280
  0
VERTEX
  8
0
  6
CONTINUOUS
 10
4.560600
 20
3.307480
  0
SEQEND
  8
0
  0
SOLID
  8
0
 62
    15
 10
4.554000
 20
3.261280
 11
5.206080
 21
2.886400
 12
4.539920
 22
3.219040
 13
5.192000
 23
2.844600
  0
POLYLINE
  8
0
  6
CONTINUOUS
 66
     1
 40
0.000000
 41
0.000000
  0
VERTEX
  8
0
  6
CONTINUOUS
 10
4.554000
 20
3.261280
  0
VERTEX
  8
0
  6
CONTINUOUS
 10
5.206080
 20
2.886400
  0
VERTEX
  8
0
  6
CONTINUOUS
 10
5.192000
 20
2.844600
  0
VERTEX
  8
0
  6
CONTINUOUS
 10
4.539920
 20
3.219040
  0
VERTEX
  8
0
  6
CONTINUOUS
 10
4.554000
 20
3.261280
  0
SEQEND
  8
0
  0
SOLID
  8
0
 62
    15
 10
4.539920
 20
3.219040
 11
5.192000
 21
2.844600
 12
4.519240
 22
3.182960
 13
5.171760
 23
2.808080
  0
POLYLINE
  8
0
  6
CONTINUOUS
 66
     1
 40
0.000000
 41
0.000000
  0
VERTEX
  8
0
  6
CONTINUOUS
 10
4.539920
 20
3.219040
  0
VERTEX
  8
0
  6
CONTINUOUS
 10
5.192000
 20
2.844600
  0
VERTEX
  8
0
  6
CONTINUOUS
 10
5.171760
 20
2.808080
  0
VERTEX
  8
0
  6
CONTINUOUS
 10
4.519240
 20
3.182960
  0
VERTEX
  8
0
  6
CONTINUOUS
 10
4.539920
 20
3.219040
  0
SEQEND
  8
0
  0
SOLID
  8
0
 62
    15
 10
4.519240
 20
3.182960
 11
5.171760
 21
2.808080
 12
4.493280
 22
3.154800
 13
5.145800
 23
2.779920
  0
POLYLINE
  8
0
  6
CONTINUOUS
 66
     1
 40
0.000000
 41
0.000000
  0
VERTEX
  8
0
  6
CONTINUOUS
 10
4.519240
 20
3.182960
  0
VERTEX
  8
0
  6
CONTINUOUS
 10
5.171760
 20
2.808080
  0
VERTEX
  8
0
  6
CONTINUOUS
 10
5.145800
 20
2.779920
  0
VERTEX
  8
0
  6
CONTINUOUS
 10
4.493280
 20
3.154800
  0
VERTEX
  8
0
  6
CONTINUOUS
 10
4.519240
 20
3.182960
  0
SEQEND
  8
0
  0
SOLID
  8
0
 62
    15
 10
4.493280
 20
3.154800
 11
5.145800
 21
2.779920
 12
4.462480
 22
3.136320
 13
5.115000
 23
2.761880
  0
POLYLINE
  8
0
  6
CONTINUOUS
 66
     1
 40
0.000000
 41
0.000000
  0
VERTEX
  8
0
  6
CONTINUOUS
 10
4.493280
 20
3.154800
  0
VERTEX
  8
0
  6
CONTINUOUS
 10
5.145800
 20
2.779920
  0
VERTEX
  8
0
  6
CONTINUOUS
 10
5.115000
 20
2.761880
  0
VERTEX
  8
0
  6
CONTINUOUS
 10
4.462480
 20
3.136320
  0
VERTEX
  8
0
  6
CONTINUOUS
 10
4.493280
 20
3.154800
  0
SEQEND
  8
0
  0
SOLID
  8
0
 62
    15
 10
4.462480
 20
3.136320
 11
5.115000
 21
2.761880
 12
4.432120
 22
3.126200
 13
5.084640
 23
2.751760
  0
POLYLINE
  8
0
  6
CONTINUOUS
 66
     1
 40
0.000000
 41
0.000000
  0
VERTEX
  8
0
  6
CONTINUOUS
 10
4.462480
 20
3.136320
  0
VERTEX
  8
0
  6
CONTINUOUS
 10
5.115000
 20
2.761880
  0
VERTEX
  8
0
  6
CONTINUOUS
 10
5.084640
 20
2.751760
  0
VERTEX
  8
0
  6
CONTINUOUS
 10
4.432120
 20
3.126200
  0
VERTEX
  8
0
  6
CONTINUOUS
 10
4.462480
 20
3.136320
  0
SEQEND
  8
0
  0
SOLID
  8
0
 62
    15
 10
4.432120
 20
3.126200
 11
5.084640
 21
2.751760
 12
4.406600
 22
3.120040
 13
5.059120
 23
2.745600
  0
POLYLINE
  8
0
  6
CONTINUOUS
 66
     1
 40
0.000000
 41
0.000000
  0
VERTEX
  8
0
  6
CONTINUOUS
 10
4.432120
 20
3.126200
  0
VERTEX
  8
0
  6
CONTINUOUS
 10
5.084640
 20
2.751760
  0
VERTEX
  8
0
  6
CONTINUOUS
 10
5.059120
 20
2.745600
  0
VERTEX
  8
0
  6
CONTINUOUS
 10
4.406600
 20
3.120040
  0
VERTEX
  8
0
  6
CONTINUOUS
 10
4.432120
 20
3.126200
  0
SEQEND
  8
0
  0
SOLID
  8
0
 62
    15
 10
4.406600
 20
3.120040
 11
5.059120
 21
2.745600
 12
4.367440
 22
3.113000
 13
5.019960
 23
2.738120
  0
POLYLINE
  8
0
  6
CONTINUOUS
 66
     1
 40
0.000000
 41
0.000000
  0
VERTEX
  8
0
  6
CONTINUOUS
 10
4.406600
 20
3.120040
  0
VERTEX
  8
0
  6
CONTINUOUS
 10
5.059120
 20
2.745600
  0
VERTEX
  8
0
  6
CONTINUOUS
 10
5.019960
 20
2.738120
  0
VERTEX
  8
0
  6
CONTINUOUS
 10
4.367440
 20
3.113000
  0
VERTEX
  8
0
  6
CONTINUOUS
 10
4.406600
 20
3.120040
  0
SEQEND
  8
0
  0
SOLID
  8
0
 62
    15
 10
4.367440
 20
3.113000
 11
5.019960
 21
2.738120
 12
4.337960
 22
3.101560
 13
4.990480
 23
2.727120
  0
POLYLINE
  8
0
  6
CONTINUOUS
 66
     1
 40
0.000000
 41
0.000000
  0
VERTEX
  8
0
  6
CONTINUOUS
 10
4.367440
 20
3.113000
  0
VERTEX
  8
0
  6
CONTINUOUS
 10
5.019960
 20
2.738120
  0
VERTEX
  8
0
  6
CONTINUOUS
 10
4.990480
 20
2.727120
  0
VERTEX
  8
0
  6
CONTINUOUS
 10
4.337960
 20
3.101560
  0
VERTEX
  8
0
  6
CONTINUOUS
 10
4.367440
 20
3.113000
  0
SEQEND
  8
0
  0
SOLID
  8
0
 62
    15
 10
4.337960
 20
3.101560
 11
4.990480
 21
2.727120
 12
4.324760
 22
3.090120
 13
4.976840
 23
2.715240
  0
POLYLINE
  8
0
  6
CONTINUOUS
 66
     1
 40
0.000000
 41
0.000000
  0
VERTEX
  8
0
  6
CONTINUOUS
 10
4.337960
 20
3.101560
  0
VERTEX
  8
0
  6
CONTINUOUS
 10
4.990480
 20
2.727120
  0
VERTEX
  8
0
  6
CONTINUOUS
 10
4.976840
 20
2.715240
  0
VERTEX
  8
0
  6
CONTINUOUS
 10
4.324760
 20
3.090120
  0
VERTEX
  8
0
  6
CONTINUOUS
 10
4.337960
 20
3.101560
  0
SEQEND
  8
0
  0
SOLID
  8
0
 62
    15
 10
4.324760
 20
3.090120
 11
4.976840
 21
2.715240
 12
4.311120
 22
3.072520
 13
4.963200
 23
2.698080
  0
POLYLINE
  8
0
  6
CONTINUOUS
 66
     1
 40
0.000000
 41
0.000000
  0
VERTEX
  8
0
  6
CONTINUOUS
 10
4.324760
 20
3.090120
  0
VERTEX
  8
0
  6
CONTINUOUS
 10
4.976840
 20
2.715240
  0
VERTEX
  8
0
  6
CONTINUOUS
 10
4.963200
 20
2.698080
  0
VERTEX
  8
0
  6
CONTINUOUS
 10
4.311120
 20
3.072520
  0
VERTEX
  8
0
  6
CONTINUOUS
 10
4.324760
 20
3.090120
  0
SEQEND
  8
0
  0
SOLID
  8
0
 62
    15
 10
4.311120
 20
3.072520
 11
4.963200
 21
2.698080
 12
4.296600
 22
3.052720
 13
4.949120
 23
2.678280
  0
POLYLINE
  8
0
  6
CONTINUOUS
 66
     1
 40
0.000000
 41
0.000000
  0
VERTEX
  8
0
  6
CONTINUOUS
 10
4.311120
 20
3.072520
  0
VERTEX
  8
0
  6
CONTINUOUS
 10
4.963200
 20
2.698080
  0
VERTEX
  8
0
  6
CONTINUOUS
 10
4.949120
 20
2.678280
  0
VERTEX
  8
0
  6
CONTINUOUS
 10
4.296600
 20
3.052720
  0
VERTEX
  8
0
  6
CONTINUOUS
 10
4.311120
 20
3.072520
  0
SEQEND
  8
0
  0
SOLID
  8
0
 62
    15
 10
4.296600
 20
3.052720
 11
4.949120
 21
2.678280
 12
4.288680
 22
3.028080
 13
4.940760
 23
2.653640
  0
POLYLINE
  8
0
  6
CONTINUOUS
 66
     1
 40
0.000000
 41
0.000000
  0
VERTEX
  8
0
  6
CONTINUOUS
 10
4.296600
 20
3.052720
  0
VERTEX
  8
0
  6
CONTINUOUS
 10
4.949120
 20
2.678280
  0
VERTEX
  8
0
  6
CONTINUOUS
 10
4.940760
 20
2.653640
  0
VERTEX
  8
0
  6
CONTINUOUS
 10
4.288680
 20
3.028080
  0
VERTEX
  8
0
  6
CONTINUOUS
 10
4.296600
 20
3.052720
  0
SEQEND
  8
0
  0
SOLID
  8
0
 62
     7
 10
4.288680
 20
3.028080
 11
4.940760
 21
2.653640
 12
4.285600
 22
3.014440
 13
4.938120
 23
2.639560
  0
POLYLINE
  8
0
  6
CONTINUOUS
 66
     1
 40
0.000000
 41
0.000000
  0
VERTEX
  8
0
  6
CONTINUOUS
 10
4.288680
 20
3.028080
  0
VERTEX
  8
0
  6
CONTINUOUS
 10
4.940760
 20
2.653640
  0
VERTEX
  8
0
  6
CONTINUOUS
 10
4.938120
 20
2.639560
  0
VERTEX
  8
0
  6
CONTINUOUS
 10
4.285600
 20
3.014440
  0
VERTEX
  8
0
  6
CONTINUOUS
 10
4.288680
 20
3.028080
  0
SEQEND
  8
0
  0
SOLID
  8
0
 62
     7
 10
4.285600
 20
3.014440
 11
4.938120
 21
2.639560
 12
4.282960
 22
2.999920
 13
4.935480
 23
2.625040
  0
POLYLINE
  8
0
  6
CONTINUOUS
 66
     1
 40
0.000000
 41
0.000000
  0
VERTEX
  8
0
  6
CONTINUOUS
 10
4.285600
 20
3.014440
  0
VERTEX
  8
0
  6
CONTINUOUS
 10
4.938120
 20
2.639560
  0
VERTEX
  8
0
  6
CONTINUOUS
 10
4.935480
 20
2.625040
  0
VERTEX
  8
0
  6
CONTINUOUS
 10
4.282960
 20
2.999920
  0
VERTEX
  8
0
  6
CONTINUOUS
 10
4.285600
 20
3.014440
  0
SEQEND
  8
0
  0
SOLID
  8
0
 62
     7
 10
4.282960
 20
2.999920
 11
4.935480
 21
2.625040
 12
4.276800
 22
2.970000
 13
4.928880
 23
2.595120
  0
POLYLINE
  8
0
  6
CONTINUOUS
 66
     1
 40
0.000000
 41
0.000000
  0
VERTEX
  8
0
  6
CONTINUOUS
 10
4.282960
 20
2.999920
  0
VERTEX
  8
0
  6
CONTINUOUS
 10
4.935480
 20
2.625040
  0
VERTEX
  8
0
  6
CONTINUOUS
 10
4.928880
 20
2.595120
  0
VERTEX
  8
0
  6
CONTINUOUS
 10
4.276800
 20
2.970000
  0
VERTEX
  8
0
  6
CONTINUOUS
 10
4.282960
 20
2.999920
  0
SEQEND
  8
0
  0
SOLID
  8
0
 62
    15
 10
4.276800
 20
2.970000
 11
4.928880
 21
2.595120
 12
4.265800
 22
2.939640
 13
4.918320
 23
2.565200
  0
POLYLINE
  8
0
  6
CONTINUOUS
 66
     1
 40
0.000000
 41
0.000000
  0
VERTEX
  8
0
  6
CONTINUOUS
 10
4.276800
 20
2.970000
  0
VERTEX
  8
0
  6
CONTINUOUS
 10
4.928880
 20
2.595120
  0
VERTEX
  8
0
  6
CONTINUOUS
 10
4.918320
 20
2.565200
  0
VERTEX
  8
0
  6
CONTINUOUS
 10
4.265800
 20
2.939640
  0
VERTEX
  8
0
  6
CONTINUOUS
 10
4.276800
 20
2.970000
  0
SEQEND
  8
0
  0
SOLID
  8
0
 62
     7
 10
4.532880
 20
3.450040
 11
5.184960
 21
3.075160
 12
4.550920
 22
3.403840
 13
5.203440
 23
3.028960
  0
POLYLINE
  8
0
  6
CONTINUOUS
 66
     1
 40
0.000000
 41
0.000000
  0
VERTEX
  8
0
  6
CONTINUOUS
 10
4.532880
 20
3.450040
  0
VERTEX
  8
0
  6
CONTINUOUS
 10
5.184960
 20
3.075160
  0
VERTEX
  8
0
  6
CONTINUOUS
 10
5.203440
 20
3.028960
  0
VERTEX
  8
0
  6
CONTINUOUS
 10
4.550920
 20
3.403840
  0
VERTEX
  8
0
  6
CONTINUOUS
 10
4.532880
 20
3.450040
  0
SEQEND
  8
0
  0
SOLID
  8
0
 62
    15
 10
4.246440
 20
2.911040
 11
4.898960
 21
2.536600
 12
4.215640
 22
2.885960
 13
4.868160
 23
2.511520
  0
POLYLINE
  8
0
  6
CONTINUOUS
 66
     1
 40
0.000000
 41
0.000000
  0
VERTEX
  8
0
  6
CONTINUOUS
 10
4.246440
 20
2.911040
  0
VERTEX
  8
0
  6
CONTINUOUS
 10
4.898960
 20
2.536600
  0
VERTEX
  8
0
  6
CONTINUOUS
 10
4.868160
 20
2.511520
  0
VERTEX
  8
0
  6
CONTINUOUS
 10
4.215640
 20
2.885960
  0
VERTEX
  8
0
  6
CONTINUOUS
 10
4.246440
 20
2.911040
  0
SEQEND
  8
0
  0
SOLID
  8
0
 62
    15
 10
4.215640
 20
2.885960
 11
4.868160
 21
2.511520
 12
4.169440
 22
2.866160
 13
4.821520
 23
2.491720
  0
POLYLINE
  8
0
  6
CONTINUOUS
 66
     1
 40
0.000000
 41
0.000000
  0
VERTEX
  8
0
  6
CONTINUOUS
 10
4.215640
 20
2.885960
  0
VERTEX
  8
0
  6
CONTINUOUS
 10
4.868160
 20
2.511520
  0
VERTEX
  8
0
  6
CONTINUOUS
 10
4.821520
 20
2.491720
  0
VERTEX
  8
0
  6
CONTINUOUS
 10
4.169440
 20
2.866160
  0
VERTEX
  8
0
  6
CONTINUOUS
 10
4.215640
 20
2.885960
  0
SEQEND
  8
0
  0
SOLID
  8
0
 62
     7
 10
4.169440
 20
2.866160
 11
4.821520
 21
2.491720
 12
4.169440
 22
2.665960
 13
4.821520
 23
2.291520
  0
POLYLINE
  8
0
  6
CONTINUOUS
 66
     1
 40
0.000000
 41
0.000000
  0
VERTEX
  8
0
  6
CONTINUOUS
 10
4.169440
 20
2.866160
  0
VERTEX
  8
0
  6
CONTINUOUS
 10
4.821520
 20
2.491720
  0
VERTEX
  8
0
  6
CONTINUOUS
 10
4.821520
 20
2.291520
  0
VERTEX
  8
0
  6
CONTINUOUS
 10
4.169440
 20
2.665960
  0
VERTEX
  8
0
  6
CONTINUOUS
 10
4.169440
 20
2.866160
  0
SEQEND
  8
0
  0
SOLID
  8
0
 62
    15
 10
4.169440
 20
2.665960
 11
4.821520
 21
2.291520
 12
4.008840
 22
2.665960
 13
4.661360
 23
2.291520
  0
POLYLINE
  8
0
  6
CONTINUOUS
 66
     1
 40
0.000000
 41
0.000000
  0
VERTEX
  8
0
  6
CONTINUOUS
 10
4.169440
 20
2.665960
  0
VERTEX
  8
0
  6
CONTINUOUS
 10
4.821520
 20
2.291520
  0
VERTEX
  8
0
  6
CONTINUOUS
 10
4.661360
 20
2.291520
  0
VERTEX
  8
0
  6
CONTINUOUS
 10
4.008840
 20
2.665960
  0
VERTEX
  8
0
  6
CONTINUOUS
 10
4.169440
 20
2.665960
  0
SEQEND
  8
0
  0
SOLID
  8
0
 62
     7
 10
4.008840
 20
2.665960
 11
4.661360
 21
2.291520
 12
4.011480
 22
2.573120
 13
4.664000
 23
2.198240
  0
POLYLINE
  8
0
  6
CONTINUOUS
 66
     1
 40
0.000000
 41
0.000000
  0
VERTEX
  8
0
  6
CONTINUOUS
 10
4.008840
 20
2.665960
  0
VERTEX
  8
0
  6
CONTINUOUS
 10
4.661360
 20
2.291520
  0
VERTEX
  8
0
  6
CONTINUOUS
 10
4.664000
 20
2.198240
  0
VERTEX
  8
0
  6
CONTINUOUS
 10
4.011480
 20
2.573120
  0
VERTEX
  8
0
  6
CONTINUOUS
 10
4.008840
 20
2.665960
  0
SEQEND
  8
0
  0
SOLID
  8
0
 62
     7
 10
4.011480
 20
2.573120
 11
4.664000
 21
2.198240
 12
4.009720
 22
2.481600
 13
4.662240
 23
2.106720
  0
POLYLINE
  8
0
  6
CONTINUOUS
 66
     1
 40
0.000000
 41
0.000000
  0
VERTEX
  8
0
  6
CONTINUOUS
 10
4.011480
 20
2.573120
  0
VERTEX
  8
0
  6
CONTINUOUS
 10
4.664000
 20
2.198240
  0
VERTEX
  8
0
  6
CONTINUOUS
 10
4.662240
 20
2.106720
  0
VERTEX
  8
0
  6
CONTINUOUS
 10
4.009720
 20
2.481600
  0
VERTEX
  8
0
  6
CONTINUOUS
 10
4.011480
 20
2.573120
  0
SEQEND
  8
0
  0
SOLID
  8
0
 62
     7
 10
4.009720
 20
2.481600
 11
4.662240
 21
2.106720
 12
3.998280
 22
2.393160
 13
4.650800
 23
2.018720
  0
POLYLINE
  8
0
  6
CONTINUOUS
 66
     1
 40
0.000000
 41
0.000000
  0
VERTEX
  8
0
  6
CONTINUOUS
 10
4.009720
 20
2.481600
  0
VERTEX
  8
0
  6
CONTINUOUS
 10
4.662240
 20
2.106720
  0
VERTEX
  8
0
  6
CONTINUOUS
 10
4.650800
 20
2.018720
  0
VERTEX
  8
0
  6
CONTINUOUS
 10
3.998280
 20
2.393160
  0
VERTEX
  8
0
  6
CONTINUOUS
 10
4.009720
 20
2.481600
  0
SEQEND
  8
0
  0
SOLID
  8
0
 62
    15
 10
3.998280
 20
2.393160
 11
4.650800
 21
2.018720
 12
3.972760
 22
2.310440
 13
4.625280
 23
1.936000
  0
POLYLINE
  8
0
  6
CONTINUOUS
 66
     1
 40
0.000000
 41
0.000000
  0
VERTEX
  8
0
  6
CONTINUOUS
 10
3.998280
 20
2.393160
  0
VERTEX
  8
0
  6
CONTINUOUS
 10
4.650800
 20
2.018720
  0
VERTEX
  8
0
  6
CONTINUOUS
 10
4.625280
 20
1.936000
  0
VERTEX
  8
0
  6
CONTINUOUS
 10
3.972760
 20
2.310440
  0
VERTEX
  8
0
  6
CONTINUOUS
 10
3.998280
 20
2.393160
  0
SEQEND
  8
0
  0
SOLID
  8
0
 62
    15
 10
3.972760
 20
2.310440
 11
4.625280
 21
1.936000
 12
3.953400
 22
2.271720
 13
4.605480
 23
1.896840
  0
POLYLINE
  8
0
  6
CONTINUOUS
 66
     1
 40
0.000000
 41
0.000000
  0
VERTEX
  8
0
  6
CONTINUOUS
 10
3.972760
 20
2.310440
  0
VERTEX
  8
0
  6
CONTINUOUS
 10
4.625280
 20
1.936000
  0
VERTEX
  8
0
  6
CONTINUOUS
 10
4.605480
 20
1.896840
  0
VERTEX
  8
0
  6
CONTINUOUS
 10
3.953400
 20
2.271720
  0
VERTEX
  8
0
  6
CONTINUOUS
 10
3.972760
 20
2.310440
  0
SEQEND
  8
0
  0
SOLID
  8
0
 62
    15
 10
3.953400
 20
2.271720
 11
4.605480
 21
1.896840
 12
3.928320
 22
2.234760
 13
4.580840
 23
1.860320
  0
POLYLINE
  8
0
  6
CONTINUOUS
 66
     1
 40
0.000000
 41
0.000000
  0
VERTEX
  8
0
  6
CONTINUOUS
 10
3.953400
 20
2.271720
  0
VERTEX
  8
0
  6
CONTINUOUS
 10
4.605480
 20
1.896840
  0
VERTEX
  8
0
  6
CONTINUOUS
 10
4.580840
 20
1.860320
  0
VERTEX
  8
0
  6
CONTINUOUS
 10
3.928320
 20
2.234760
  0
VERTEX
  8
0
  6
CONTINUOUS
 10
3.953400
 20
2.271720
  0
SEQEND
  8
0
  0
SOLID
  8
0
 62
    15
 10
3.928320
 20
2.234760
 11
4.580840
 21
1.860320
 12
3.897520
 22
2.200000
 13
4.550040
 23
1.825560
  0
POLYLINE
  8
0
  6
CONTINUOUS
 66
     1
 40
0.000000
 41
0.000000
  0
VERTEX
  8
0
  6
CONTINUOUS
 10
3.928320
 20
2.234760
  0
VERTEX
  8
0
  6
CONTINUOUS
 10
4.580840
 20
1.860320
  0
VERTEX
  8
0
  6
CONTINUOUS
 10
4.550040
 20
1.825560
  0
VERTEX
  8
0
  6
CONTINUOUS
 10
3.897520
 20
2.200000
  0
VERTEX
  8
0
  6
CONTINUOUS
 10
3.928320
 20
2.234760
  0
SEQEND
  8
0
  0
SOLID
  8
0
 62
    15
 10
3.897520
 20
2.200000
 11
4.550040
 21
1.825560
 12
3.860120
 22
2.167880
 13
4.512640
 23
1.793440
  0
POLYLINE
  8
0
  6
CONTINUOUS
 66
     1
 40
0.000000
 41
0.000000
  0
VERTEX
  8
0
  6
CONTINUOUS
 10
3.897520
 20
2.200000
  0
VERTEX
  8
0
  6
CONTINUOUS
 10
4.550040
 20
1.825560
  0
VERTEX
  8
0
  6
CONTINUOUS
 10
4.512640
 20
1.793440
  0
VERTEX
  8
0
  6
CONTINUOUS
 10
3.860120
 20
2.167880
  0
VERTEX
  8
0
  6
CONTINUOUS
 10
3.897520
 20
2.200000
  0
SEQEND
  8
0
  0
SOLID
  8
0
 62
    15
 10
3.860120
 20
2.167880
 11
4.512640
 21
1.793440
 12
3.815680
 22
2.138400
 13
4.468200
 23
1.763960
  0
POLYLINE
  8
0
  6
CONTINUOUS
 66
     1
 40
0.000000
 41
0.000000
  0
VERTEX
  8
0
  6
CONTINUOUS
 10
3.860120
 20
2.167880
  0
VERTEX
  8
0
  6
CONTINUOUS
 10
4.512640
 20
1.793440
  0
VERTEX
  8
0
  6
CONTINUOUS
 10
4.468200
 20
1.763960
  0
VERTEX
  8
0
  6
CONTINUOUS
 10
3.815680
 20
2.138400
  0
VERTEX
  8
0
  6
CONTINUOUS
 10
3.860120
 20
2.167880
  0
SEQEND
  8
0
  0
SOLID
  8
0
 62
    15
 10
3.815680
 20
2.138400
 11
4.468200
 21
1.763960
 12
3.763320
 22
2.112000
 13
4.415840
 23
1.737560
  0
POLYLINE
  8
0
  6
CONTINUOUS
 66
     1
 40
0.000000
 41
0.000000
  0
VERTEX
  8
0
  6
CONTINUOUS
 10
3.815680
 20
2.138400
  0
VERTEX
  8
0
  6
CONTINUOUS
 10
4.468200
 20
1.763960
  0
VERTEX
  8
0
  6
CONTINUOUS
 10
4.415840
 20
1.737560
  0
VERTEX
  8
0
  6
CONTINUOUS
 10
3.763320
 20
2.112000
  0
VERTEX
  8
0
  6
CONTINUOUS
 10
3.815680
 20
2.138400
  0
SEQEND
  8
0
  0
SOLID
  8
0
 62
    15
 10
3.763320
 20
2.112000
 11
4.415840
 21
1.737560
 12
3.703040
 22
2.089120
 13
4.355560
 23
1.714240
  0
POLYLINE
  8
0
  6
CONTINUOUS
 66
     1
 40
0.000000
 41
0.000000
  0
VERTEX
  8
0
  6
CONTINUOUS
 10
3.763320
 20
2.112000
  0
VERTEX
  8
0
  6
CONTINUOUS
 10
4.415840
 20
1.737560
  0
VERTEX
  8
0
  6
CONTINUOUS
 10
4.355560
 20
1.714240
  0
VERTEX
  8
0
  6
CONTINUOUS
 10
3.703040
 20
2.089120
  0
VERTEX
  8
0
  6
CONTINUOUS
 10
3.763320
 20
2.112000
  0
SEQEND
  8
0
  0
SOLID
  8
0
 62
    15
 10
3.703040
 20
2.089120
 11
4.355560
 21
1.714240
 12
3.633520
 22
2.068880
 13
4.286040
 23
1.694440
  0
POLYLINE
  8
0
  6
CONTINUOUS
 66
     1
 40
0.000000
 41
0.000000
  0
VERTEX
  8
0
  6
CONTINUOUS
 10
3.703040
 20
2.089120
  0
VERTEX
  8
0
  6
CONTINUOUS
 10
4.355560
 20
1.714240
  0
VERTEX
  8
0
  6
CONTINUOUS
 10
4.286040
 20
1.694440
  0
VERTEX
  8
0
  6
CONTINUOUS
 10
3.633520
 20
2.068880
  0
VERTEX
  8
0
  6
CONTINUOUS
 10
3.703040
 20
2.089120
  0
SEQEND
  8
0
  0
SOLID
  8
0
 62
     7
 10
3.633520
 20
2.068880
 11
4.286040
 21
1.694440
 12
3.633520
 22
1.911360
 13
4.286040
 23
1.536920
  0
POLYLINE
  8
0
  6
CONTINUOUS
 66
     1
 40
0.000000
 41
0.000000
  0
VERTEX
  8
0
  6
CONTINUOUS
 10
3.633520
 20
2.068880
  0
VERTEX
  8
0
  6
CONTINUOUS
 10
4.286040
 20
1.694440
  0
VERTEX
  8
0
  6
CONTINUOUS
 10
4.286040
 20
1.536920
  0
VERTEX
  8
0
  6
CONTINUOUS
 10
3.633520
 20
1.911360
  0
VERTEX
  8
0
  6
CONTINUOUS
 10
3.633520
 20
2.068880
  0
SEQEND
  8
0
  0
SOLID
  8
0
 62
    15
 10
3.633520
 20
1.911360
 11
4.286040
 21
1.536920
 12
3.381840
 22
1.911360
 13
4.034360
 23
1.536920
  0
POLYLINE
  8
0
  6
CONTINUOUS
 66
     1
 40
0.000000
 41
0.000000
  0
VERTEX
  8
0
  6
CONTINUOUS
 10
3.633520
 20
1.911360
  0
VERTEX
  8
0
  6
CONTINUOUS
 10
4.286040
 20
1.536920
  0
VERTEX
  8
0
  6
CONTINUOUS
 10
4.034360
 20
1.536920
  0
VERTEX
  8
0
  6
CONTINUOUS
 10
3.381840
 20
1.911360
  0
VERTEX
  8
0
  6
CONTINUOUS
 10
3.633520
 20
1.911360
  0
SEQEND
  8
0
  0
SOLID
  8
0
 62
    15
 10
3.381840
 20
1.911360
 11
4.034360
 21
1.536920
 12
3.369520
 22
1.911360
 13
4.022040
 23
1.536920
  0
POLYLINE
  8
0
  6
CONTINUOUS
 66
     1
 40
0.000000
 41
0.000000
  0
VERTEX
  8
0
  6
CONTINUOUS
 10
3.381840
 20
1.911360
  0
VERTEX
  8
0
  6
CONTINUOUS
 10
4.034360
 20
1.536920
  0
VERTEX
  8
0
  6
CONTINUOUS
 10
4.022040
 20
1.536920
  0
VERTEX
  8
0
  6
CONTINUOUS
 10
3.369520
 20
1.911360
  0
VERTEX
  8
0
  6
CONTINUOUS
 10
3.381840
 20
1.911360
  0
SEQEND
  8
0
  0
POLYLINE
  8
0
  6
CONTINUOUS
 66
     1
 40
0.000000
 41
0.000000
  0
VERTEX
  8
0
  6
CONTINUOUS
 10
3.369520
 20
1.911360
  0
VERTEX
  8
0
  6
CONTINUOUS
 10
3.369520
 20
3.450040
  0
VERTEX
  8
0
  6
CONTINUOUS
 10
4.532880
 20
3.450040
  0
VERTEX
  8
0
  6
CONTINUOUS
 10
4.550920
 20
3.403840
  0
VERTEX
  8
0
  6
CONTINUOUS
 10
4.560160
 20
3.355440
  0
VERTEX
  8
0
  6
CONTINUOUS
 10
4.560600
 20
3.307480
  0
VERTEX
  8
0
  6
CONTINUOUS
 10
4.554000
 20
3.261280
  0
VERTEX
  8
0
  6
CONTINUOUS
 10
4.539920
 20
3.219040
  0
VERTEX
  8
0
  6
CONTINUOUS
 10
4.519240
 20
3.182960
  0
VERTEX
  8
0
  6
CONTINUOUS
 10
4.493280
 20
3.154800
  0
VERTEX
  8
0
  6
CONTINUOUS
 10
4.462480
 20
3.136320
  0
VERTEX
  8
0
  6
CONTINUOUS
 10
4.432120
 20
3.126200
  0
VERTEX
  8
0
  6
CONTINUOUS
 10
4.406600
 20
3.120040
  0
VERTEX
  8
0
  6
CONTINUOUS
 10
4.367440
 20
3.113000
  0
VERTEX
  8
0
  6
CONTINUOUS
 10
4.337960
 20
3.101560
  0
VERTEX
  8
0
  6
CONTINUOUS
 10
4.324760
 20
3.090120
  0
VERTEX
  8
0
  6
CONTINUOUS
 10
4.311120
 20
3.072520
  0
VERTEX
  8
0
  6
CONTINUOUS
 10
4.296600
 20
3.052720
  0
VERTEX
  8
0
  6
CONTINUOUS
 10
4.288680
 20
3.028080
  0
VERTEX
  8
0
  6
CONTINUOUS
 10
4.285600
 20
3.014440
  0
VERTEX
  8
0
  6
CONTINUOUS
 10
4.282960
 20
2.999920
  0
VERTEX
  8
0
  6
CONTINUOUS
 10
4.276800
 20
2.970000
  0
VERTEX
  8
0
  6
CONTINUOUS
 10
4.265800
 20
2.939640
  0
VERTEX
  8
0
  6
CONTINUOUS
 10
4.246440
 20
2.911040
  0
VERTEX
  8
0
  6
CONTINUOUS
 10
4.215640
 20
2.885960
  0
VERTEX
  8
0
  6
CONTINUOUS
 10
4.169440
 20
2.866160
  0
VERTEX
  8
0
  6
CONTINUOUS
 10
4.169440
 20
2.665960
  0
VERTEX
  8
0
  6
CONTINUOUS
 10
4.008840
 20
2.665960
  0
VERTEX
  8
0
  6
CONTINUOUS
 10
4.011480
 20
2.573120
  0
VERTEX
  8
0
  6
CONTINUOUS
 10
4.009720
 20
2.481600
  0
VERTEX
  8
0
  6
CONTINUOUS
 10
3.998280
 20
2.393160
  0
VERTEX
  8
0
  6
CONTINUOUS
 10
3.972760
 20
2.310440
  0
VERTEX
  8
0
  6
CONTINUOUS
 10
3.953400
 20
2.271720
  0
VERTEX
  8
0
  6
CONTINUOUS
 10
3.928320
 20
2.234760
  0
VERTEX
  8
0
  6
CONTINUOUS
 10
3.897520
 20
2.200000
  0
VERTEX
  8
0
  6
CONTINUOUS
 10
3.860120
 20
2.167880
  0
VERTEX
  8
0
  6
CONTINUOUS
 10
3.815680
 20
2.138400
  0
VERTEX
  8
0
  6
CONTINUOUS
 10
3.763320
 20
2.112000
  0
VERTEX
  8
0
  6
CONTINUOUS
 10
3.703040
 20
2.089120
  0
VERTEX
  8
0
  6
CONTINUOUS
 10
3.633520
 20
2.068880
  0
VERTEX
  8
0
  6
CONTINUOUS
 10
3.633520
 20
1.911360
  0
VERTEX
  8
0
  6
CONTINUOUS
 10
3.381840
 20
1.911360
  0
VERTEX
  8
0
  6
CONTINUOUS
 10
3.369520
 20
1.911360
  0
SEQEND
  8
0
  0
TEXT
  8
0
 10
3.996080
 20
1.327040
 40
0.138081
  1
BA  950
 41
1.000000
  7
SN0
 71
     0
 72
     5
 11
4.585716
 21
1.327040
  0
TEXT
  8
0
 10
3.720200
 20
1.135200
 40
0.138081
  1
1-3/16" x 1-1/2"
 41
1.000000
  7
SN0
 71
     0
 72
     5
 11
4.859005
 21
1.135200
  0
POLYLINE
  8
0
  6
CONTINUOUS
 66
     1
 40
0.014080
 41
0.014080
  0
VERTEX
  8
0
  6
CONTINUOUS
 10
5.679520
 20
1.859000
  0
VERTEX
  8
0
  6
CONTINUOUS
 10
5.672040
 20
1.859000
  0
VERTEX
  8
0
  6
CONTINUOUS
 10
5.930760
 20
1.859000
  0
VERTEX
  8
0
  6
CONTINUOUS
 10
5.930760
 20
2.016520
  0
VERTEX
  8
0
  6
CONTINUOUS
 10
6.000280
 20
2.036320
  0
VERTEX
  8
0
  6
CONTINUOUS
 10
6.061000
 20
2.059640
  0
VERTEX
  8
0
  6
CONTINUOUS
 10
6.112920
 20
2.086040
  0
VERTEX
  8
0
  6
CONTINUOUS
 10
6.157800
 20
2.115520
  0
VERTEX
  8
0
  6
CONTINUOUS
 10
6.194760
 20
2.147640
  0
VERTEX
  8
0
  6
CONTINUOUS
 10
6.226000
 20
2.182400
  0
VERTEX
  8
0
  6
CONTINUOUS
 10
6.250640
 20
2.218920
  0
VERTEX
  8
0
  6
CONTINUOUS
 10
6.270440
 20
2.258080
  0
VERTEX
  8
0
  6
CONTINUOUS
 10
6.284960
 20
2.298560
  0
VERTEX
  8
0
  6
CONTINUOUS
 10
6.295520
 20
2.340800
  0
VERTEX
  8
0
  6
CONTINUOUS
 10
6.303000
 20
2.384360
  0
VERTEX
  8
0
  6
CONTINUOUS
 10
6.306960
 20
2.428800
  0
VERTEX
  8
0
  6
CONTINUOUS
 10
6.308720
 20
2.474560
  0
VERTEX
  8
0
  6
CONTINUOUS
 10
6.308720
 20
2.520320
  0
VERTEX
  8
0
  6
CONTINUOUS
 10
6.306080
 20
2.613600
  0
VERTEX
  8
0
  6
CONTINUOUS
 10
6.466680
 20
2.613600
  0
VERTEX
  8
0
  6
CONTINUOUS
 10
6.466680
 20
2.813800
  0
VERTEX
  8
0
  6
CONTINUOUS
 10
6.502760
 20
2.828320
  0
VERTEX
  8
0
  6
CONTINUOUS
 10
6.522120
 20
2.839760
  0
VERTEX
  8
0
  6
CONTINUOUS
 10
6.543680
 20
2.858680
  0
VERTEX
  8
0
  6
CONTINUOUS
 10
6.554680
 20
2.872760
  0
VERTEX
  8
0
  6
CONTINUOUS
 10
6.563040
 20
2.887280
  0
VERTEX
  8
0
  6
CONTINUOUS
 10
6.574040
 20
2.917200
  0
VERTEX
  8
0
  6
CONTINUOUS
 10
6.589440
 20
2.988480
  0
VERTEX
  8
0
  6
CONTINUOUS
 10
6.593840
 20
3.000360
  0
VERTEX
  8
0
  6
CONTINUOUS
 10
6.603960
 20
3.015760
  0
VERTEX
  8
0
  6
CONTINUOUS
 10
6.628600
 20
3.043920
  0
VERTEX
  8
0
  6
CONTINUOUS
 10
6.642240
 20
3.053160
  0
VERTEX
  8
0
  6
CONTINUOUS
 10
6.656760
 20
3.058880
  0
VERTEX
  8
0
  6
CONTINUOUS
 10
6.716160
 20
3.070320
  0
VERTEX
  8
0
  6
CONTINUOUS
 10
6.759720
 20
3.083960
  0
VERTEX
  8
0
  6
CONTINUOUS
 10
6.783480
 20
3.096720
  0
VERTEX
  8
0
  6
CONTINUOUS
 10
6.804600
 20
3.115200
  0
VERTEX
  8
0
  6
CONTINUOUS
 10
6.816920
 20
3.130600
  0
VERTEX
  8
0
  6
CONTINUOUS
 10
6.827920
 20
3.147760
  0
VERTEX
  8
0
  6
CONTINUOUS
 10
6.845080
 20
3.186920
  0
VERTEX
  8
0
  6
CONTINUOUS
 10
6.851240
 20
3.208920
  0
VERTEX
  8
0
  6
CONTINUOUS
 10
6.855640
 20
3.231360
  0
VERTEX
  8
0
  6
CONTINUOUS
 10
6.858280
 20
3.255120
  0
VERTEX
  8
0
  6
CONTINUOUS
 10
6.858720
 20
3.278880
  0
VERTEX
  8
0
  6
CONTINUOUS
 10
6.857400
 20
3.303080
  0
VERTEX
  8
0
  6
CONTINUOUS
 10
6.853880
 20
3.327280
  0
VERTEX
  8
0
  6
CONTINUOUS
 10
6.848160
 20
3.351480
  0
VERTEX
  8
0
  6
CONTINUOUS
 10
6.835400
 20
3.386240
  0
VERTEX
  8
0
  6
CONTINUOUS
 10
6.830120
 20
3.397680
  0
VERTEX
  8
0
  6
CONTINUOUS
 10
5.666760
 20
3.397680
  0
VERTEX
  8
0
  6
CONTINUOUS
 10
5.666760
 20
1.859000
  0
VERTEX
  8
0
  6
CONTINUOUS
 10
5.679520
 20
1.859000
  0
SEQEND
  8
0
  0
TEXT
  8
0
 10
6.470640
 20
2.071520
 40
0.138081
  1
BA  950
 41
1.000000
  7
SN0
 71
     0
 72
     5
 11
7.060276
 21
2.071520
  0
TEXT
  8
0
 10
6.195200
 20
1.880120
 40
0.138081
  1
1-3/16" x 1-1/2"
 41
1.000000
  7
SN0
 71
     0
 72
     5
 11
7.334005
 21
1.880120
  0
ENDSEC
  0
EOF
