  0
SECTION
  2
HEADER
  9
$ACADVER
  1
AC1006
  9
$EXTMIN
 10
5.818560
 20
0.452320
  9
$EXTMAX
 10
8.157600
 20
1.984840
  9
$LTSCALE
 40
0.044000
  9
$PDMODE
 70
    35
  9
$PDSIZE
 40
0.035200
  0
ENDSEC
  0
SECTION
  2
TABLES
  0
TABLE
  2
LTYPE
 70
     9
  0
LTYPE
  2
CONTINUOUS
 70
    64
  3
Solid line
 72
    65
 73
     0
 40
0.000000
  0
LTYPE
  2
DASHED
 70
    64
  3
__ __ __ __ __ __ __ __ __ __ __ __ __ __ __
 72
    65
 73
     2
 40
0.000330
 49
0.000220
 49
-0.000110
  0
LTYPE
  2
HIDDEN
 70
    64
  3
 _ _ _ _ _ _ _ _ _ _ _ _ _ _ _ _ _ _ _ _ _ _
 72
    65
 73
     2
 40
0.000165
 49
0.000110
 49
-0.000055
  0
LTYPE
  2
CENTER
 70
    64
  3
____ _ ____ _ ____ _ ____ _ ____ _ ____ _ ____
 72
    65
 73
     4
 40
0.000880
 49
0.000550
 49
-0.000110
 49
0.000110
 49
-0.000110
  0
LTYPE
  2
PHANTOM
 70
    64
  3
_____ _ _ _____ _ _ _____ _ _ _____ _ _ ____
 72
    65
 73
     6
 40
0.001100
 49
0.000550
 49
-0.000110
 49
0.000110
 49
-0.000110
 49
0.000110
 49
-0.000110
  0
LTYPE
  2
DOT
 70
    64
  3
...............................................
 72
    65
 73
     2
 40
0.000110
 49
0.000000
 49
-0.000110
  0
LTYPE
  2
DASHDOT
 70
    64
  3
__ . __ . __ . __ . __ . __ . __ . __ . __ . __
 72
    65
 73
     4
 40
0.000440
 49
0.000220
 49
-0.000110
 49
0.000000
 49
-0.000110
  0
LTYPE
  2
BORDER
 70
    64
  3
__ __ . __ __ . __ __ . __ __ . __ __ . __ __
 72
    65
 73
     6
 40
0.000770
 49
0.000220
 49
-0.000110
 49
0.000220
 49
-0.000110
 49
0.000000
 49
-0.000110
  0
LTYPE
  2
DIVIDE
 70
    64
  3
__ . . __ . . __ . . __ . . __ . . __ . . __
 72
    65
 73
     6
 40
0.000550
 49
0.000220
 49
-0.000110
 49
0.000000
 49
-0.000110
 49
0.000000
 49
-0.000110
  0
LTYPE
  2
DOTDOT
 70
    64
  3
 . .  . .  . .  . .  . .  . . 
 72
    65
 73
     5
 40
0.000242
 49
-0.000110
 49
0.000000
 49
-0.000110
 49
0.000000
 49
-0.000110
  0
ENDTAB
  0
TABLE
  2
STYLE
 70
     2
  0
STYLE
 70
     0
  2
SN0
 40
0.000000
 41
0.000440
 50
0.000000
 71
     0
 42
0.000000
  3
ROMAND
  0
STYLE
 70
    68
  2
SV0
 40
0.000000
 41
0.000440
 50
0.000000
 71
     0
 42
0.000000
  3
ROMAND
  0
ENDTAB
  0
TABLE
  2
LAYER
 70
     3
  0
LAYER
  2
FOREGROUND
 70
    64
 62
     7
  6
CONTINUOUS
  0
LAYER
  2
BACKGROUND
 70
    65
 62
    -7
  6
CONTINUOUS
  0
LAYER
  2
0
 70
    64
 62
     7
  6
CONTINUOUS
  0
ENDTAB
  0
ENDSEC
  0
SECTION
  2
ENTITIES
  0
POLYLINE
  8
FOREGROUND
  6
CONTINUOUS
 66
     1
 40
0.000000
 41
0.000000
  0
VERTEX
  8
FOREGROUND
  6
CONTINUOUS
 10
0.000000
 20
2.437160
  0
VERTEX
  8
FOREGROUND
  6
CONTINUOUS
 10
8.499920
 20
2.437160
  0
VERTEX
  8
FOREGROUND
  6
CONTINUOUS
 10
8.499920
 20
-8.562840
  0
VERTEX
  8
FOREGROUND
  6
CONTINUOUS
 10
0.000000
 20
-8.562840
  0
VERTEX
  8
FOREGROUND
  6
CONTINUOUS
 10
0.000000
 20
2.437160
  0
SEQEND
  8
0
  0
POLYLINE
  8
FOREGROUND
  6
CONTINUOUS
 66
     1
 40
0.000000
 41
0.000000
  0
VERTEX
  8
FOREGROUND
  6
CONTINUOUS
 10
0.000000
 20
2.437160
  0
VERTEX
  8
FOREGROUND
  6
CONTINUOUS
 10
8.499920
 20
2.437160
  0
VERTEX
  8
FOREGROUND
  6
CONTINUOUS
 10
8.499920
 20
-8.562840
  0
VERTEX
  8
FOREGROUND
  6
CONTINUOUS
 10
0.000000
 20
-8.562840
  0
VERTEX
  8
FOREGROUND
  6
CONTINUOUS
 10
0.000000
 20
2.437160
  0
SEQEND
  8
0
  0
SOLID
  8
0
 62
    15
 10
6.256360
 20
1.055120
 11
6.900960
 21
1.423400
 12
6.264280
 22
1.034000
 13
6.908880
 23
1.402720
  0
POLYLINE
  8
0
  6
CONTINUOUS
 66
     1
 40
0.000000
 41
0.000000
  0
VERTEX
  8
0
  6
CONTINUOUS
 10
6.256360
 20
1.055120
  0
VERTEX
  8
0
  6
CONTINUOUS
 10
6.900960
 20
1.423400
  0
VERTEX
  8
0
  6
CONTINUOUS
 10
6.908880
 20
1.402720
  0
VERTEX
  8
0
  6
CONTINUOUS
 10
6.264280
 20
1.034000
  0
VERTEX
  8
0
  6
CONTINUOUS
 10
6.256360
 20
1.055120
  0
SEQEND
  8
0
  0
SOLID
  8
0
 62
    15
 10
5.888080
 20
1.615680
 11
6.532680
 21
1.983960
 12
5.913600
 22
1.610840
 13
6.558640
 23
1.979120
  0
POLYLINE
  8
0
  6
CONTINUOUS
 66
     1
 40
0.000000
 41
0.000000
  0
VERTEX
  8
0
  6
CONTINUOUS
 10
5.888080
 20
1.615680
  0
VERTEX
  8
0
  6
CONTINUOUS
 10
6.532680
 20
1.983960
  0
VERTEX
  8
0
  6
CONTINUOUS
 10
6.558640
 20
1.979120
  0
VERTEX
  8
0
  6
CONTINUOUS
 10
5.913600
 20
1.610840
  0
VERTEX
  8
0
  6
CONTINUOUS
 10
5.888080
 20
1.615680
  0
SEQEND
  8
0
  0
SOLID
  8
0
 62
    15
 10
5.913600
 20
1.610840
 11
6.558640
 21
1.979120
 12
5.936920
 22
1.600280
 13
6.581960
 23
1.968560
  0
POLYLINE
  8
0
  6
CONTINUOUS
 66
     1
 40
0.000000
 41
0.000000
  0
VERTEX
  8
0
  6
CONTINUOUS
 10
5.913600
 20
1.610840
  0
VERTEX
  8
0
  6
CONTINUOUS
 10
6.558640
 20
1.979120
  0
VERTEX
  8
0
  6
CONTINUOUS
 10
6.581960
 20
1.968560
  0
VERTEX
  8
0
  6
CONTINUOUS
 10
5.936920
 20
1.600280
  0
VERTEX
  8
0
  6
CONTINUOUS
 10
5.913600
 20
1.610840
  0
SEQEND
  8
0
  0
SOLID
  8
0
 62
    15
 10
5.936920
 20
1.600280
 11
6.581960
 21
1.968560
 12
5.956720
 22
1.583560
 13
6.601320
 23
1.951840
  0
POLYLINE
  8
0
  6
CONTINUOUS
 66
     1
 40
0.000000
 41
0.000000
  0
VERTEX
  8
0
  6
CONTINUOUS
 10
5.936920
 20
1.600280
  0
VERTEX
  8
0
  6
CONTINUOUS
 10
6.581960
 20
1.968560
  0
VERTEX
  8
0
  6
CONTINUOUS
 10
6.601320
 20
1.951840
  0
VERTEX
  8
0
  6
CONTINUOUS
 10
5.956720
 20
1.583560
  0
VERTEX
  8
0
  6
CONTINUOUS
 10
5.936920
 20
1.600280
  0
SEQEND
  8
0
  0
SOLID
  8
0
 62
    15
 10
5.956720
 20
1.583560
 11
6.601320
 21
1.951840
 12
5.971680
 22
1.561120
 13
6.616720
 23
1.929400
  0
POLYLINE
  8
0
  6
CONTINUOUS
 66
     1
 40
0.000000
 41
0.000000
  0
VERTEX
  8
0
  6
CONTINUOUS
 10
5.956720
 20
1.583560
  0
VERTEX
  8
0
  6
CONTINUOUS
 10
6.601320
 20
1.951840
  0
VERTEX
  8
0
  6
CONTINUOUS
 10
6.616720
 20
1.929400
  0
VERTEX
  8
0
  6
CONTINUOUS
 10
5.971680
 20
1.561120
  0
VERTEX
  8
0
  6
CONTINUOUS
 10
5.956720
 20
1.583560
  0
SEQEND
  8
0
  0
SOLID
  8
0
 62
    15
 10
5.971680
 20
1.561120
 11
6.616720
 21
1.929400
 12
6.256360
 22
1.055120
 13
6.900960
 23
1.423400
  0
POLYLINE
  8
0
  6
CONTINUOUS
 66
     1
 40
0.000000
 41
0.000000
  0
VERTEX
  8
0
  6
CONTINUOUS
 10
5.971680
 20
1.561120
  0
VERTEX
  8
0
  6
CONTINUOUS
 10
6.616720
 20
1.929400
  0
VERTEX
  8
0
  6
CONTINUOUS
 10
6.900960
 20
1.423400
  0
VERTEX
  8
0
  6
CONTINUOUS
 10
6.256360
 20
1.055120
  0
VERTEX
  8
0
  6
CONTINUOUS
 10
5.971680
 20
1.561120
  0
SEQEND
  8
0
  0
SOLID
  8
0
 62
    15
 10
5.819000
 20
1.615680
 11
6.463600
 21
1.983960
 12
5.888080
 22
1.615680
 13
6.532680
 23
1.983960
  0
POLYLINE
  8
0
  6
CONTINUOUS
 66
     1
 40
0.000000
 41
0.000000
  0
VERTEX
  8
0
  6
CONTINUOUS
 10
5.819000
 20
1.615680
  0
VERTEX
  8
0
  6
CONTINUOUS
 10
6.463600
 20
1.983960
  0
VERTEX
  8
0
  6
CONTINUOUS
 10
6.532680
 20
1.983960
  0
VERTEX
  8
0
  6
CONTINUOUS
 10
5.888080
 20
1.615680
  0
VERTEX
  8
0
  6
CONTINUOUS
 10
5.819000
 20
1.615680
  0
SEQEND
  8
0
  0
SOLID
  8
0
 62
    15
 10
6.264280
 20
1.034000
 11
6.908880
 21
1.402720
 12
6.266480
 22
1.012000
 13
6.911520
 23
1.380280
  0
POLYLINE
  8
0
  6
CONTINUOUS
 66
     1
 40
0.000000
 41
0.000000
  0
VERTEX
  8
0
  6
CONTINUOUS
 10
6.264280
 20
1.034000
  0
VERTEX
  8
0
  6
CONTINUOUS
 10
6.908880
 20
1.402720
  0
VERTEX
  8
0
  6
CONTINUOUS
 10
6.911520
 20
1.380280
  0
VERTEX
  8
0
  6
CONTINUOUS
 10
6.266480
 20
1.012000
  0
VERTEX
  8
0
  6
CONTINUOUS
 10
6.264280
 20
1.034000
  0
SEQEND
  8
0
  0
SOLID
  8
0
 62
    15
 10
6.266480
 20
1.012000
 11
6.911520
 21
1.380280
 12
6.263400
 22
0.989560
 13
6.908000
 23
1.357840
  0
POLYLINE
  8
0
  6
CONTINUOUS
 66
     1
 40
0.000000
 41
0.000000
  0
VERTEX
  8
0
  6
CONTINUOUS
 10
6.266480
 20
1.012000
  0
VERTEX
  8
0
  6
CONTINUOUS
 10
6.911520
 20
1.380280
  0
VERTEX
  8
0
  6
CONTINUOUS
 10
6.908000
 20
1.357840
  0
VERTEX
  8
0
  6
CONTINUOUS
 10
6.263400
 20
0.989560
  0
VERTEX
  8
0
  6
CONTINUOUS
 10
6.266480
 20
1.012000
  0
SEQEND
  8
0
  0
SOLID
  8
0
 62
    15
 10
6.263400
 20
0.989560
 11
6.908000
 21
1.357840
 12
6.254600
 22
0.968440
 13
6.899640
 23
1.336720
  0
POLYLINE
  8
0
  6
CONTINUOUS
 66
     1
 40
0.000000
 41
0.000000
  0
VERTEX
  8
0
  6
CONTINUOUS
 10
6.263400
 20
0.989560
  0
VERTEX
  8
0
  6
CONTINUOUS
 10
6.908000
 20
1.357840
  0
VERTEX
  8
0
  6
CONTINUOUS
 10
6.899640
 20
1.336720
  0
VERTEX
  8
0
  6
CONTINUOUS
 10
6.254600
 20
0.968440
  0
VERTEX
  8
0
  6
CONTINUOUS
 10
6.263400
 20
0.989560
  0
SEQEND
  8
0
  0
SOLID
  8
0
 62
    15
 10
6.254600
 20
0.968440
 11
6.899640
 21
1.336720
 12
6.240520
 22
0.949520
 13
6.885560
 23
1.318240
  0
POLYLINE
  8
0
  6
CONTINUOUS
 66
     1
 40
0.000000
 41
0.000000
  0
VERTEX
  8
0
  6
CONTINUOUS
 10
6.254600
 20
0.968440
  0
VERTEX
  8
0
  6
CONTINUOUS
 10
6.899640
 20
1.336720
  0
VERTEX
  8
0
  6
CONTINUOUS
 10
6.885560
 20
1.318240
  0
VERTEX
  8
0
  6
CONTINUOUS
 10
6.240520
 20
0.949520
  0
VERTEX
  8
0
  6
CONTINUOUS
 10
6.254600
 20
0.968440
  0
SEQEND
  8
0
  0
SOLID
  8
0
 62
    15
 10
6.240520
 20
0.949520
 11
6.885560
 21
1.318240
 12
6.221600
 22
0.934560
 13
6.866200
 23
1.303280
  0
POLYLINE
  8
0
  6
CONTINUOUS
 66
     1
 40
0.000000
 41
0.000000
  0
VERTEX
  8
0
  6
CONTINUOUS
 10
6.240520
 20
0.949520
  0
VERTEX
  8
0
  6
CONTINUOUS
 10
6.885560
 20
1.318240
  0
VERTEX
  8
0
  6
CONTINUOUS
 10
6.866200
 20
1.303280
  0
VERTEX
  8
0
  6
CONTINUOUS
 10
6.221600
 20
0.934560
  0
VERTEX
  8
0
  6
CONTINUOUS
 10
6.240520
 20
0.949520
  0
SEQEND
  8
0
  0
POLYLINE
  8
0
  6
CONTINUOUS
 66
     1
 40
0.000000
 41
0.000000
  0
VERTEX
  8
0
  6
CONTINUOUS
 10
6.166160
 20
0.920920
  0
VERTEX
  8
0
  6
CONTINUOUS
 10
5.819000
 20
0.920920
  0
VERTEX
  8
0
  6
CONTINUOUS
 10
5.819000
 20
1.615680
  0
VERTEX
  8
0
  6
CONTINUOUS
 10
5.888080
 20
1.615680
  0
VERTEX
  8
0
  6
CONTINUOUS
 10
5.913600
 20
1.610840
  0
VERTEX
  8
0
  6
CONTINUOUS
 10
5.936920
 20
1.600280
  0
VERTEX
  8
0
  6
CONTINUOUS
 10
5.956720
 20
1.583560
  0
VERTEX
  8
0
  6
CONTINUOUS
 10
5.971680
 20
1.561120
  0
VERTEX
  8
0
  6
CONTINUOUS
 10
6.256360
 20
1.055120
  0
VERTEX
  8
0
  6
CONTINUOUS
 10
6.264280
 20
1.034000
  0
VERTEX
  8
0
  6
CONTINUOUS
 10
6.266480
 20
1.012000
  0
VERTEX
  8
0
  6
CONTINUOUS
 10
6.263400
 20
0.989560
  0
VERTEX
  8
0
  6
CONTINUOUS
 10
6.254600
 20
0.968440
  0
VERTEX
  8
0
  6
CONTINUOUS
 10
6.240520
 20
0.949520
  0
VERTEX
  8
0
  6
CONTINUOUS
 10
6.221600
 20
0.934560
  0
VERTEX
  8
0
  6
CONTINUOUS
 10
6.197400
 20
0.924880
  0
VERTEX
  8
0
  6
CONTINUOUS
 10
6.183320
 20
0.921800
  0
VERTEX
  8
0
  6
CONTINUOUS
 10
6.168360
 20
0.920920
  0
VERTEX
  8
0
  6
CONTINUOUS
 10
6.166160
 20
0.920920
  0
SEQEND
  8
0
  0
TEXT
  8
0
 10
6.069800
 20
0.686840
 40
0.138086
  1
BA  948
 41
1.000000
  7
SN0
 71
     0
 72
     5
 11
6.659589
 21
0.686840
  0
TEXT
  8
0
 10
5.941760
 20
0.495440
 40
0.138086
  1
7/16" x 3/4"
 41
1.000000
  7
SN0
 71
     0
 72
     5
 11
6.786621
 21
0.495440
  0
POLYLINE
  8
0
  6
CONTINUOUS
 66
     1
 40
0.014080
 41
0.014080
  0
VERTEX
  8
0
  6
CONTINUOUS
 10
7.289040
 20
1.588400
  0
VERTEX
  8
0
  6
CONTINUOUS
 10
7.289040
 20
1.241240
  0
VERTEX
  8
0
  6
CONTINUOUS
 10
7.983800
 20
1.241240
  0
VERTEX
  8
0
  6
CONTINUOUS
 10
7.983800
 20
1.310320
  0
VERTEX
  8
0
  6
CONTINUOUS
 10
7.982040
 20
1.323520
  0
VERTEX
  8
0
  6
CONTINUOUS
 10
7.978960
 20
1.336280
  0
VERTEX
  8
0
  6
CONTINUOUS
 10
7.974560
 20
1.348160
  0
VERTEX
  8
0
  6
CONTINUOUS
 10
7.968400
 20
1.359160
  0
VERTEX
  8
0
  6
CONTINUOUS
 10
7.960480
 20
1.369720
  0
VERTEX
  8
0
  6
CONTINUOUS
 10
7.951680
 20
1.378960
  0
VERTEX
  8
0
  6
CONTINUOUS
 10
7.941120
 20
1.386880
  0
VERTEX
  8
0
  6
CONTINUOUS
 10
7.929240
 20
1.393920
  0
VERTEX
  8
0
  6
CONTINUOUS
 10
7.423240
 20
1.678600
  0
VERTEX
  8
0
  6
CONTINUOUS
 10
7.413120
 20
1.683440
  0
VERTEX
  8
0
  6
CONTINUOUS
 10
7.402560
 20
1.686520
  0
VERTEX
  8
0
  6
CONTINUOUS
 10
7.391560
 20
1.688280
  0
VERTEX
  8
0
  6
CONTINUOUS
 10
7.380120
 20
1.688720
  0
VERTEX
  8
0
  6
CONTINUOUS
 10
7.369120
 20
1.687840
  0
VERTEX
  8
0
  6
CONTINUOUS
 10
7.357680
 20
1.685640
  0
VERTEX
  8
0
  6
CONTINUOUS
 10
7.347120
 20
1.681680
  0
VERTEX
  8
0
  6
CONTINUOUS
 10
7.336560
 20
1.676840
  0
VERTEX
  8
0
  6
CONTINUOUS
 10
7.326880
 20
1.670680
  0
VERTEX
  8
0
  6
CONTINUOUS
 10
7.317640
 20
1.662760
  0
VERTEX
  8
0
  6
CONTINUOUS
 10
7.309720
 20
1.653960
  0
VERTEX
  8
0
  6
CONTINUOUS
 10
7.302680
 20
1.643840
  0
VERTEX
  8
0
  6
CONTINUOUS
 10
7.296960
 20
1.632400
  0
VERTEX
  8
0
  6
CONTINUOUS
 10
7.292560
 20
1.619640
  0
VERTEX
  8
0
  6
CONTINUOUS
 10
7.289920
 20
1.605560
  0
VERTEX
  8
0
  6
CONTINUOUS
 10
7.289040
 20
1.590600
  0
VERTEX
  8
0
  6
CONTINUOUS
 10
7.289040
 20
1.588400
  0
SEQEND
  8
0
  0
TEXT
  8
0
 10
7.498040
 20
0.975920
 40
0.138086
  1
948
 41
1.000000
  7
SN0
 71
     0
 72
     5
 11
7.774865
 21
0.975920
  0
TEXT
  8
0
 10
7.212920
 20
0.784080
 40
0.138086
  1
7/16" x 3/4"
 41
1.000000
  7
SN0
 71
     0
 72
     5
 11
8.057781
 21
0.784080
  0
ENDSEC
  0
EOF
