  0
SECTION
  2
HEADER
  9
$ACADVER
  1
AC1006
  9
$EXTMIN
 10
5.222800
 20
0.450560
  9
$EXTMAX
 10
7.828920
 20
2.266440
  9
$LTSCALE
 40
0.044000
  9
$PDMODE
 70
    35
  9
$PDSIZE
 40
0.035200
  0
ENDSEC
  0
SECTION
  2
TABLES
  0
TABLE
  2
LTYPE
 70
     9
  0
LTYPE
  2
CONTINUOUS
 70
    64
  3
Solid line
 72
    65
 73
     0
 40
0.000000
  0
LTYPE
  2
DASHED
 70
    64
  3
__ __ __ __ __ __ __ __ __ __ __ __ __ __ __
 72
    65
 73
     2
 40
0.000330
 49
0.000220
 49
-0.000110
  0
LTYPE
  2
HIDDEN
 70
    64
  3
 _ _ _ _ _ _ _ _ _ _ _ _ _ _ _ _ _ _ _ _ _ _
 72
    65
 73
     2
 40
0.000165
 49
0.000110
 49
-0.000055
  0
LTYPE
  2
CENTER
 70
    64
  3
____ _ ____ _ ____ _ ____ _ ____ _ ____ _ ____
 72
    65
 73
     4
 40
0.000880
 49
0.000550
 49
-0.000110
 49
0.000110
 49
-0.000110
  0
LTYPE
  2
PHANTOM
 70
    64
  3
_____ _ _ _____ _ _ _____ _ _ _____ _ _ ____
 72
    65
 73
     6
 40
0.001100
 49
0.000550
 49
-0.000110
 49
0.000110
 49
-0.000110
 49
0.000110
 49
-0.000110
  0
LTYPE
  2
DOT
 70
    64
  3
...............................................
 72
    65
 73
     2
 40
0.000110
 49
0.000000
 49
-0.000110
  0
LTYPE
  2
DASHDOT
 70
    64
  3
__ . __ . __ . __ . __ . __ . __ . __ . __ . __
 72
    65
 73
     4
 40
0.000440
 49
0.000220
 49
-0.000110
 49
0.000000
 49
-0.000110
  0
LTYPE
  2
BORDER
 70
    64
  3
__ __ . __ __ . __ __ . __ __ . __ __ . __ __
 72
    65
 73
     6
 40
0.000770
 49
0.000220
 49
-0.000110
 49
0.000220
 49
-0.000110
 49
0.000000
 49
-0.000110
  0
LTYPE
  2
DIVIDE
 70
    64
  3
__ . . __ . . __ . . __ . . __ . . __ . . __
 72
    65
 73
     6
 40
0.000550
 49
0.000220
 49
-0.000110
 49
0.000000
 49
-0.000110
 49
0.000000
 49
-0.000110
  0
LTYPE
  2
DOTDOT
 70
    64
  3
 . .  . .  . .  . .  . .  . . 
 72
    65
 73
     5
 40
0.000242
 49
-0.000110
 49
0.000000
 49
-0.000110
 49
0.000000
 49
-0.000110
  0
ENDTAB
  0
TABLE
  2
STYLE
 70
     2
  0
STYLE
 70
     0
  2
SN0
 40
0.000000
 41
0.000440
 50
0.000000
 71
     0
 42
0.000000
  3
ROMAND
  0
STYLE
 70
    68
  2
SV0
 40
0.000000
 41
0.000440
 50
0.000000
 71
     0
 42
0.000000
  3
ROMAND
  0
ENDTAB
  0
TABLE
  2
LAYER
 70
     3
  0
LAYER
  2
FOREGROUND
 70
    64
 62
     7
  6
CONTINUOUS
  0
LAYER
  2
BACKGROUND
 70
    65
 62
    -7
  6
CONTINUOUS
  0
LAYER
  2
0
 70
    64
 62
     7
  6
CONTINUOUS
  0
ENDTAB
  0
ENDSEC
  0
SECTION
  2
ENTITIES
  0
POLYLINE
  8
FOREGROUND
  6
CONTINUOUS
 66
     1
 40
0.000000
 41
0.000000
  0
VERTEX
  8
FOREGROUND
  6
CONTINUOUS
 10
0.000000
 20
2.717000
  0
VERTEX
  8
FOREGROUND
  6
CONTINUOUS
 10
8.499920
 20
2.717000
  0
VERTEX
  8
FOREGROUND
  6
CONTINUOUS
 10
8.499920
 20
-8.283000
  0
VERTEX
  8
FOREGROUND
  6
CONTINUOUS
 10
0.000000
 20
-8.283000
  0
VERTEX
  8
FOREGROUND
  6
CONTINUOUS
 10
0.000000
 20
2.717000
  0
SEQEND
  8
0
  0
POLYLINE
  8
FOREGROUND
  6
CONTINUOUS
 66
     1
 40
0.000000
 41
0.000000
  0
VERTEX
  8
FOREGROUND
  6
CONTINUOUS
 10
0.000000
 20
2.717000
  0
VERTEX
  8
FOREGROUND
  6
CONTINUOUS
 10
8.499920
 20
2.717000
  0
VERTEX
  8
FOREGROUND
  6
CONTINUOUS
 10
8.499920
 20
-8.283000
  0
VERTEX
  8
FOREGROUND
  6
CONTINUOUS
 10
0.000000
 20
-8.283000
  0
VERTEX
  8
FOREGROUND
  6
CONTINUOUS
 10
0.000000
 20
2.717000
  0
SEQEND
  8
0
  0
SOLID
  8
0
 62
    15
 10
5.848920
 20
1.094280
 11
6.494400
 21
1.463440
 12
5.860360
 22
1.064800
 13
6.505840
 23
1.433960
  0
POLYLINE
  8
0
  6
CONTINUOUS
 66
     1
 40
0.000000
 41
0.000000
  0
VERTEX
  8
0
  6
CONTINUOUS
 10
5.848920
 20
1.094280
  0
VERTEX
  8
0
  6
CONTINUOUS
 10
6.494400
 20
1.463440
  0
VERTEX
  8
0
  6
CONTINUOUS
 10
6.505840
 20
1.433960
  0
VERTEX
  8
0
  6
CONTINUOUS
 10
5.860360
 20
1.064800
  0
VERTEX
  8
0
  6
CONTINUOUS
 10
5.848920
 20
1.094280
  0
SEQEND
  8
0
  0
SOLID
  8
0
 62
    15
 10
5.322240
 20
1.896400
 11
5.967720
 21
2.265560
 12
5.358760
 22
1.889800
 13
6.004240
 23
2.258960
  0
POLYLINE
  8
0
  6
CONTINUOUS
 66
     1
 40
0.000000
 41
0.000000
  0
VERTEX
  8
0
  6
CONTINUOUS
 10
5.322240
 20
1.896400
  0
VERTEX
  8
0
  6
CONTINUOUS
 10
5.967720
 20
2.265560
  0
VERTEX
  8
0
  6
CONTINUOUS
 10
6.004240
 20
2.258960
  0
VERTEX
  8
0
  6
CONTINUOUS
 10
5.358760
 20
1.889800
  0
VERTEX
  8
0
  6
CONTINUOUS
 10
5.322240
 20
1.896400
  0
SEQEND
  8
0
  0
SOLID
  8
0
 62
    15
 10
5.358760
 20
1.889800
 11
6.004240
 21
2.258960
 12
5.392200
 22
1.874400
 13
6.037680
 23
2.243560
  0
POLYLINE
  8
0
  6
CONTINUOUS
 66
     1
 40
0.000000
 41
0.000000
  0
VERTEX
  8
0
  6
CONTINUOUS
 10
5.358760
 20
1.889800
  0
VERTEX
  8
0
  6
CONTINUOUS
 10
6.004240
 20
2.258960
  0
VERTEX
  8
0
  6
CONTINUOUS
 10
6.037680
 20
2.243560
  0
VERTEX
  8
0
  6
CONTINUOUS
 10
5.392200
 20
1.874400
  0
VERTEX
  8
0
  6
CONTINUOUS
 10
5.358760
 20
1.889800
  0
SEQEND
  8
0
  0
SOLID
  8
0
 62
    15
 10
5.392200
 20
1.874400
 11
6.037680
 21
2.243560
 12
5.420360
 22
1.850640
 13
6.065400
 23
2.219800
  0
POLYLINE
  8
0
  6
CONTINUOUS
 66
     1
 40
0.000000
 41
0.000000
  0
VERTEX
  8
0
  6
CONTINUOUS
 10
5.392200
 20
1.874400
  0
VERTEX
  8
0
  6
CONTINUOUS
 10
6.037680
 20
2.243560
  0
VERTEX
  8
0
  6
CONTINUOUS
 10
6.065400
 20
2.219800
  0
VERTEX
  8
0
  6
CONTINUOUS
 10
5.420360
 20
1.850640
  0
VERTEX
  8
0
  6
CONTINUOUS
 10
5.392200
 20
1.874400
  0
SEQEND
  8
0
  0
SOLID
  8
0
 62
    15
 10
5.420360
 20
1.850640
 11
6.065400
 21
2.219800
 12
5.441920
 22
1.818520
 13
6.087400
 23
2.187680
  0
POLYLINE
  8
0
  6
CONTINUOUS
 66
     1
 40
0.000000
 41
0.000000
  0
VERTEX
  8
0
  6
CONTINUOUS
 10
5.420360
 20
1.850640
  0
VERTEX
  8
0
  6
CONTINUOUS
 10
6.065400
 20
2.219800
  0
VERTEX
  8
0
  6
CONTINUOUS
 10
6.087400
 20
2.187680
  0
VERTEX
  8
0
  6
CONTINUOUS
 10
5.441920
 20
1.818520
  0
VERTEX
  8
0
  6
CONTINUOUS
 10
5.420360
 20
1.850640
  0
SEQEND
  8
0
  0
SOLID
  8
0
 62
    15
 10
5.441920
 20
1.818520
 11
6.087400
 21
2.187680
 12
5.848920
 22
1.094280
 13
6.494400
 23
1.463440
  0
POLYLINE
  8
0
  6
CONTINUOUS
 66
     1
 40
0.000000
 41
0.000000
  0
VERTEX
  8
0
  6
CONTINUOUS
 10
5.441920
 20
1.818520
  0
VERTEX
  8
0
  6
CONTINUOUS
 10
6.087400
 20
2.187680
  0
VERTEX
  8
0
  6
CONTINUOUS
 10
6.494400
 20
1.463440
  0
VERTEX
  8
0
  6
CONTINUOUS
 10
5.848920
 20
1.094280
  0
VERTEX
  8
0
  6
CONTINUOUS
 10
5.441920
 20
1.818520
  0
SEQEND
  8
0
  0
SOLID
  8
0
 62
    15
 10
5.223240
 20
1.896400
 11
5.868720
 21
2.265560
 12
5.322240
 22
1.896400
 13
5.967720
 23
2.265560
  0
POLYLINE
  8
0
  6
CONTINUOUS
 66
     1
 40
0.000000
 41
0.000000
  0
VERTEX
  8
0
  6
CONTINUOUS
 10
5.223240
 20
1.896400
  0
VERTEX
  8
0
  6
CONTINUOUS
 10
5.868720
 20
2.265560
  0
VERTEX
  8
0
  6
CONTINUOUS
 10
5.967720
 20
2.265560
  0
VERTEX
  8
0
  6
CONTINUOUS
 10
5.322240
 20
1.896400
  0
VERTEX
  8
0
  6
CONTINUOUS
 10
5.223240
 20
1.896400
  0
SEQEND
  8
0
  0
SOLID
  8
0
 62
    15
 10
5.860360
 20
1.064800
 11
6.505840
 21
1.433960
 12
5.863880
 22
1.032680
 13
6.508920
 23
1.402280
  0
POLYLINE
  8
0
  6
CONTINUOUS
 66
     1
 40
0.000000
 41
0.000000
  0
VERTEX
  8
0
  6
CONTINUOUS
 10
5.860360
 20
1.064800
  0
VERTEX
  8
0
  6
CONTINUOUS
 10
6.505840
 20
1.433960
  0
VERTEX
  8
0
  6
CONTINUOUS
 10
6.508920
 20
1.402280
  0
VERTEX
  8
0
  6
CONTINUOUS
 10
5.863880
 20
1.032680
  0
VERTEX
  8
0
  6
CONTINUOUS
 10
5.860360
 20
1.064800
  0
SEQEND
  8
0
  0
SOLID
  8
0
 62
    15
 10
5.863880
 20
1.032680
 11
6.508920
 21
1.402280
 12
5.859040
 22
1.001000
 13
6.504520
 23
1.370160
  0
POLYLINE
  8
0
  6
CONTINUOUS
 66
     1
 40
0.000000
 41
0.000000
  0
VERTEX
  8
0
  6
CONTINUOUS
 10
5.863880
 20
1.032680
  0
VERTEX
  8
0
  6
CONTINUOUS
 10
6.508920
 20
1.402280
  0
VERTEX
  8
0
  6
CONTINUOUS
 10
6.504520
 20
1.370160
  0
VERTEX
  8
0
  6
CONTINUOUS
 10
5.859040
 20
1.001000
  0
VERTEX
  8
0
  6
CONTINUOUS
 10
5.863880
 20
1.032680
  0
SEQEND
  8
0
  0
SOLID
  8
0
 62
    15
 10
5.859040
 20
1.001000
 11
6.504520
 21
1.370160
 12
5.846720
 22
0.970640
 13
6.492200
 23
1.339800
  0
POLYLINE
  8
0
  6
CONTINUOUS
 66
     1
 40
0.000000
 41
0.000000
  0
VERTEX
  8
0
  6
CONTINUOUS
 10
5.859040
 20
1.001000
  0
VERTEX
  8
0
  6
CONTINUOUS
 10
6.504520
 20
1.370160
  0
VERTEX
  8
0
  6
CONTINUOUS
 10
6.492200
 20
1.339800
  0
VERTEX
  8
0
  6
CONTINUOUS
 10
5.846720
 20
0.970640
  0
VERTEX
  8
0
  6
CONTINUOUS
 10
5.859040
 20
1.001000
  0
SEQEND
  8
0
  0
SOLID
  8
0
 62
    15
 10
5.846720
 20
0.970640
 11
6.492200
 21
1.339800
 12
5.826480
 22
0.943800
 13
6.471960
 23
1.312960
  0
POLYLINE
  8
0
  6
CONTINUOUS
 66
     1
 40
0.000000
 41
0.000000
  0
VERTEX
  8
0
  6
CONTINUOUS
 10
5.846720
 20
0.970640
  0
VERTEX
  8
0
  6
CONTINUOUS
 10
6.492200
 20
1.339800
  0
VERTEX
  8
0
  6
CONTINUOUS
 10
6.471960
 20
1.312960
  0
VERTEX
  8
0
  6
CONTINUOUS
 10
5.826480
 20
0.943800
  0
VERTEX
  8
0
  6
CONTINUOUS
 10
5.846720
 20
0.970640
  0
SEQEND
  8
0
  0
SOLID
  8
0
 62
    15
 10
5.826480
 20
0.943800
 11
6.471960
 21
1.312960
 12
5.799200
 22
0.922240
 13
6.444680
 23
1.291400
  0
POLYLINE
  8
0
  6
CONTINUOUS
 66
     1
 40
0.000000
 41
0.000000
  0
VERTEX
  8
0
  6
CONTINUOUS
 10
5.826480
 20
0.943800
  0
VERTEX
  8
0
  6
CONTINUOUS
 10
6.471960
 20
1.312960
  0
VERTEX
  8
0
  6
CONTINUOUS
 10
6.444680
 20
1.291400
  0
VERTEX
  8
0
  6
CONTINUOUS
 10
5.799200
 20
0.922240
  0
VERTEX
  8
0
  6
CONTINUOUS
 10
5.826480
 20
0.943800
  0
SEQEND
  8
0
  0
POLYLINE
  8
0
  6
CONTINUOUS
 66
     1
 40
0.000000
 41
0.000000
  0
VERTEX
  8
0
  6
CONTINUOUS
 10
5.720000
 20
0.902880
  0
VERTEX
  8
0
  6
CONTINUOUS
 10
5.223240
 20
0.902880
  0
VERTEX
  8
0
  6
CONTINUOUS
 10
5.223240
 20
1.896400
  0
VERTEX
  8
0
  6
CONTINUOUS
 10
5.322240
 20
1.896400
  0
VERTEX
  8
0
  6
CONTINUOUS
 10
5.358760
 20
1.889800
  0
VERTEX
  8
0
  6
CONTINUOUS
 10
5.392200
 20
1.874400
  0
VERTEX
  8
0
  6
CONTINUOUS
 10
5.420360
 20
1.850640
  0
VERTEX
  8
0
  6
CONTINUOUS
 10
5.441920
 20
1.818520
  0
VERTEX
  8
0
  6
CONTINUOUS
 10
5.848920
 20
1.094280
  0
VERTEX
  8
0
  6
CONTINUOUS
 10
5.860360
 20
1.064800
  0
VERTEX
  8
0
  6
CONTINUOUS
 10
5.863880
 20
1.032680
  0
VERTEX
  8
0
  6
CONTINUOUS
 10
5.859040
 20
1.001000
  0
VERTEX
  8
0
  6
CONTINUOUS
 10
5.846720
 20
0.970640
  0
VERTEX
  8
0
  6
CONTINUOUS
 10
5.826480
 20
0.943800
  0
VERTEX
  8
0
  6
CONTINUOUS
 10
5.799200
 20
0.922240
  0
VERTEX
  8
0
  6
CONTINUOUS
 10
5.764440
 20
0.908160
  0
VERTEX
  8
0
  6
CONTINUOUS
 10
5.744640
 20
0.904200
  0
VERTEX
  8
0
  6
CONTINUOUS
 10
5.723080
 20
0.902880
  0
VERTEX
  8
0
  6
CONTINUOUS
 10
5.720000
 20
0.902880
  0
SEQEND
  8
0
  0
TEXT
  8
0
 10
5.569960
 20
0.685080
 40
0.138086
  1
BA  947
 41
1.000000
  7
SN0
 71
     0
 72
     5
 11
6.159725
 21
0.685080
  0
TEXT
  8
0
 10
5.557200
 20
0.493680
 40
0.138086
  1
5/8" x 1"
 41
1.000000
  7
SN0
 71
     0
 72
     5
 11
6.171723
 21
0.493680
  0
POLYLINE
  8
0
  6
CONTINUOUS
 66
     1
 40
0.014080
 41
0.014080
  0
VERTEX
  8
0
  6
CONTINUOUS
 10
6.827480
 20
1.944360
  0
VERTEX
  8
0
  6
CONTINUOUS
 10
6.827480
 20
1.447600
  0
VERTEX
  8
0
  6
CONTINUOUS
 10
7.821440
 20
1.447600
  0
VERTEX
  8
0
  6
CONTINUOUS
 10
7.821440
 20
1.546160
  0
VERTEX
  8
0
  6
CONTINUOUS
 10
7.819240
 20
1.565080
  0
VERTEX
  8
0
  6
CONTINUOUS
 10
7.814840
 20
1.583120
  0
VERTEX
  8
0
  6
CONTINUOUS
 10
7.807800
 20
1.600280
  0
VERTEX
  8
0
  6
CONTINUOUS
 10
7.799000
 20
1.616120
  0
VERTEX
  8
0
  6
CONTINUOUS
 10
7.794160
 20
1.623600
  0
VERTEX
  8
0
  6
CONTINUOUS
 10
7.788440
 20
1.631080
  0
VERTEX
  8
0
  6
CONTINUOUS
 10
7.775240
 20
1.644280
  0
VERTEX
  8
0
  6
CONTINUOUS
 10
7.768200
 20
1.650440
  0
VERTEX
  8
0
  6
CONTINUOUS
 10
7.760280
 20
1.656160
  0
VERTEX
  8
0
  6
CONTINUOUS
 10
7.752360
 20
1.661000
  0
VERTEX
  8
0
  6
CONTINUOUS
 10
7.743560
 20
1.665840
  0
VERTEX
  8
0
  6
CONTINUOUS
 10
7.019320
 20
2.073280
  0
VERTEX
  8
0
  6
CONTINUOUS
 10
7.004800
 20
2.079880
  0
VERTEX
  8
0
  6
CONTINUOUS
 10
6.989400
 20
2.084720
  0
VERTEX
  8
0
  6
CONTINUOUS
 10
6.974000
 20
2.087360
  0
VERTEX
  8
0
  6
CONTINUOUS
 10
6.957720
 20
2.088240
  0
VERTEX
  8
0
  6
CONTINUOUS
 10
6.941880
 20
2.086920
  0
VERTEX
  8
0
  6
CONTINUOUS
 10
6.925600
 20
2.083400
  0
VERTEX
  8
0
  6
CONTINUOUS
 10
6.910200
 20
2.078120
  0
VERTEX
  8
0
  6
CONTINUOUS
 10
6.895240
 20
2.071080
  0
VERTEX
  8
0
  6
CONTINUOUS
 10
6.881160
 20
2.061840
  0
VERTEX
  8
0
  6
CONTINUOUS
 10
6.868400
 20
2.050840
  0
VERTEX
  8
0
  6
CONTINUOUS
 10
6.856960
 20
2.038080
  0
VERTEX
  8
0
  6
CONTINUOUS
 10
6.846840
 20
2.023560
  0
VERTEX
  8
0
  6
CONTINUOUS
 10
6.842440
 20
2.015640
  0
VERTEX
  8
0
  6
CONTINUOUS
 10
6.838920
 20
2.007280
  0
VERTEX
  8
0
  6
CONTINUOUS
 10
6.835400
 20
1.998040
  0
VERTEX
  8
0
  6
CONTINUOUS
 10
6.832760
 20
1.988800
  0
VERTEX
  8
0
  6
CONTINUOUS
 10
6.830560
 20
1.979120
  0
VERTEX
  8
0
  6
CONTINUOUS
 10
6.828800
 20
1.969000
  0
VERTEX
  8
0
  6
CONTINUOUS
 10
6.827920
 20
1.958440
  0
VERTEX
  8
0
  6
CONTINUOUS
 10
6.827480
 20
1.947440
  0
VERTEX
  8
0
  6
CONTINUOUS
 10
6.827480
 20
1.944360
  0
SEQEND
  8
0
  0
TEXT
  8
0
 10
7.185640
 20
1.210880
 40
0.138086
  1
947
 41
1.000000
  7
SN0
 71
     0
 72
     5
 11
7.462410
 21
1.210880
  0
TEXT
  8
0
 10
7.015800
 20
1.019480
 40
0.138086
  1
5/8" x 1"
 41
1.000000
  7
SN0
 71
     0
 72
     5
 11
7.630323
 21
1.019480
  0
ENDSEC
  0
EOF
