  0
SECTION
  2
HEADER
  9
$ACADVER
  1
AC1006
  9
$EXTMIN
 10
2.617120
 20
0.317240
  9
$EXTMAX
 10
7.790640
 20
4.181760
  9
$LTSCALE
 40
0.044000
  9
$PDMODE
 70
    35
  9
$PDSIZE
 40
0.035200
  0
ENDSEC
  0
SECTION
  2
TABLES
  0
TABLE
  2
LTYPE
 70
     9
  0
LTYPE
  2
CONTINUOUS
 70
    64
  3
Solid line
 72
    65
 73
     0
 40
0.000000
  0
LTYPE
  2
DASHED
 70
    64
  3
__ __ __ __ __ __ __ __ __ __ __ __ __ __ __
 72
    65
 73
     2
 40
0.000330
 49
0.000220
 49
-0.000110
  0
LTYPE
  2
HIDDEN
 70
    64
  3
 _ _ _ _ _ _ _ _ _ _ _ _ _ _ _ _ _ _ _ _ _ _
 72
    65
 73
     2
 40
0.000165
 49
0.000110
 49
-0.000055
  0
LTYPE
  2
CENTER
 70
    64
  3
____ _ ____ _ ____ _ ____ _ ____ _ ____ _ ____
 72
    65
 73
     4
 40
0.000880
 49
0.000550
 49
-0.000110
 49
0.000110
 49
-0.000110
  0
LTYPE
  2
PHANTOM
 70
    64
  3
_____ _ _ _____ _ _ _____ _ _ _____ _ _ ____
 72
    65
 73
     6
 40
0.001100
 49
0.000550
 49
-0.000110
 49
0.000110
 49
-0.000110
 49
0.000110
 49
-0.000110
  0
LTYPE
  2
DOT
 70
    64
  3
...............................................
 72
    65
 73
     2
 40
0.000110
 49
0.000000
 49
-0.000110
  0
LTYPE
  2
DASHDOT
 70
    64
  3
__ . __ . __ . __ . __ . __ . __ . __ . __ . __
 72
    65
 73
     4
 40
0.000440
 49
0.000220
 49
-0.000110
 49
0.000000
 49
-0.000110
  0
LTYPE
  2
BORDER
 70
    64
  3
__ __ . __ __ . __ __ . __ __ . __ __ . __ __
 72
    65
 73
     6
 40
0.000770
 49
0.000220
 49
-0.000110
 49
0.000220
 49
-0.000110
 49
0.000000
 49
-0.000110
  0
LTYPE
  2
DIVIDE
 70
    64
  3
__ . . __ . . __ . . __ . . __ . . __ . . __
 72
    65
 73
     6
 40
0.000550
 49
0.000220
 49
-0.000110
 49
0.000000
 49
-0.000110
 49
0.000000
 49
-0.000110
  0
LTYPE
  2
DOTDOT
 70
    64
  3
 . .  . .  . .  . .  . .  . . 
 72
    65
 73
     5
 40
0.000242
 49
-0.000110
 49
0.000000
 49
-0.000110
 49
0.000000
 49
-0.000110
  0
ENDTAB
  0
TABLE
  2
STYLE
 70
     2
  0
STYLE
 70
     0
  2
SN0
 40
0.000000
 41
0.000440
 50
0.000000
 71
     0
 42
0.000000
  3
ROMAND
  0
STYLE
 70
    68
  2
SV0
 40
0.000000
 41
0.000440
 50
0.000000
 71
     0
 42
0.000000
  3
ROMAND
  0
ENDTAB
  0
TABLE
  2
LAYER
 70
     3
  0
LAYER
  2
FOREGROUND
 70
    64
 62
     7
  6
CONTINUOUS
  0
LAYER
  2
BACKGROUND
 70
    65
 62
    -7
  6
CONTINUOUS
  0
LAYER
  2
0
 70
    64
 62
     7
  6
CONTINUOUS
  0
ENDTAB
  0
ENDSEC
  0
SECTION
  2
ENTITIES
  0
POLYLINE
  8
FOREGROUND
  6
CONTINUOUS
 66
     1
 40
0.000000
 41
0.000000
  0
VERTEX
  8
FOREGROUND
  6
CONTINUOUS
 10
0.000000
 20
4.499000
  0
VERTEX
  8
FOREGROUND
  6
CONTINUOUS
 10
8.499920
 20
4.499000
  0
VERTEX
  8
FOREGROUND
  6
CONTINUOUS
 10
8.499920
 20
-6.501000
  0
VERTEX
  8
FOREGROUND
  6
CONTINUOUS
 10
0.000000
 20
-6.501000
  0
VERTEX
  8
FOREGROUND
  6
CONTINUOUS
 10
0.000000
 20
4.499000
  0
SEQEND
  8
0
  0
POLYLINE
  8
FOREGROUND
  6
CONTINUOUS
 66
     1
 40
0.000000
 41
0.000000
  0
VERTEX
  8
FOREGROUND
  6
CONTINUOUS
 10
0.000000
 20
4.499000
  0
VERTEX
  8
FOREGROUND
  6
CONTINUOUS
 10
8.499920
 20
4.499000
  0
VERTEX
  8
FOREGROUND
  6
CONTINUOUS
 10
8.499920
 20
-6.501000
  0
VERTEX
  8
FOREGROUND
  6
CONTINUOUS
 10
0.000000
 20
-6.501000
  0
VERTEX
  8
FOREGROUND
  6
CONTINUOUS
 10
0.000000
 20
4.499000
  0
SEQEND
  8
0
  0
SOLID
  8
0
 62
    15
 10
3.482600
 20
3.057120
 11
4.120160
 21
3.434200
 12
3.485240
 22
3.057120
 13
4.122800
 23
3.434200
  0
POLYLINE
  8
0
  6
CONTINUOUS
 66
     1
 40
0.000000
 41
0.000000
  0
VERTEX
  8
0
  6
CONTINUOUS
 10
3.482600
 20
3.057120
  0
VERTEX
  8
0
  6
CONTINUOUS
 10
4.120160
 20
3.434200
  0
VERTEX
  8
0
  6
CONTINUOUS
 10
4.122800
 20
3.434200
  0
VERTEX
  8
0
  6
CONTINUOUS
 10
3.485240
 20
3.057120
  0
VERTEX
  8
0
  6
CONTINUOUS
 10
3.482600
 20
3.057120
  0
SEQEND
  8
0
  0
SOLID
  8
0
 62
    15
 10
3.485240
 20
3.057120
 11
4.122800
 21
3.434200
 12
2.944480
 22
1.010240
 13
3.582040
 23
1.386880
  0
POLYLINE
  8
0
  6
CONTINUOUS
 66
     1
 40
0.000000
 41
0.000000
  0
VERTEX
  8
0
  6
CONTINUOUS
 10
3.485240
 20
3.057120
  0
VERTEX
  8
0
  6
CONTINUOUS
 10
4.122800
 20
3.434200
  0
VERTEX
  8
0
  6
CONTINUOUS
 10
3.582040
 20
1.386880
  0
VERTEX
  8
0
  6
CONTINUOUS
 10
2.944480
 20
1.010240
  0
VERTEX
  8
0
  6
CONTINUOUS
 10
3.485240
 20
3.057120
  0
SEQEND
  8
0
  0
SOLID
  8
0
 62
    15
 10
3.702160
 20
3.155240
 11
4.339720
 21
3.531880
 12
3.693360
 22
3.136760
 13
4.330480
 23
3.513840
  0
POLYLINE
  8
0
  6
CONTINUOUS
 66
     1
 40
0.000000
 41
0.000000
  0
VERTEX
  8
0
  6
CONTINUOUS
 10
3.702160
 20
3.155240
  0
VERTEX
  8
0
  6
CONTINUOUS
 10
4.339720
 20
3.531880
  0
VERTEX
  8
0
  6
CONTINUOUS
 10
4.330480
 20
3.513840
  0
VERTEX
  8
0
  6
CONTINUOUS
 10
3.693360
 20
3.136760
  0
VERTEX
  8
0
  6
CONTINUOUS
 10
3.702160
 20
3.155240
  0
SEQEND
  8
0
  0
SOLID
  8
0
 62
    15
 10
3.693360
 20
3.136760
 11
4.330480
 21
3.513840
 12
3.690280
 22
3.131040
 13
4.327840
 23
3.508120
  0
POLYLINE
  8
0
  6
CONTINUOUS
 66
     1
 40
0.000000
 41
0.000000
  0
VERTEX
  8
0
  6
CONTINUOUS
 10
3.693360
 20
3.136760
  0
VERTEX
  8
0
  6
CONTINUOUS
 10
4.330480
 20
3.513840
  0
VERTEX
  8
0
  6
CONTINUOUS
 10
4.327840
 20
3.508120
  0
VERTEX
  8
0
  6
CONTINUOUS
 10
3.690280
 20
3.131040
  0
VERTEX
  8
0
  6
CONTINUOUS
 10
3.693360
 20
3.136760
  0
SEQEND
  8
0
  0
SOLID
  8
0
 62
    15
 10
3.690280
 20
3.131040
 11
4.327840
 21
3.508120
 12
3.678840
 22
3.111240
 13
4.316400
 23
3.488320
  0
POLYLINE
  8
0
  6
CONTINUOUS
 66
     1
 40
0.000000
 41
0.000000
  0
VERTEX
  8
0
  6
CONTINUOUS
 10
3.690280
 20
3.131040
  0
VERTEX
  8
0
  6
CONTINUOUS
 10
4.327840
 20
3.508120
  0
VERTEX
  8
0
  6
CONTINUOUS
 10
4.316400
 20
3.488320
  0
VERTEX
  8
0
  6
CONTINUOUS
 10
3.678840
 20
3.111240
  0
VERTEX
  8
0
  6
CONTINUOUS
 10
3.690280
 20
3.131040
  0
SEQEND
  8
0
  0
SOLID
  8
0
 62
    15
 10
3.678840
 20
3.111240
 11
4.316400
 21
3.488320
 12
3.647600
 22
3.081760
 13
4.285160
 23
3.458840
  0
POLYLINE
  8
0
  6
CONTINUOUS
 66
     1
 40
0.000000
 41
0.000000
  0
VERTEX
  8
0
  6
CONTINUOUS
 10
3.678840
 20
3.111240
  0
VERTEX
  8
0
  6
CONTINUOUS
 10
4.316400
 20
3.488320
  0
VERTEX
  8
0
  6
CONTINUOUS
 10
4.285160
 20
3.458840
  0
VERTEX
  8
0
  6
CONTINUOUS
 10
3.647600
 20
3.081760
  0
VERTEX
  8
0
  6
CONTINUOUS
 10
3.678840
 20
3.111240
  0
SEQEND
  8
0
  0
SOLID
  8
0
 62
    15
 10
2.618880
 20
3.804240
 11
3.256440
 21
4.180880
 12
3.864080
 22
3.804240
 13
4.501640
 23
4.180880
  0
POLYLINE
  8
0
  6
CONTINUOUS
 66
     1
 40
0.000000
 41
0.000000
  0
VERTEX
  8
0
  6
CONTINUOUS
 10
2.618880
 20
3.804240
  0
VERTEX
  8
0
  6
CONTINUOUS
 10
3.256440
 20
4.180880
  0
VERTEX
  8
0
  6
CONTINUOUS
 10
4.501640
 20
4.180880
  0
VERTEX
  8
0
  6
CONTINUOUS
 10
3.864080
 20
3.804240
  0
VERTEX
  8
0
  6
CONTINUOUS
 10
2.618880
 20
3.804240
  0
SEQEND
  8
0
  0
SOLID
  8
0
 62
    15
 10
3.864080
 20
3.804240
 11
4.501640
 21
4.180880
 12
3.702160
 22
3.155240
 13
4.339720
 23
3.531880
  0
POLYLINE
  8
0
  6
CONTINUOUS
 66
     1
 40
0.000000
 41
0.000000
  0
VERTEX
  8
0
  6
CONTINUOUS
 10
3.864080
 20
3.804240
  0
VERTEX
  8
0
  6
CONTINUOUS
 10
4.501640
 20
4.180880
  0
VERTEX
  8
0
  6
CONTINUOUS
 10
4.339720
 20
3.531880
  0
VERTEX
  8
0
  6
CONTINUOUS
 10
3.702160
 20
3.155240
  0
VERTEX
  8
0
  6
CONTINUOUS
 10
3.864080
 20
3.804240
  0
SEQEND
  8
0
  0
SOLID
  8
0
 62
    15
 10
2.944480
 20
1.010240
 11
3.582040
 21
1.386880
 12
2.924240
 22
0.937640
 13
3.561800
 23
1.314720
  0
POLYLINE
  8
0
  6
CONTINUOUS
 66
     1
 40
0.000000
 41
0.000000
  0
VERTEX
  8
0
  6
CONTINUOUS
 10
2.944480
 20
1.010240
  0
VERTEX
  8
0
  6
CONTINUOUS
 10
3.582040
 20
1.386880
  0
VERTEX
  8
0
  6
CONTINUOUS
 10
3.561800
 20
1.314720
  0
VERTEX
  8
0
  6
CONTINUOUS
 10
2.924240
 20
0.937640
  0
VERTEX
  8
0
  6
CONTINUOUS
 10
2.944480
 20
1.010240
  0
SEQEND
  8
0
  0
SOLID
  8
0
 62
    15
 10
2.924240
 20
0.937640
 11
3.561800
 21
1.314720
 12
2.905760
 22
0.884840
 13
3.542880
 23
1.261480
  0
POLYLINE
  8
0
  6
CONTINUOUS
 66
     1
 40
0.000000
 41
0.000000
  0
VERTEX
  8
0
  6
CONTINUOUS
 10
2.924240
 20
0.937640
  0
VERTEX
  8
0
  6
CONTINUOUS
 10
3.561800
 20
1.314720
  0
VERTEX
  8
0
  6
CONTINUOUS
 10
3.542880
 20
1.261480
  0
VERTEX
  8
0
  6
CONTINUOUS
 10
2.905760
 20
0.884840
  0
VERTEX
  8
0
  6
CONTINUOUS
 10
2.924240
 20
0.937640
  0
SEQEND
  8
0
  0
SOLID
  8
0
 62
    15
 10
2.905760
 20
0.884840
 11
3.542880
 21
1.261480
 12
2.886400
 22
0.848320
 13
3.523960
 23
1.224960
  0
POLYLINE
  8
0
  6
CONTINUOUS
 66
     1
 40
0.000000
 41
0.000000
  0
VERTEX
  8
0
  6
CONTINUOUS
 10
2.905760
 20
0.884840
  0
VERTEX
  8
0
  6
CONTINUOUS
 10
3.542880
 20
1.261480
  0
VERTEX
  8
0
  6
CONTINUOUS
 10
3.523960
 20
1.224960
  0
VERTEX
  8
0
  6
CONTINUOUS
 10
2.886400
 20
0.848320
  0
VERTEX
  8
0
  6
CONTINUOUS
 10
2.905760
 20
0.884840
  0
SEQEND
  8
0
  0
SOLID
  8
0
 62
    15
 10
2.886400
 20
0.848320
 11
3.523960
 21
1.224960
 12
2.863520
 22
0.825000
 13
3.501080
 23
1.202080
  0
POLYLINE
  8
0
  6
CONTINUOUS
 66
     1
 40
0.000000
 41
0.000000
  0
VERTEX
  8
0
  6
CONTINUOUS
 10
2.886400
 20
0.848320
  0
VERTEX
  8
0
  6
CONTINUOUS
 10
3.523960
 20
1.224960
  0
VERTEX
  8
0
  6
CONTINUOUS
 10
3.501080
 20
1.202080
  0
VERTEX
  8
0
  6
CONTINUOUS
 10
2.863520
 20
0.825000
  0
VERTEX
  8
0
  6
CONTINUOUS
 10
2.886400
 20
0.848320
  0
SEQEND
  8
0
  0
POLYLINE
  8
0
  6
CONTINUOUS
 66
     1
 40
0.000000
 41
0.000000
  0
VERTEX
  8
0
  6
CONTINUOUS
 10
2.618880
 20
0.809160
  0
VERTEX
  8
0
  6
CONTINUOUS
 10
2.618880
 20
3.804240
  0
VERTEX
  8
0
  6
CONTINUOUS
 10
3.864080
 20
3.804240
  0
VERTEX
  8
0
  6
CONTINUOUS
 10
3.702160
 20
3.155240
  0
VERTEX
  8
0
  6
CONTINUOUS
 10
3.693360
 20
3.136760
  0
VERTEX
  8
0
  6
CONTINUOUS
 10
3.690280
 20
3.131040
  0
VERTEX
  8
0
  6
CONTINUOUS
 10
3.678840
 20
3.111240
  0
VERTEX
  8
0
  6
CONTINUOUS
 10
3.647600
 20
3.081760
  0
VERTEX
  8
0
  6
CONTINUOUS
 10
3.622960
 20
3.071640
  0
VERTEX
  8
0
  6
CONTINUOUS
 10
3.588640
 20
3.064600
  0
VERTEX
  8
0
  6
CONTINUOUS
 10
3.542880
 20
3.059760
  0
VERTEX
  8
0
  6
CONTINUOUS
 10
3.482600
 20
3.057120
  0
VERTEX
  8
0
  6
CONTINUOUS
 10
3.485240
 20
3.057120
  0
VERTEX
  8
0
  6
CONTINUOUS
 10
2.944480
 20
1.010240
  0
VERTEX
  8
0
  6
CONTINUOUS
 10
2.924240
 20
0.937640
  0
VERTEX
  8
0
  6
CONTINUOUS
 10
2.905760
 20
0.884840
  0
VERTEX
  8
0
  6
CONTINUOUS
 10
2.886400
 20
0.848320
  0
VERTEX
  8
0
  6
CONTINUOUS
 10
2.863520
 20
0.825000
  0
VERTEX
  8
0
  6
CONTINUOUS
 10
2.834920
 20
0.812240
  0
VERTEX
  8
0
  6
CONTINUOUS
 10
2.797960
 20
0.806960
  0
VERTEX
  8
0
  6
CONTINUOUS
 10
2.749560
 20
0.806080
  0
VERTEX
  8
0
  6
CONTINUOUS
 10
2.687520
 20
0.806080
  0
VERTEX
  8
0
  6
CONTINUOUS
 10
2.617560
 20
0.806080
  0
VERTEX
  8
0
  6
CONTINUOUS
 10
2.618880
 20
0.809160
  0
SEQEND
  8
0
  0
TEXT
  8
0
 10
3.263480
 20
0.551760
 40
0.138009
  1
BA  946
 41
1.000000
  7
SN0
 71
     0
 72
     5
 11
3.854296
 21
0.551760
  0
TEXT
  8
0
 10
3.176800
 20
0.359920
 40
0.138009
  1
1-1/4" x 3"
 41
1.000000
  7
SN0
 71
     0
 72
     5
 11
3.940153
 21
0.359920
  0
POLYLINE
  8
0
  6
CONTINUOUS
 66
     1
 40
0.014080
 41
0.014080
  0
VERTEX
  8
0
  6
CONTINUOUS
 10
7.780080
 20
2.329360
  0
VERTEX
  8
0
  6
CONTINUOUS
 10
4.785000
 20
2.329360
  0
VERTEX
  8
0
  6
CONTINUOUS
 10
4.785000
 20
3.574120
  0
VERTEX
  8
0
  6
CONTINUOUS
 10
5.434440
 20
3.412640
  0
VERTEX
  8
0
  6
CONTINUOUS
 10
5.478440
 20
3.389320
  0
VERTEX
  8
0
  6
CONTINUOUS
 10
5.494720
 20
3.375680
  0
VERTEX
  8
0
  6
CONTINUOUS
 10
5.507920
 20
3.357640
  0
VERTEX
  8
0
  6
CONTINUOUS
 10
5.517600
 20
3.333000
  0
VERTEX
  8
0
  6
CONTINUOUS
 10
5.525080
 20
3.298680
  0
VERTEX
  8
0
  6
CONTINUOUS
 10
5.529480
 20
3.252920
  0
VERTEX
  8
0
  6
CONTINUOUS
 10
5.532120
 20
3.192640
  0
VERTEX
  8
0
  6
CONTINUOUS
 10
5.532120
 20
3.195720
  0
VERTEX
  8
0
  6
CONTINUOUS
 10
7.618160
 20
2.644400
  0
VERTEX
  8
0
  6
CONTINUOUS
 10
7.692960
 20
2.620640
  0
VERTEX
  8
0
  6
CONTINUOUS
 10
7.724640
 20
2.606560
  0
VERTEX
  8
0
  6
CONTINUOUS
 10
7.747960
 20
2.591600
  0
VERTEX
  8
0
  6
CONTINUOUS
 10
7.764240
 20
2.574000
  0
VERTEX
  8
0
  6
CONTINUOUS
 10
7.774800
 20
2.553320
  0
VERTEX
  8
0
  6
CONTINUOUS
 10
7.781840
 20
2.518560
  0
VERTEX
  8
0
  6
CONTINUOUS
 10
7.783600
 20
2.473240
  0
VERTEX
  8
0
  6
CONTINUOUS
 10
7.783160
 20
2.328040
  0
VERTEX
  8
0
  6
CONTINUOUS
 10
7.780080
 20
2.329360
  0
SEQEND
  8
0
  0
TEXT
  8
0
 10
6.145040
 20
2.621080
 40
0.138009
  1
946
 41
1.000000
  7
SN0
 71
     0
 72
     5
 11
6.422341
 21
2.621080
  0
TEXT
  8
0
 10
5.901720
 20
2.429240
 40
0.138009
  1
1-1/4" x 3"
 41
1.000000
  7
SN0
 71
     0
 72
     5
 11
6.665073
 21
2.429240
  0
ENDSEC
  0
EOF
