  0
SECTION
  2
HEADER
  9
$ACADVER
  1
AC1006
  9
$EXTMIN
 10
4.089360
 20
0.546040
  9
$EXTMAX
 10
7.722440
 20
2.431000
  9
$LTSCALE
 40
0.044000
  9
$PDMODE
 70
    35
  9
$PDSIZE
 40
0.035200
  0
ENDSEC
  0
SECTION
  2
TABLES
  0
TABLE
  2
LTYPE
 70
     9
  0
LTYPE
  2
CONTINUOUS
 70
    64
  3
Solid line
 72
    65
 73
     0
 40
0.000000
  0
LTYPE
  2
DASHED
 70
    64
  3
__ __ __ __ __ __ __ __ __ __ __ __ __ __ __
 72
    65
 73
     2
 40
0.000330
 49
0.000220
 49
-0.000110
  0
LTYPE
  2
HIDDEN
 70
    64
  3
 _ _ _ _ _ _ _ _ _ _ _ _ _ _ _ _ _ _ _ _ _ _
 72
    65
 73
     2
 40
0.000165
 49
0.000110
 49
-0.000055
  0
LTYPE
  2
CENTER
 70
    64
  3
____ _ ____ _ ____ _ ____ _ ____ _ ____ _ ____
 72
    65
 73
     4
 40
0.000880
 49
0.000550
 49
-0.000110
 49
0.000110
 49
-0.000110
  0
LTYPE
  2
PHANTOM
 70
    64
  3
_____ _ _ _____ _ _ _____ _ _ _____ _ _ ____
 72
    65
 73
     6
 40
0.001100
 49
0.000550
 49
-0.000110
 49
0.000110
 49
-0.000110
 49
0.000110
 49
-0.000110
  0
LTYPE
  2
DOT
 70
    64
  3
...............................................
 72
    65
 73
     2
 40
0.000110
 49
0.000000
 49
-0.000110
  0
LTYPE
  2
DASHDOT
 70
    64
  3
__ . __ . __ . __ . __ . __ . __ . __ . __ . __
 72
    65
 73
     4
 40
0.000440
 49
0.000220
 49
-0.000110
 49
0.000000
 49
-0.000110
  0
LTYPE
  2
BORDER
 70
    64
  3
__ __ . __ __ . __ __ . __ __ . __ __ . __ __
 72
    65
 73
     6
 40
0.000770
 49
0.000220
 49
-0.000110
 49
0.000220
 49
-0.000110
 49
0.000000
 49
-0.000110
  0
LTYPE
  2
DIVIDE
 70
    64
  3
__ . . __ . . __ . . __ . . __ . . __ . . __
 72
    65
 73
     6
 40
0.000550
 49
0.000220
 49
-0.000110
 49
0.000000
 49
-0.000110
 49
0.000000
 49
-0.000110
  0
LTYPE
  2
DOTDOT
 70
    64
  3
 . .  . .  . .  . .  . .  . . 
 72
    65
 73
     5
 40
0.000242
 49
-0.000110
 49
0.000000
 49
-0.000110
 49
0.000000
 49
-0.000110
  0
ENDTAB
  0
TABLE
  2
STYLE
 70
     2
  0
STYLE
 70
     0
  2
SN0
 40
0.000000
 41
0.000440
 50
0.000000
 71
     0
 42
0.000000
  3
ROMAND
  0
STYLE
 70
    68
  2
SV0
 40
0.000000
 41
0.000440
 50
0.000000
 71
     0
 42
0.000000
  3
ROMAND
  0
ENDTAB
  0
TABLE
  2
LAYER
 70
     3
  0
LAYER
  2
FOREGROUND
 70
    64
 62
     7
  6
CONTINUOUS
  0
LAYER
  2
BACKGROUND
 70
    65
 62
    -7
  6
CONTINUOUS
  0
LAYER
  2
0
 70
    64
 62
     7
  6
CONTINUOUS
  0
ENDTAB
  0
ENDSEC
  0
SECTION
  2
ENTITIES
  0
POLYLINE
  8
FOREGROUND
  6
CONTINUOUS
 66
     1
 40
0.000000
 41
0.000000
  0
VERTEX
  8
FOREGROUND
  6
CONTINUOUS
 10
0.000000
 20
2.977040
  0
VERTEX
  8
FOREGROUND
  6
CONTINUOUS
 10
8.499920
 20
2.977040
  0
VERTEX
  8
FOREGROUND
  6
CONTINUOUS
 10
8.499920
 20
-8.022960
  0
VERTEX
  8
FOREGROUND
  6
CONTINUOUS
 10
0.000000
 20
-8.022960
  0
VERTEX
  8
FOREGROUND
  6
CONTINUOUS
 10
0.000000
 20
2.977040
  0
SEQEND
  8
0
  0
POLYLINE
  8
FOREGROUND
  6
CONTINUOUS
 66
     1
 40
0.000000
 41
0.000000
  0
VERTEX
  8
FOREGROUND
  6
CONTINUOUS
 10
0.000000
 20
2.977040
  0
VERTEX
  8
FOREGROUND
  6
CONTINUOUS
 10
8.499920
 20
2.977040
  0
VERTEX
  8
FOREGROUND
  6
CONTINUOUS
 10
8.499920
 20
-8.022960
  0
VERTEX
  8
FOREGROUND
  6
CONTINUOUS
 10
0.000000
 20
-8.022960
  0
VERTEX
  8
FOREGROUND
  6
CONTINUOUS
 10
0.000000
 20
2.977040
  0
SEQEND
  8
0
  0
SOLID
  8
0
 62
    15
 10
5.286160
 20
1.166440
 11
5.932960
 21
1.524600
 12
5.277360
 22
1.147960
 13
5.923720
 23
1.506120
  0
POLYLINE
  8
0
  6
CONTINUOUS
 66
     1
 40
0.000000
 41
0.000000
  0
VERTEX
  8
0
  6
CONTINUOUS
 10
5.286160
 20
1.166440
  0
VERTEX
  8
0
  6
CONTINUOUS
 10
5.932960
 20
1.524600
  0
VERTEX
  8
0
  6
CONTINUOUS
 10
5.923720
 20
1.506120
  0
VERTEX
  8
0
  6
CONTINUOUS
 10
5.277360
 20
1.147960
  0
VERTEX
  8
0
  6
CONTINUOUS
 10
5.286160
 20
1.166440
  0
SEQEND
  8
0
  0
SOLID
  8
0
 62
    15
 10
5.451160
 20
2.031480
 11
6.097520
 21
2.390080
 12
5.467440
 22
2.027520
 13
6.113800
 23
2.385680
  0
POLYLINE
  8
0
  6
CONTINUOUS
 66
     1
 40
0.000000
 41
0.000000
  0
VERTEX
  8
0
  6
CONTINUOUS
 10
5.451160
 20
2.031480
  0
VERTEX
  8
0
  6
CONTINUOUS
 10
6.097520
 20
2.390080
  0
VERTEX
  8
0
  6
CONTINUOUS
 10
6.113800
 20
2.385680
  0
VERTEX
  8
0
  6
CONTINUOUS
 10
5.467440
 20
2.027520
  0
VERTEX
  8
0
  6
CONTINUOUS
 10
5.451160
 20
2.031480
  0
SEQEND
  8
0
  0
SOLID
  8
0
 62
     7
 10
5.467440
 20
2.027520
 11
6.113800
 21
2.385680
 12
5.481080
 22
2.015640
 13
6.127880
 23
2.373800
  0
POLYLINE
  8
0
  6
CONTINUOUS
 66
     1
 40
0.000000
 41
0.000000
  0
VERTEX
  8
0
  6
CONTINUOUS
 10
5.467440
 20
2.027520
  0
VERTEX
  8
0
  6
CONTINUOUS
 10
6.113800
 20
2.385680
  0
VERTEX
  8
0
  6
CONTINUOUS
 10
6.127880
 20
2.373800
  0
VERTEX
  8
0
  6
CONTINUOUS
 10
5.481080
 20
2.015640
  0
VERTEX
  8
0
  6
CONTINUOUS
 10
5.467440
 20
2.027520
  0
SEQEND
  8
0
  0
SOLID
  8
0
 62
     7
 10
5.481080
 20
2.015640
 11
6.127880
 21
2.373800
 12
5.489880
 22
1.998480
 13
6.136240
 23
2.356640
  0
POLYLINE
  8
0
  6
CONTINUOUS
 66
     1
 40
0.000000
 41
0.000000
  0
VERTEX
  8
0
  6
CONTINUOUS
 10
5.481080
 20
2.015640
  0
VERTEX
  8
0
  6
CONTINUOUS
 10
6.127880
 20
2.373800
  0
VERTEX
  8
0
  6
CONTINUOUS
 10
6.136240
 20
2.356640
  0
VERTEX
  8
0
  6
CONTINUOUS
 10
5.489880
 20
1.998480
  0
VERTEX
  8
0
  6
CONTINUOUS
 10
5.481080
 20
2.015640
  0
SEQEND
  8
0
  0
SOLID
  8
0
 62
     7
 10
5.489880
 20
1.998480
 11
6.136240
 21
2.356640
 12
5.489440
 22
1.977360
 13
6.136240
 23
2.335520
  0
POLYLINE
  8
0
  6
CONTINUOUS
 66
     1
 40
0.000000
 41
0.000000
  0
VERTEX
  8
0
  6
CONTINUOUS
 10
5.489880
 20
1.998480
  0
VERTEX
  8
0
  6
CONTINUOUS
 10
6.136240
 20
2.356640
  0
VERTEX
  8
0
  6
CONTINUOUS
 10
6.136240
 20
2.335520
  0
VERTEX
  8
0
  6
CONTINUOUS
 10
5.489440
 20
1.977360
  0
VERTEX
  8
0
  6
CONTINUOUS
 10
5.489880
 20
1.998480
  0
SEQEND
  8
0
  0
SOLID
  8
0
 62
    15
 10
5.489440
 20
1.977360
 11
6.136240
 21
2.335520
 12
5.489000
 22
1.976040
 13
6.135800
 23
2.334200
  0
POLYLINE
  8
0
  6
CONTINUOUS
 66
     1
 40
0.000000
 41
0.000000
  0
VERTEX
  8
0
  6
CONTINUOUS
 10
5.489440
 20
1.977360
  0
VERTEX
  8
0
  6
CONTINUOUS
 10
6.136240
 20
2.335520
  0
VERTEX
  8
0
  6
CONTINUOUS
 10
6.135800
 20
2.334200
  0
VERTEX
  8
0
  6
CONTINUOUS
 10
5.489000
 20
1.976040
  0
VERTEX
  8
0
  6
CONTINUOUS
 10
5.489440
 20
1.977360
  0
SEQEND
  8
0
  0
SOLID
  8
0
 62
    15
 10
5.489000
 20
1.976040
 11
6.135800
 21
2.334200
 12
5.286160
 22
1.166440
 13
5.932960
 23
1.524600
  0
POLYLINE
  8
0
  6
CONTINUOUS
 66
     1
 40
0.000000
 41
0.000000
  0
VERTEX
  8
0
  6
CONTINUOUS
 10
5.489000
 20
1.976040
  0
VERTEX
  8
0
  6
CONTINUOUS
 10
6.135800
 20
2.334200
  0
VERTEX
  8
0
  6
CONTINUOUS
 10
5.932960
 20
1.524600
  0
VERTEX
  8
0
  6
CONTINUOUS
 10
5.286160
 20
1.166440
  0
VERTEX
  8
0
  6
CONTINUOUS
 10
5.489000
 20
1.976040
  0
SEQEND
  8
0
  0
SOLID
  8
0
 62
    15
 10
4.230600
 20
2.031480
 11
4.877400
 21
2.390080
 12
5.451160
 22
2.031480
 13
6.097520
 23
2.390080
  0
POLYLINE
  8
0
  6
CONTINUOUS
 66
     1
 40
0.000000
 41
0.000000
  0
VERTEX
  8
0
  6
CONTINUOUS
 10
4.230600
 20
2.031480
  0
VERTEX
  8
0
  6
CONTINUOUS
 10
4.877400
 20
2.390080
  0
VERTEX
  8
0
  6
CONTINUOUS
 10
6.097520
 20
2.390080
  0
VERTEX
  8
0
  6
CONTINUOUS
 10
5.451160
 20
2.031480
  0
VERTEX
  8
0
  6
CONTINUOUS
 10
4.230600
 20
2.031480
  0
SEQEND
  8
0
  0
SOLID
  8
0
 62
    15
 10
5.277360
 20
1.147960
 11
5.923720
 21
1.506120
 12
5.268560
 22
1.131240
 13
5.915360
 23
1.489400
  0
POLYLINE
  8
0
  6
CONTINUOUS
 66
     1
 40
0.000000
 41
0.000000
  0
VERTEX
  8
0
  6
CONTINUOUS
 10
5.277360
 20
1.147960
  0
VERTEX
  8
0
  6
CONTINUOUS
 10
5.923720
 20
1.506120
  0
VERTEX
  8
0
  6
CONTINUOUS
 10
5.915360
 20
1.489400
  0
VERTEX
  8
0
  6
CONTINUOUS
 10
5.268560
 20
1.131240
  0
VERTEX
  8
0
  6
CONTINUOUS
 10
5.277360
 20
1.147960
  0
SEQEND
  8
0
  0
SOLID
  8
0
 62
    15
 10
5.268560
 20
1.131240
 11
5.915360
 21
1.489400
 12
5.251400
 22
1.102640
 13
5.898200
 23
1.460800
  0
POLYLINE
  8
0
  6
CONTINUOUS
 66
     1
 40
0.000000
 41
0.000000
  0
VERTEX
  8
0
  6
CONTINUOUS
 10
5.268560
 20
1.131240
  0
VERTEX
  8
0
  6
CONTINUOUS
 10
5.915360
 20
1.489400
  0
VERTEX
  8
0
  6
CONTINUOUS
 10
5.898200
 20
1.460800
  0
VERTEX
  8
0
  6
CONTINUOUS
 10
5.251400
 20
1.102640
  0
VERTEX
  8
0
  6
CONTINUOUS
 10
5.268560
 20
1.131240
  0
SEQEND
  8
0
  0
SOLID
  8
0
 62
    15
 10
5.230280
 20
1.079760
 11
5.877080
 21
1.438360
 12
5.200360
 22
1.062600
 13
5.847160
 23
1.420760
  0
POLYLINE
  8
0
  6
CONTINUOUS
 66
     1
 40
0.000000
 41
0.000000
  0
VERTEX
  8
0
  6
CONTINUOUS
 10
5.230280
 20
1.079760
  0
VERTEX
  8
0
  6
CONTINUOUS
 10
5.877080
 20
1.438360
  0
VERTEX
  8
0
  6
CONTINUOUS
 10
5.847160
 20
1.420760
  0
VERTEX
  8
0
  6
CONTINUOUS
 10
5.200360
 20
1.062600
  0
VERTEX
  8
0
  6
CONTINUOUS
 10
5.230280
 20
1.079760
  0
SEQEND
  8
0
  0
SOLID
  8
0
 62
    15
 10
5.251400
 20
1.102640
 11
5.898200
 21
1.460800
 12
5.230280
 22
1.079760
 13
5.877080
 23
1.438360
  0
POLYLINE
  8
0
  6
CONTINUOUS
 66
     1
 40
0.000000
 41
0.000000
  0
VERTEX
  8
0
  6
CONTINUOUS
 10
5.251400
 20
1.102640
  0
VERTEX
  8
0
  6
CONTINUOUS
 10
5.898200
 20
1.460800
  0
VERTEX
  8
0
  6
CONTINUOUS
 10
5.877080
 20
1.438360
  0
VERTEX
  8
0
  6
CONTINUOUS
 10
5.230280
 20
1.079760
  0
VERTEX
  8
0
  6
CONTINUOUS
 10
5.251400
 20
1.102640
  0
SEQEND
  8
0
  0
SOLID
  8
0
 62
     7
 10
4.090240
 20
2.034120
 11
4.736600
 21
2.392280
 12
4.090240
 22
2.031480
 13
4.737040
 23
2.390080
  0
POLYLINE
  8
0
  6
CONTINUOUS
 66
     1
 40
0.000000
 41
0.000000
  0
VERTEX
  8
0
  6
CONTINUOUS
 10
4.090240
 20
2.034120
  0
VERTEX
  8
0
  6
CONTINUOUS
 10
4.736600
 20
2.392280
  0
VERTEX
  8
0
  6
CONTINUOUS
 10
4.737040
 20
2.390080
  0
VERTEX
  8
0
  6
CONTINUOUS
 10
4.090240
 20
2.031480
  0
VERTEX
  8
0
  6
CONTINUOUS
 10
4.090240
 20
2.034120
  0
SEQEND
  8
0
  0
SOLID
  8
0
 62
    15
 10
4.090240
 20
2.031480
 11
4.737040
 21
2.390080
 12
4.217840
 22
2.031480
 13
4.864640
 23
2.390080
  0
POLYLINE
  8
0
  6
CONTINUOUS
 66
     1
 40
0.000000
 41
0.000000
  0
VERTEX
  8
0
  6
CONTINUOUS
 10
4.090240
 20
2.031480
  0
VERTEX
  8
0
  6
CONTINUOUS
 10
4.737040
 20
2.390080
  0
VERTEX
  8
0
  6
CONTINUOUS
 10
4.864640
 20
2.390080
  0
VERTEX
  8
0
  6
CONTINUOUS
 10
4.217840
 20
2.031480
  0
VERTEX
  8
0
  6
CONTINUOUS
 10
4.090240
 20
2.031480
  0
SEQEND
  8
0
  0
SOLID
  8
0
 62
    15
 10
4.217840
 20
2.031480
 11
4.864640
 21
2.390080
 12
4.230600
 22
2.031480
 13
4.877400
 23
2.390080
  0
POLYLINE
  8
0
  6
CONTINUOUS
 66
     1
 40
0.000000
 41
0.000000
  0
VERTEX
  8
0
  6
CONTINUOUS
 10
4.217840
 20
2.031480
  0
VERTEX
  8
0
  6
CONTINUOUS
 10
4.864640
 20
2.390080
  0
VERTEX
  8
0
  6
CONTINUOUS
 10
4.877400
 20
2.390080
  0
VERTEX
  8
0
  6
CONTINUOUS
 10
4.230600
 20
2.031480
  0
VERTEX
  8
0
  6
CONTINUOUS
 10
4.217840
 20
2.031480
  0
SEQEND
  8
0
  0
POLYLINE
  8
0
  6
CONTINUOUS
 66
     1
 40
0.000000
 41
0.000000
  0
VERTEX
  8
0
  6
CONTINUOUS
 10
4.230600
 20
2.031480
  0
VERTEX
  8
0
  6
CONTINUOUS
 10
5.451160
 20
2.031480
  0
VERTEX
  8
0
  6
CONTINUOUS
 10
5.467440
 20
2.027520
  0
VERTEX
  8
0
  6
CONTINUOUS
 10
5.481080
 20
2.015640
  0
VERTEX
  8
0
  6
CONTINUOUS
 10
5.489880
 20
1.998480
  0
VERTEX
  8
0
  6
CONTINUOUS
 10
5.489440
 20
1.977360
  0
VERTEX
  8
0
  6
CONTINUOUS
 10
5.489000
 20
1.976040
  0
VERTEX
  8
0
  6
CONTINUOUS
 10
5.286160
 20
1.166440
  0
VERTEX
  8
0
  6
CONTINUOUS
 10
5.277360
 20
1.147960
  0
VERTEX
  8
0
  6
CONTINUOUS
 10
5.268560
 20
1.131240
  0
VERTEX
  8
0
  6
CONTINUOUS
 10
5.251400
 20
1.102640
  0
VERTEX
  8
0
  6
CONTINUOUS
 10
5.230280
 20
1.079760
  0
VERTEX
  8
0
  6
CONTINUOUS
 10
5.200360
 20
1.062600
  0
VERTEX
  8
0
  6
CONTINUOUS
 10
5.157680
 20
1.049840
  0
VERTEX
  8
0
  6
CONTINUOUS
 10
5.129960
 20
1.045000
  0
VERTEX
  8
0
  6
CONTINUOUS
 10
5.097400
 20
1.041040
  0
VERTEX
  8
0
  6
CONTINUOUS
 10
5.059560
 20
1.038400
  0
VERTEX
  8
0
  6
CONTINUOUS
 10
5.015560
 20
1.036640
  0
VERTEX
  8
0
  6
CONTINUOUS
 10
4.964960
 20
1.035320
  0
VERTEX
  8
0
  6
CONTINUOUS
 10
4.906880
 20
1.034880
  0
VERTEX
  8
0
  6
CONTINUOUS
 10
4.091560
 20
1.034880
  0
VERTEX
  8
0
  6
CONTINUOUS
 10
4.090240
 20
1.037520
  0
VERTEX
  8
0
  6
CONTINUOUS
 10
4.090240
 20
2.034120
  0
VERTEX
  8
0
  6
CONTINUOUS
 10
4.090240
 20
2.031480
  0
VERTEX
  8
0
  6
CONTINUOUS
 10
4.217840
 20
2.031480
  0
VERTEX
  8
0
  6
CONTINUOUS
 10
4.230600
 20
2.031480
  0
SEQEND
  8
0
  0
TEXT
  8
0
 10
4.817120
 20
0.780560
 40
0.138047
  1
BA  945
 41
1.000000
  7
SN0
 71
     0
 72
     5
 11
5.406587
 21
0.780560
  0
TEXT
  8
0
 10
4.730440
 20
0.589160
 40
0.138047
  1
1" x 1-3/8"
 41
1.000000
  7
SN0
 71
     0
 72
     5
 11
5.491752
 21
0.589160
  0
POLYLINE
  8
0
  6
CONTINUOUS
 66
     1
 40
0.014080
 41
0.014080
  0
VERTEX
  8
0
  6
CONTINUOUS
 10
6.454800
 20
2.423520
  0
VERTEX
  8
0
  6
CONTINUOUS
 10
7.675360
 20
2.423520
  0
VERTEX
  8
0
  6
CONTINUOUS
 10
7.683720
 20
2.422200
  0
VERTEX
  8
0
  6
CONTINUOUS
 10
7.691640
 20
2.419120
  0
VERTEX
  8
0
  6
CONTINUOUS
 10
7.699120
 20
2.414280
  0
VERTEX
  8
0
  6
CONTINUOUS
 10
7.705720
 20
2.407240
  0
VERTEX
  8
0
  6
CONTINUOUS
 10
7.710560
 20
2.399320
  0
VERTEX
  8
0
  6
CONTINUOUS
 10
7.714080
 20
2.390080
  0
VERTEX
  8
0
  6
CONTINUOUS
 10
7.714960
 20
2.385240
  0
VERTEX
  8
0
  6
CONTINUOUS
 10
7.714960
 20
2.374680
  0
VERTEX
  8
0
  6
CONTINUOUS
 10
7.713640
 20
2.368960
  0
VERTEX
  8
0
  6
CONTINUOUS
 10
7.713200
 20
2.367640
  0
VERTEX
  8
0
  6
CONTINUOUS
 10
7.510360
 20
1.558040
  0
VERTEX
  8
0
  6
CONTINUOUS
 10
7.501120
 20
1.539560
  0
VERTEX
  8
0
  6
CONTINUOUS
 10
7.492760
 20
1.523280
  0
VERTEX
  8
0
  6
CONTINUOUS
 10
7.484400
 20
1.507880
  0
VERTEX
  8
0
  6
CONTINUOUS
 10
7.475600
 20
1.494680
  0
VERTEX
  8
0
  6
CONTINUOUS
 10
7.465920
 20
1.482360
  0
VERTEX
  8
0
  6
CONTINUOUS
 10
7.454480
 20
1.471800
  0
VERTEX
  8
0
  6
CONTINUOUS
 10
7.447880
 20
1.466960
  0
VERTEX
  8
0
  6
CONTINUOUS
 10
7.440840
 20
1.462120
  0
VERTEX
  8
0
  6
CONTINUOUS
 10
7.433360
 20
1.458160
  0
VERTEX
  8
0
  6
CONTINUOUS
 10
7.424560
 20
1.454200
  0
VERTEX
  8
0
  6
CONTINUOUS
 10
7.415320
 20
1.450680
  0
VERTEX
  8
0
  6
CONTINUOUS
 10
7.405200
 20
1.447160
  0
VERTEX
  8
0
  6
CONTINUOUS
 10
7.394200
 20
1.444080
  0
VERTEX
  8
0
  6
CONTINUOUS
 10
7.381880
 20
1.441440
  0
VERTEX
  8
0
  6
CONTINUOUS
 10
7.368680
 20
1.438800
  0
VERTEX
  8
0
  6
CONTINUOUS
 10
7.354160
 20
1.436600
  0
VERTEX
  8
0
  6
CONTINUOUS
 10
7.338760
 20
1.434840
  0
VERTEX
  8
0
  6
CONTINUOUS
 10
7.321600
 20
1.433080
  0
VERTEX
  8
0
  6
CONTINUOUS
 10
7.303120
 20
1.431760
  0
VERTEX
  8
0
  6
CONTINUOUS
 10
7.283760
 20
1.430440
  0
VERTEX
  8
0
  6
CONTINUOUS
 10
7.262200
 20
1.429120
  0
VERTEX
  8
0
  6
CONTINUOUS
 10
7.239320
 20
1.428240
  0
VERTEX
  8
0
  6
CONTINUOUS
 10
7.215120
 20
1.427800
  0
VERTEX
  8
0
  6
CONTINUOUS
 10
7.188720
 20
1.427360
  0
VERTEX
  8
0
  6
CONTINUOUS
 10
7.161000
 20
1.426920
  0
VERTEX
  8
0
  6
CONTINUOUS
 10
7.131080
 20
1.426920
  0
VERTEX
  8
0
  6
CONTINUOUS
 10
6.315760
 20
1.426920
  0
VERTEX
  8
0
  6
CONTINUOUS
 10
6.314440
 20
1.429120
  0
VERTEX
  8
0
  6
CONTINUOUS
 10
6.314440
 20
2.426160
  0
VERTEX
  8
0
  6
CONTINUOUS
 10
6.314440
 20
2.423520
  0
VERTEX
  8
0
  6
CONTINUOUS
 10
6.454800
 20
2.423520
  0
SEQEND
  8
0
  0
TEXT
  8
0
 10
6.794920
 20
1.737120
 40
0.138047
  1
945
 41
1.000000
  7
SN0
 71
     0
 72
     5
 11
7.071579
 21
1.737120
  0
TEXT
  8
0
 10
6.551600
 20
1.545720
 40
0.138047
  1
1" x 1-3/8"
 41
1.000000
  7
SN0
 71
     0
 72
     5
 11
7.312912
 21
1.545720
  0
ENDSEC
  0
EOF
