  0
SECTION
  2
HEADER
  9
$ACADVER
  1
AC1006
  9
$EXTMIN
 10
2.803680
 20
0.689480
  9
$EXTMAX
 10
7.810440
 20
4.415840
  9
$LTSCALE
 40
0.044000
  9
$PDMODE
 70
    35
  9
$PDSIZE
 40
0.035200
  0
ENDSEC
  0
SECTION
  2
TABLES
  0
TABLE
  2
LTYPE
 70
     9
  0
LTYPE
  2
CONTINUOUS
 70
    64
  3
Solid line
 72
    65
 73
     0
 40
0.000000
  0
LTYPE
  2
DASHED
 70
    64
  3
__ __ __ __ __ __ __ __ __ __ __ __ __ __ __
 72
    65
 73
     2
 40
0.000330
 49
0.000220
 49
-0.000110
  0
LTYPE
  2
HIDDEN
 70
    64
  3
 _ _ _ _ _ _ _ _ _ _ _ _ _ _ _ _ _ _ _ _ _ _
 72
    65
 73
     2
 40
0.000165
 49
0.000110
 49
-0.000055
  0
LTYPE
  2
CENTER
 70
    64
  3
____ _ ____ _ ____ _ ____ _ ____ _ ____ _ ____
 72
    65
 73
     4
 40
0.000880
 49
0.000550
 49
-0.000110
 49
0.000110
 49
-0.000110
  0
LTYPE
  2
PHANTOM
 70
    64
  3
_____ _ _ _____ _ _ _____ _ _ _____ _ _ ____
 72
    65
 73
     6
 40
0.001100
 49
0.000550
 49
-0.000110
 49
0.000110
 49
-0.000110
 49
0.000110
 49
-0.000110
  0
LTYPE
  2
DOT
 70
    64
  3
...............................................
 72
    65
 73
     2
 40
0.000110
 49
0.000000
 49
-0.000110
  0
LTYPE
  2
DASHDOT
 70
    64
  3
__ . __ . __ . __ . __ . __ . __ . __ . __ . __
 72
    65
 73
     4
 40
0.000440
 49
0.000220
 49
-0.000110
 49
0.000000
 49
-0.000110
  0
LTYPE
  2
BORDER
 70
    64
  3
__ __ . __ __ . __ __ . __ __ . __ __ . __ __
 72
    65
 73
     6
 40
0.000770
 49
0.000220
 49
-0.000110
 49
0.000220
 49
-0.000110
 49
0.000000
 49
-0.000110
  0
LTYPE
  2
DIVIDE
 70
    64
  3
__ . . __ . . __ . . __ . . __ . . __ . . __
 72
    65
 73
     6
 40
0.000550
 49
0.000220
 49
-0.000110
 49
0.000000
 49
-0.000110
 49
0.000000
 49
-0.000110
  0
LTYPE
  2
DOTDOT
 70
    64
  3
 . .  . .  . .  . .  . .  . . 
 72
    65
 73
     5
 40
0.000242
 49
-0.000110
 49
0.000000
 49
-0.000110
 49
0.000000
 49
-0.000110
  0
ENDTAB
  0
TABLE
  2
STYLE
 70
     2
  0
STYLE
 70
     0
  2
SN0
 40
0.000000
 41
0.000440
 50
0.000000
 71
     0
 42
0.000000
  3
ROMAND
  0
STYLE
 70
    68
  2
SV0
 40
0.000000
 41
0.000440
 50
0.000000
 71
     0
 42
0.000000
  3
ROMAND
  0
ENDTAB
  0
TABLE
  2
LAYER
 70
     3
  0
LAYER
  2
FOREGROUND
 70
    64
 62
     7
  6
CONTINUOUS
  0
LAYER
  2
BACKGROUND
 70
    65
 62
    -7
  6
CONTINUOUS
  0
LAYER
  2
0
 70
    64
 62
     7
  6
CONTINUOUS
  0
ENDTAB
  0
ENDSEC
  0
SECTION
  2
ENTITIES
  0
POLYLINE
  8
FOREGROUND
  6
CONTINUOUS
 66
     1
 40
0.000000
 41
0.000000
  0
VERTEX
  8
FOREGROUND
  6
CONTINUOUS
 10
0.000000
 20
5.105320
  0
VERTEX
  8
FOREGROUND
  6
CONTINUOUS
 10
8.499920
 20
5.105320
  0
VERTEX
  8
FOREGROUND
  6
CONTINUOUS
 10
8.499920
 20
-5.894680
  0
VERTEX
  8
FOREGROUND
  6
CONTINUOUS
 10
0.000000
 20
-5.894680
  0
VERTEX
  8
FOREGROUND
  6
CONTINUOUS
 10
0.000000
 20
5.105320
  0
SEQEND
  8
0
  0
POLYLINE
  8
FOREGROUND
  6
CONTINUOUS
 66
     1
 40
0.000000
 41
0.000000
  0
VERTEX
  8
FOREGROUND
  6
CONTINUOUS
 10
0.000000
 20
5.105320
  0
VERTEX
  8
FOREGROUND
  6
CONTINUOUS
 10
8.499920
 20
5.105320
  0
VERTEX
  8
FOREGROUND
  6
CONTINUOUS
 10
8.499920
 20
-5.894680
  0
VERTEX
  8
FOREGROUND
  6
CONTINUOUS
 10
0.000000
 20
-5.894680
  0
VERTEX
  8
FOREGROUND
  6
CONTINUOUS
 10
0.000000
 20
5.105320
  0
SEQEND
  8
0
  0
SOLID
  8
0
 62
    15
 10
4.146120
 20
1.905200
 11
4.142600
 21
2.643520
 12
6.559520
 22
1.905200
 13
6.556000
 23
2.643520
  0
POLYLINE
  8
0
  6
CONTINUOUS
 66
     1
 40
0.000000
 41
0.000000
  0
VERTEX
  8
0
  6
CONTINUOUS
 10
4.146120
 20
1.905200
  0
VERTEX
  8
0
  6
CONTINUOUS
 10
4.142600
 20
2.643520
  0
VERTEX
  8
0
  6
CONTINUOUS
 10
6.556000
 20
2.643520
  0
VERTEX
  8
0
  6
CONTINUOUS
 10
6.559520
 20
1.905200
  0
VERTEX
  8
0
  6
CONTINUOUS
 10
4.146120
 20
1.905200
  0
SEQEND
  8
0
  0
SOLID
  8
0
 62
    15
 10
2.902680
 20
1.227160
 11
2.899160
 21
1.965480
 12
2.902680
 22
2.288000
 13
2.899160
 23
3.026320
  0
POLYLINE
  8
0
  6
CONTINUOUS
 66
     1
 40
0.000000
 41
0.000000
  0
VERTEX
  8
0
  6
CONTINUOUS
 10
2.902680
 20
1.227160
  0
VERTEX
  8
0
  6
CONTINUOUS
 10
2.899160
 20
1.965480
  0
VERTEX
  8
0
  6
CONTINUOUS
 10
2.899160
 20
3.026320
  0
VERTEX
  8
0
  6
CONTINUOUS
 10
2.902680
 20
2.288000
  0
VERTEX
  8
0
  6
CONTINUOUS
 10
2.902680
 20
1.227160
  0
SEQEND
  8
0
  0
SOLID
  8
0
 62
    15
 10
3.773440
 20
2.288000
 11
3.769920
 21
3.026320
 12
3.788840
 22
2.169200
 13
3.785320
 23
2.907080
  0
POLYLINE
  8
0
  6
CONTINUOUS
 66
     1
 40
0.000000
 41
0.000000
  0
VERTEX
  8
0
  6
CONTINUOUS
 10
3.773440
 20
2.288000
  0
VERTEX
  8
0
  6
CONTINUOUS
 10
3.769920
 20
3.026320
  0
VERTEX
  8
0
  6
CONTINUOUS
 10
3.785320
 20
2.907080
  0
VERTEX
  8
0
  6
CONTINUOUS
 10
3.788840
 20
2.169200
  0
VERTEX
  8
0
  6
CONTINUOUS
 10
3.773440
 20
2.288000
  0
SEQEND
  8
0
  0
SOLID
  8
0
 62
    15
 10
3.788840
 20
2.169200
 11
3.785320
 21
2.907080
 12
3.866720
 22
2.163920
 13
3.863200
 23
2.902240
  0
POLYLINE
  8
0
  6
CONTINUOUS
 66
     1
 40
0.000000
 41
0.000000
  0
VERTEX
  8
0
  6
CONTINUOUS
 10
3.788840
 20
2.169200
  0
VERTEX
  8
0
  6
CONTINUOUS
 10
3.785320
 20
2.907080
  0
VERTEX
  8
0
  6
CONTINUOUS
 10
3.863200
 20
2.902240
  0
VERTEX
  8
0
  6
CONTINUOUS
 10
3.866720
 20
2.163920
  0
VERTEX
  8
0
  6
CONTINUOUS
 10
3.788840
 20
2.169200
  0
SEQEND
  8
0
  0
SOLID
  8
0
 62
    15
 10
3.866720
 20
2.163920
 11
3.863200
 21
2.902240
 12
3.880800
 22
2.121240
 13
3.877280
 23
2.859560
  0
POLYLINE
  8
0
  6
CONTINUOUS
 66
     1
 40
0.000000
 41
0.000000
  0
VERTEX
  8
0
  6
CONTINUOUS
 10
3.866720
 20
2.163920
  0
VERTEX
  8
0
  6
CONTINUOUS
 10
3.863200
 20
2.902240
  0
VERTEX
  8
0
  6
CONTINUOUS
 10
3.877280
 20
2.859560
  0
VERTEX
  8
0
  6
CONTINUOUS
 10
3.880800
 20
2.121240
  0
VERTEX
  8
0
  6
CONTINUOUS
 10
3.866720
 20
2.163920
  0
SEQEND
  8
0
  0
SOLID
  8
0
 62
    15
 10
3.880800
 20
2.121240
 11
3.877280
 21
2.859560
 12
3.903240
 22
2.086040
 13
3.899720
 23
2.824360
  0
POLYLINE
  8
0
  6
CONTINUOUS
 66
     1
 40
0.000000
 41
0.000000
  0
VERTEX
  8
0
  6
CONTINUOUS
 10
3.880800
 20
2.121240
  0
VERTEX
  8
0
  6
CONTINUOUS
 10
3.877280
 20
2.859560
  0
VERTEX
  8
0
  6
CONTINUOUS
 10
3.899720
 20
2.824360
  0
VERTEX
  8
0
  6
CONTINUOUS
 10
3.903240
 20
2.086040
  0
VERTEX
  8
0
  6
CONTINUOUS
 10
3.880800
 20
2.121240
  0
SEQEND
  8
0
  0
SOLID
  8
0
 62
    15
 10
3.903240
 20
2.086040
 11
3.899720
 21
2.824360
 12
3.932280
 22
2.057880
 13
3.928760
 23
2.796200
  0
POLYLINE
  8
0
  6
CONTINUOUS
 66
     1
 40
0.000000
 41
0.000000
  0
VERTEX
  8
0
  6
CONTINUOUS
 10
3.903240
 20
2.086040
  0
VERTEX
  8
0
  6
CONTINUOUS
 10
3.899720
 20
2.824360
  0
VERTEX
  8
0
  6
CONTINUOUS
 10
3.928760
 20
2.796200
  0
VERTEX
  8
0
  6
CONTINUOUS
 10
3.932280
 20
2.057880
  0
VERTEX
  8
0
  6
CONTINUOUS
 10
3.903240
 20
2.086040
  0
SEQEND
  8
0
  0
SOLID
  8
0
 62
    15
 10
3.932280
 20
2.057880
 11
3.928760
 21
2.796200
 12
3.966600
 22
2.036320
 13
3.963080
 23
2.774200
  0
POLYLINE
  8
0
  6
CONTINUOUS
 66
     1
 40
0.000000
 41
0.000000
  0
VERTEX
  8
0
  6
CONTINUOUS
 10
3.932280
 20
2.057880
  0
VERTEX
  8
0
  6
CONTINUOUS
 10
3.928760
 20
2.796200
  0
VERTEX
  8
0
  6
CONTINUOUS
 10
3.963080
 20
2.774200
  0
VERTEX
  8
0
  6
CONTINUOUS
 10
3.966600
 20
2.036320
  0
VERTEX
  8
0
  6
CONTINUOUS
 10
3.932280
 20
2.057880
  0
SEQEND
  8
0
  0
SOLID
  8
0
 62
    15
 10
3.966600
 20
2.036320
 11
3.963080
 21
2.774200
 12
4.005320
 22
2.020480
 13
4.001800
 23
2.758800
  0
POLYLINE
  8
0
  6
CONTINUOUS
 66
     1
 40
0.000000
 41
0.000000
  0
VERTEX
  8
0
  6
CONTINUOUS
 10
3.966600
 20
2.036320
  0
VERTEX
  8
0
  6
CONTINUOUS
 10
3.963080
 20
2.774200
  0
VERTEX
  8
0
  6
CONTINUOUS
 10
4.001800
 20
2.758800
  0
VERTEX
  8
0
  6
CONTINUOUS
 10
4.005320
 20
2.020480
  0
VERTEX
  8
0
  6
CONTINUOUS
 10
3.966600
 20
2.036320
  0
SEQEND
  8
0
  0
SOLID
  8
0
 62
    15
 10
4.005320
 20
2.020480
 11
4.001800
 21
2.758800
 12
4.047120
 22
2.009920
 13
4.043600
 23
2.748240
  0
POLYLINE
  8
0
  6
CONTINUOUS
 66
     1
 40
0.000000
 41
0.000000
  0
VERTEX
  8
0
  6
CONTINUOUS
 10
4.005320
 20
2.020480
  0
VERTEX
  8
0
  6
CONTINUOUS
 10
4.001800
 20
2.758800
  0
VERTEX
  8
0
  6
CONTINUOUS
 10
4.043600
 20
2.748240
  0
VERTEX
  8
0
  6
CONTINUOUS
 10
4.047120
 20
2.009920
  0
VERTEX
  8
0
  6
CONTINUOUS
 10
4.005320
 20
2.020480
  0
SEQEND
  8
0
  0
SOLID
  8
0
 62
    15
 10
4.047120
 20
2.009920
 11
4.043600
 21
2.748240
 12
4.132920
 22
2.003760
 13
4.129400
 23
2.741640
  0
POLYLINE
  8
0
  6
CONTINUOUS
 66
     1
 40
0.000000
 41
0.000000
  0
VERTEX
  8
0
  6
CONTINUOUS
 10
4.047120
 20
2.009920
  0
VERTEX
  8
0
  6
CONTINUOUS
 10
4.043600
 20
2.748240
  0
VERTEX
  8
0
  6
CONTINUOUS
 10
4.129400
 20
2.741640
  0
VERTEX
  8
0
  6
CONTINUOUS
 10
4.132920
 20
2.003760
  0
VERTEX
  8
0
  6
CONTINUOUS
 10
4.047120
 20
2.009920
  0
SEQEND
  8
0
  0
SOLID
  8
0
 62
    15
 10
4.132920
 20
2.003760
 11
4.129400
 21
2.741640
 12
4.146120
 22
1.905200
 13
4.142600
 23
2.643520
  0
POLYLINE
  8
0
  6
CONTINUOUS
 66
     1
 40
0.000000
 41
0.000000
  0
VERTEX
  8
0
  6
CONTINUOUS
 10
4.132920
 20
2.003760
  0
VERTEX
  8
0
  6
CONTINUOUS
 10
4.129400
 20
2.741640
  0
VERTEX
  8
0
  6
CONTINUOUS
 10
4.142600
 20
2.643520
  0
VERTEX
  8
0
  6
CONTINUOUS
 10
4.146120
 20
1.905200
  0
VERTEX
  8
0
  6
CONTINUOUS
 10
4.132920
 20
2.003760
  0
SEQEND
  8
0
  0
SOLID
  8
0
 62
    15
 10
2.902680
 20
2.288000
 11
2.899160
 21
3.026320
 12
3.773440
 22
2.288000
 13
3.769920
 23
3.026320
  0
POLYLINE
  8
0
  6
CONTINUOUS
 66
     1
 40
0.000000
 41
0.000000
  0
VERTEX
  8
0
  6
CONTINUOUS
 10
2.902680
 20
2.288000
  0
VERTEX
  8
0
  6
CONTINUOUS
 10
2.899160
 20
3.026320
  0
VERTEX
  8
0
  6
CONTINUOUS
 10
3.769920
 20
3.026320
  0
VERTEX
  8
0
  6
CONTINUOUS
 10
3.773440
 20
2.288000
  0
VERTEX
  8
0
  6
CONTINUOUS
 10
2.902680
 20
2.288000
  0
SEQEND
  8
0
  0
SOLID
  8
0
 62
    15
 10
6.559520
 20
1.905200
 11
6.556000
 21
2.643520
 12
6.567000
 22
1.902120
 13
6.563480
 23
2.640440
  0
POLYLINE
  8
0
  6
CONTINUOUS
 66
     1
 40
0.000000
 41
0.000000
  0
VERTEX
  8
0
  6
CONTINUOUS
 10
6.559520
 20
1.905200
  0
VERTEX
  8
0
  6
CONTINUOUS
 10
6.556000
 20
2.643520
  0
VERTEX
  8
0
  6
CONTINUOUS
 10
6.563480
 20
2.640440
  0
VERTEX
  8
0
  6
CONTINUOUS
 10
6.567000
 20
1.902120
  0
VERTEX
  8
0
  6
CONTINUOUS
 10
6.559520
 20
1.905200
  0
SEQEND
  8
0
  0
SOLID
  8
0
 62
    15
 10
6.567000
 20
1.902120
 11
6.563480
 21
2.640440
 12
6.579760
 22
2.000680
 13
6.576240
 23
2.739000
  0
POLYLINE
  8
0
  6
CONTINUOUS
 66
     1
 40
0.000000
 41
0.000000
  0
VERTEX
  8
0
  6
CONTINUOUS
 10
6.567000
 20
1.902120
  0
VERTEX
  8
0
  6
CONTINUOUS
 10
6.563480
 20
2.640440
  0
VERTEX
  8
0
  6
CONTINUOUS
 10
6.576240
 20
2.739000
  0
VERTEX
  8
0
  6
CONTINUOUS
 10
6.579760
 20
2.000680
  0
VERTEX
  8
0
  6
CONTINUOUS
 10
6.567000
 20
1.902120
  0
SEQEND
  8
0
  0
SOLID
  8
0
 62
    15
 10
6.579760
 20
2.000680
 11
6.576240
 21
2.739000
 12
6.666000
 22
2.007280
 13
6.662480
 23
2.745160
  0
POLYLINE
  8
0
  6
CONTINUOUS
 66
     1
 40
0.000000
 41
0.000000
  0
VERTEX
  8
0
  6
CONTINUOUS
 10
6.579760
 20
2.000680
  0
VERTEX
  8
0
  6
CONTINUOUS
 10
6.576240
 20
2.739000
  0
VERTEX
  8
0
  6
CONTINUOUS
 10
6.662480
 20
2.745160
  0
VERTEX
  8
0
  6
CONTINUOUS
 10
6.666000
 20
2.007280
  0
VERTEX
  8
0
  6
CONTINUOUS
 10
6.579760
 20
2.000680
  0
SEQEND
  8
0
  0
SOLID
  8
0
 62
    15
 10
6.666000
 20
2.007280
 11
6.662480
 21
2.745160
 12
6.707360
 22
2.017400
 13
6.703840
 23
2.755720
  0
POLYLINE
  8
0
  6
CONTINUOUS
 66
     1
 40
0.000000
 41
0.000000
  0
VERTEX
  8
0
  6
CONTINUOUS
 10
6.666000
 20
2.007280
  0
VERTEX
  8
0
  6
CONTINUOUS
 10
6.662480
 20
2.745160
  0
VERTEX
  8
0
  6
CONTINUOUS
 10
6.703840
 20
2.755720
  0
VERTEX
  8
0
  6
CONTINUOUS
 10
6.707360
 20
2.017400
  0
VERTEX
  8
0
  6
CONTINUOUS
 10
6.666000
 20
2.007280
  0
SEQEND
  8
0
  0
SOLID
  8
0
 62
    15
 10
6.707360
 20
2.017400
 11
6.703840
 21
2.755720
 12
6.746080
 22
2.033240
 13
6.742560
 23
2.771560
  0
POLYLINE
  8
0
  6
CONTINUOUS
 66
     1
 40
0.000000
 41
0.000000
  0
VERTEX
  8
0
  6
CONTINUOUS
 10
6.707360
 20
2.017400
  0
VERTEX
  8
0
  6
CONTINUOUS
 10
6.703840
 20
2.755720
  0
VERTEX
  8
0
  6
CONTINUOUS
 10
6.742560
 20
2.771560
  0
VERTEX
  8
0
  6
CONTINUOUS
 10
6.746080
 20
2.033240
  0
VERTEX
  8
0
  6
CONTINUOUS
 10
6.707360
 20
2.017400
  0
SEQEND
  8
0
  0
SOLID
  8
0
 62
    15
 10
6.746080
 20
2.033240
 11
6.742560
 21
2.771560
 12
6.780400
 22
2.055240
 13
6.776880
 23
2.793120
  0
POLYLINE
  8
0
  6
CONTINUOUS
 66
     1
 40
0.000000
 41
0.000000
  0
VERTEX
  8
0
  6
CONTINUOUS
 10
6.746080
 20
2.033240
  0
VERTEX
  8
0
  6
CONTINUOUS
 10
6.742560
 20
2.771560
  0
VERTEX
  8
0
  6
CONTINUOUS
 10
6.776880
 20
2.793120
  0
VERTEX
  8
0
  6
CONTINUOUS
 10
6.780400
 20
2.055240
  0
VERTEX
  8
0
  6
CONTINUOUS
 10
6.746080
 20
2.033240
  0
SEQEND
  8
0
  0
SOLID
  8
0
 62
    15
 10
6.780400
 20
2.055240
 11
6.776880
 21
2.793120
 12
6.809440
 22
2.083400
 13
6.806360
 23
2.821280
  0
POLYLINE
  8
0
  6
CONTINUOUS
 66
     1
 40
0.000000
 41
0.000000
  0
VERTEX
  8
0
  6
CONTINUOUS
 10
6.780400
 20
2.055240
  0
VERTEX
  8
0
  6
CONTINUOUS
 10
6.776880
 20
2.793120
  0
VERTEX
  8
0
  6
CONTINUOUS
 10
6.806360
 20
2.821280
  0
VERTEX
  8
0
  6
CONTINUOUS
 10
6.809440
 20
2.083400
  0
VERTEX
  8
0
  6
CONTINUOUS
 10
6.780400
 20
2.055240
  0
SEQEND
  8
0
  0
SOLID
  8
0
 62
    15
 10
6.809440
 20
2.083400
 11
6.806360
 21
2.821280
 12
6.831880
 22
2.118600
 13
6.828360
 23
2.856480
  0
POLYLINE
  8
0
  6
CONTINUOUS
 66
     1
 40
0.000000
 41
0.000000
  0
VERTEX
  8
0
  6
CONTINUOUS
 10
6.809440
 20
2.083400
  0
VERTEX
  8
0
  6
CONTINUOUS
 10
6.806360
 20
2.821280
  0
VERTEX
  8
0
  6
CONTINUOUS
 10
6.828360
 20
2.856480
  0
VERTEX
  8
0
  6
CONTINUOUS
 10
6.831880
 20
2.118600
  0
VERTEX
  8
0
  6
CONTINUOUS
 10
6.809440
 20
2.083400
  0
SEQEND
  8
0
  0
SOLID
  8
0
 62
    15
 10
6.831880
 20
2.118600
 11
6.828360
 21
2.856480
 12
6.846400
 22
2.160840
 13
6.842880
 23
2.899160
  0
POLYLINE
  8
0
  6
CONTINUOUS
 66
     1
 40
0.000000
 41
0.000000
  0
VERTEX
  8
0
  6
CONTINUOUS
 10
6.831880
 20
2.118600
  0
VERTEX
  8
0
  6
CONTINUOUS
 10
6.828360
 20
2.856480
  0
VERTEX
  8
0
  6
CONTINUOUS
 10
6.842880
 20
2.899160
  0
VERTEX
  8
0
  6
CONTINUOUS
 10
6.846400
 20
2.160840
  0
VERTEX
  8
0
  6
CONTINUOUS
 10
6.831880
 20
2.118600
  0
SEQEND
  8
0
  0
SOLID
  8
0
 62
    15
 10
6.846400
 20
2.160840
 11
6.842880
 21
2.899160
 12
6.923840
 22
2.166120
 13
6.920320
 23
2.904440
  0
POLYLINE
  8
0
  6
CONTINUOUS
 66
     1
 40
0.000000
 41
0.000000
  0
VERTEX
  8
0
  6
CONTINUOUS
 10
6.846400
 20
2.160840
  0
VERTEX
  8
0
  6
CONTINUOUS
 10
6.842880
 20
2.899160
  0
VERTEX
  8
0
  6
CONTINUOUS
 10
6.920320
 20
2.904440
  0
VERTEX
  8
0
  6
CONTINUOUS
 10
6.923840
 20
2.166120
  0
VERTEX
  8
0
  6
CONTINUOUS
 10
6.846400
 20
2.160840
  0
SEQEND
  8
0
  0
SOLID
  8
0
 62
    15
 10
6.923840
 20
2.166120
 11
6.920320
 21
2.904440
 12
6.939240
 22
2.285360
 13
6.935720
 23
3.023240
  0
POLYLINE
  8
0
  6
CONTINUOUS
 66
     1
 40
0.000000
 41
0.000000
  0
VERTEX
  8
0
  6
CONTINUOUS
 10
6.923840
 20
2.166120
  0
VERTEX
  8
0
  6
CONTINUOUS
 10
6.920320
 20
2.904440
  0
VERTEX
  8
0
  6
CONTINUOUS
 10
6.935720
 20
3.023240
  0
VERTEX
  8
0
  6
CONTINUOUS
 10
6.939240
 20
2.285360
  0
VERTEX
  8
0
  6
CONTINUOUS
 10
6.923840
 20
2.166120
  0
SEQEND
  8
0
  0
SOLID
  8
0
 62
    15
 10
6.939240
 20
2.285360
 11
6.935720
 21
3.023240
 12
7.810000
 22
2.285360
 13
7.806480
 23
3.023240
  0
POLYLINE
  8
0
  6
CONTINUOUS
 66
     1
 40
0.000000
 41
0.000000
  0
VERTEX
  8
0
  6
CONTINUOUS
 10
6.939240
 20
2.285360
  0
VERTEX
  8
0
  6
CONTINUOUS
 10
6.935720
 20
3.023240
  0
VERTEX
  8
0
  6
CONTINUOUS
 10
7.806480
 20
3.023240
  0
VERTEX
  8
0
  6
CONTINUOUS
 10
7.810000
 20
2.285360
  0
VERTEX
  8
0
  6
CONTINUOUS
 10
6.939240
 20
2.285360
  0
SEQEND
  8
0
  0
POLYLINE
  8
0
  6
CONTINUOUS
 66
     1
 40
0.000000
 41
0.000000
  0
VERTEX
  8
0
  6
CONTINUOUS
 10
7.794160
 20
1.227160
  0
VERTEX
  8
0
  6
CONTINUOUS
 10
2.902680
 20
1.227160
  0
VERTEX
  8
0
  6
CONTINUOUS
 10
2.902680
 20
2.288000
  0
VERTEX
  8
0
  6
CONTINUOUS
 10
3.773440
 20
2.288000
  0
VERTEX
  8
0
  6
CONTINUOUS
 10
3.788840
 20
2.169200
  0
VERTEX
  8
0
  6
CONTINUOUS
 10
3.866720
 20
2.163920
  0
VERTEX
  8
0
  6
CONTINUOUS
 10
3.880800
 20
2.121240
  0
VERTEX
  8
0
  6
CONTINUOUS
 10
3.903240
 20
2.086040
  0
VERTEX
  8
0
  6
CONTINUOUS
 10
3.932280
 20
2.057880
  0
VERTEX
  8
0
  6
CONTINUOUS
 10
3.966600
 20
2.036320
  0
VERTEX
  8
0
  6
CONTINUOUS
 10
4.005320
 20
2.020480
  0
VERTEX
  8
0
  6
CONTINUOUS
 10
4.047120
 20
2.009920
  0
VERTEX
  8
0
  6
CONTINUOUS
 10
4.132920
 20
2.003760
  0
VERTEX
  8
0
  6
CONTINUOUS
 10
4.146120
 20
1.905200
  0
VERTEX
  8
0
  6
CONTINUOUS
 10
6.559520
 20
1.905200
  0
VERTEX
  8
0
  6
CONTINUOUS
 10
6.567000
 20
1.902120
  0
VERTEX
  8
0
  6
CONTINUOUS
 10
6.579760
 20
2.000680
  0
VERTEX
  8
0
  6
CONTINUOUS
 10
6.666000
 20
2.007280
  0
VERTEX
  8
0
  6
CONTINUOUS
 10
6.707360
 20
2.017400
  0
VERTEX
  8
0
  6
CONTINUOUS
 10
6.746080
 20
2.033240
  0
VERTEX
  8
0
  6
CONTINUOUS
 10
6.780400
 20
2.055240
  0
VERTEX
  8
0
  6
CONTINUOUS
 10
6.809440
 20
2.083400
  0
VERTEX
  8
0
  6
CONTINUOUS
 10
6.831880
 20
2.118600
  0
VERTEX
  8
0
  6
CONTINUOUS
 10
6.846400
 20
2.160840
  0
VERTEX
  8
0
  6
CONTINUOUS
 10
6.923840
 20
2.166120
  0
VERTEX
  8
0
  6
CONTINUOUS
 10
6.939240
 20
2.285360
  0
VERTEX
  8
0
  6
CONTINUOUS
 10
7.810000
 20
2.285360
  0
VERTEX
  8
0
  6
CONTINUOUS
 10
7.810000
 20
1.224520
  0
VERTEX
  8
0
  6
CONTINUOUS
 10
7.794160
 20
1.227160
  0
SEQEND
  8
0
  0
TEXT
  8
0
 10
5.058680
 20
0.924440
 40
0.138150
  1
BA  941
 41
1.000000
  7
SN0
 71
     0
 72
     5
 11
5.649978
 21
0.924440
  0
TEXT
  8
0
 10
4.880040
 20
0.732600
 40
0.138150
  1
1" x 4-15/16"
 41
1.000000
  7
SN0
 71
     0
 72
     5
 11
5.828571
 21
0.732600
  0
POLYLINE
  8
0
  6
CONTINUOUS
 66
     1
 40
0.014080
 41
0.014080
  0
VERTEX
  8
0
  6
CONTINUOUS
 10
7.703080
 20
3.347520
  0
VERTEX
  8
0
  6
CONTINUOUS
 10
2.811160
 20
3.347520
  0
VERTEX
  8
0
  6
CONTINUOUS
 10
2.811160
 20
4.408360
  0
VERTEX
  8
0
  6
CONTINUOUS
 10
3.681920
 20
4.408360
  0
VERTEX
  8
0
  6
CONTINUOUS
 10
3.697320
 20
4.289120
  0
VERTEX
  8
0
  6
CONTINUOUS
 10
3.775200
 20
4.284280
  0
VERTEX
  8
0
  6
CONTINUOUS
 10
3.784880
 20
4.251280
  0
VERTEX
  8
0
  6
CONTINUOUS
 10
3.794120
 20
4.231920
  0
VERTEX
  8
0
  6
CONTINUOUS
 10
3.811720
 20
4.206400
  0
VERTEX
  8
0
  6
CONTINUOUS
 10
3.825360
 20
4.191440
  0
VERTEX
  8
0
  6
CONTINUOUS
 10
3.857480
 20
4.166360
  0
VERTEX
  8
0
  6
CONTINUOUS
 10
3.875520
 20
4.156240
  0
VERTEX
  8
0
  6
CONTINUOUS
 10
3.914240
 20
4.140400
  0
VERTEX
  8
0
  6
CONTINUOUS
 10
3.955600
 20
4.130280
  0
VERTEX
  8
0
  6
CONTINUOUS
 10
3.998280
 20
4.124560
  0
VERTEX
  8
0
  6
CONTINUOUS
 10
4.041400
 20
4.123680
  0
VERTEX
  8
0
  6
CONTINUOUS
 10
4.054600
 20
4.025560
  0
VERTEX
  8
0
  6
CONTINUOUS
 10
6.468000
 20
4.025560
  0
VERTEX
  8
0
  6
CONTINUOUS
 10
6.475480
 20
4.022480
  0
VERTEX
  8
0
  6
CONTINUOUS
 10
6.488240
 20
4.120600
  0
VERTEX
  8
0
  6
CONTINUOUS
 10
6.531360
 20
4.121920
  0
VERTEX
  8
0
  6
CONTINUOUS
 10
6.574480
 20
4.127200
  0
VERTEX
  8
0
  6
CONTINUOUS
 10
6.615840
 20
4.137760
  0
VERTEX
  8
0
  6
CONTINUOUS
 10
6.635640
 20
4.144800
  0
VERTEX
  8
0
  6
CONTINUOUS
 10
6.672600
 20
4.163720
  0
VERTEX
  8
0
  6
CONTINUOUS
 10
6.689320
 20
4.175160
  0
VERTEX
  8
0
  6
CONTINUOUS
 10
6.704280
 20
4.188360
  0
VERTEX
  8
0
  6
CONTINUOUS
 10
6.718360
 20
4.203320
  0
VERTEX
  8
0
  6
CONTINUOUS
 10
6.735960
 20
4.229280
  0
VERTEX
  8
0
  6
CONTINUOUS
 10
6.748720
 20
4.258760
  0
VERTEX
  8
0
  6
CONTINUOUS
 10
6.754880
 20
4.281200
  0
VERTEX
  8
0
  6
CONTINUOUS
 10
6.832320
 20
4.286480
  0
VERTEX
  8
0
  6
CONTINUOUS
 10
6.848160
 20
4.405280
  0
VERTEX
  8
0
  6
CONTINUOUS
 10
7.718480
 20
4.405280
  0
VERTEX
  8
0
  6
CONTINUOUS
 10
7.718480
 20
3.344440
  0
VERTEX
  8
0
  6
CONTINUOUS
 10
7.703080
 20
3.347520
  0
SEQEND
  8
0
  0
TEXT
  8
0
 10
5.126000
 20
3.642760
 40
0.138150
  1
941
 41
1.000000
  7
SN0
 71
     0
 72
     5
 11
5.403375
 21
3.642760
  0
TEXT
  8
0
 10
4.790280
 20
3.450920
 40
0.138150
  1
1" x 4-15/16"
 41
1.000000
  7
SN0
 71
     0
 72
     5
 11
5.738811
 21
3.450920
  0
ENDSEC
  0
EOF
