  0
SECTION
  2
HEADER
  9
$ACADVER
  1
AC1006
  9
$EXTMIN
 10
3.800280
 20
0.322520
  9
$EXTMAX
 10
8.234600
 20
3.520880
  9
$LTSCALE
 40
0.044000
  9
$PDMODE
 70
    35
  9
$PDSIZE
 40
0.035200
  0
ENDSEC
  0
SECTION
  2
TABLES
  0
TABLE
  2
LTYPE
 70
     9
  0
LTYPE
  2
CONTINUOUS
 70
    64
  3
Solid line
 72
    65
 73
     0
 40
0.000000
  0
LTYPE
  2
DASHED
 70
    64
  3
__ __ __ __ __ __ __ __ __ __ __ __ __ __ __
 72
    65
 73
     2
 40
0.000330
 49
0.000220
 49
-0.000110
  0
LTYPE
  2
HIDDEN
 70
    64
  3
 _ _ _ _ _ _ _ _ _ _ _ _ _ _ _ _ _ _ _ _ _ _
 72
    65
 73
     2
 40
0.000165
 49
0.000110
 49
-0.000055
  0
LTYPE
  2
CENTER
 70
    64
  3
____ _ ____ _ ____ _ ____ _ ____ _ ____ _ ____
 72
    65
 73
     4
 40
0.000880
 49
0.000550
 49
-0.000110
 49
0.000110
 49
-0.000110
  0
LTYPE
  2
PHANTOM
 70
    64
  3
_____ _ _ _____ _ _ _____ _ _ _____ _ _ ____
 72
    65
 73
     6
 40
0.001100
 49
0.000550
 49
-0.000110
 49
0.000110
 49
-0.000110
 49
0.000110
 49
-0.000110
  0
LTYPE
  2
DOT
 70
    64
  3
...............................................
 72
    65
 73
     2
 40
0.000110
 49
0.000000
 49
-0.000110
  0
LTYPE
  2
DASHDOT
 70
    64
  3
__ . __ . __ . __ . __ . __ . __ . __ . __ . __
 72
    65
 73
     4
 40
0.000440
 49
0.000220
 49
-0.000110
 49
0.000000
 49
-0.000110
  0
LTYPE
  2
BORDER
 70
    64
  3
__ __ . __ __ . __ __ . __ __ . __ __ . __ __
 72
    65
 73
     6
 40
0.000770
 49
0.000220
 49
-0.000110
 49
0.000220
 49
-0.000110
 49
0.000000
 49
-0.000110
  0
LTYPE
  2
DIVIDE
 70
    64
  3
__ . . __ . . __ . . __ . . __ . . __ . . __
 72
    65
 73
     6
 40
0.000550
 49
0.000220
 49
-0.000110
 49
0.000000
 49
-0.000110
 49
0.000000
 49
-0.000110
  0
LTYPE
  2
DOTDOT
 70
    64
  3
 . .  . .  . .  . .  . .  . . 
 72
    65
 73
     5
 40
0.000242
 49
-0.000110
 49
0.000000
 49
-0.000110
 49
0.000000
 49
-0.000110
  0
ENDTAB
  0
TABLE
  2
STYLE
 70
     2
  0
STYLE
 70
     0
  2
SN0
 40
0.000000
 41
0.000440
 50
0.000000
 71
     0
 42
0.000000
  3
ROMAND
  0
STYLE
 70
    68
  2
SV0
 40
0.000000
 41
0.000440
 50
0.000000
 71
     0
 42
0.000000
  3
ROMAND
  0
ENDTAB
  0
TABLE
  2
LAYER
 70
     3
  0
LAYER
  2
FOREGROUND
 70
    64
 62
     7
  6
CONTINUOUS
  0
LAYER
  2
BACKGROUND
 70
    65
 62
    -7
  6
CONTINUOUS
  0
LAYER
  2
0
 70
    64
 62
     7
  6
CONTINUOUS
  0
ENDTAB
  0
ENDSEC
  0
SECTION
  2
ENTITIES
  0
POLYLINE
  8
FOREGROUND
  6
CONTINUOUS
 66
     1
 40
0.000000
 41
0.000000
  0
VERTEX
  8
FOREGROUND
  6
CONTINUOUS
 10
0.000000
 20
3.843400
  0
VERTEX
  8
FOREGROUND
  6
CONTINUOUS
 10
8.499920
 20
3.843400
  0
VERTEX
  8
FOREGROUND
  6
CONTINUOUS
 10
8.499920
 20
-7.156600
  0
VERTEX
  8
FOREGROUND
  6
CONTINUOUS
 10
0.000000
 20
-7.156600
  0
VERTEX
  8
FOREGROUND
  6
CONTINUOUS
 10
0.000000
 20
3.843400
  0
SEQEND
  8
0
  0
POLYLINE
  8
FOREGROUND
  6
CONTINUOUS
 66
     1
 40
0.000000
 41
0.000000
  0
VERTEX
  8
FOREGROUND
  6
CONTINUOUS
 10
0.000000
 20
3.843400
  0
VERTEX
  8
FOREGROUND
  6
CONTINUOUS
 10
8.499920
 20
3.843400
  0
VERTEX
  8
FOREGROUND
  6
CONTINUOUS
 10
8.499920
 20
-7.156600
  0
VERTEX
  8
FOREGROUND
  6
CONTINUOUS
 10
0.000000
 20
-7.156600
  0
VERTEX
  8
FOREGROUND
  6
CONTINUOUS
 10
0.000000
 20
3.843400
  0
SEQEND
  8
0
  0
SOLID
  8
0
 62
    15
 10
4.543440
 20
1.808400
 11
5.177920
 21
2.183280
 12
4.606360
 22
1.805320
 13
5.240840
 23
2.180200
  0
POLYLINE
  8
0
  6
CONTINUOUS
 66
     1
 40
0.000000
 41
0.000000
  0
VERTEX
  8
0
  6
CONTINUOUS
 10
4.543440
 20
1.808400
  0
VERTEX
  8
0
  6
CONTINUOUS
 10
5.177920
 20
2.183280
  0
VERTEX
  8
0
  6
CONTINUOUS
 10
5.240840
 20
2.180200
  0
VERTEX
  8
0
  6
CONTINUOUS
 10
4.606360
 20
1.805320
  0
VERTEX
  8
0
  6
CONTINUOUS
 10
4.543440
 20
1.808400
  0
SEQEND
  8
0
  0
SOLID
  8
0
 62
    15
 10
4.277240
 20
2.625480
 11
4.911720
 21
3.000360
 12
4.307160
 22
2.615800
 13
4.941640
 23
2.990680
  0
POLYLINE
  8
0
  6
CONTINUOUS
 66
     1
 40
0.000000
 41
0.000000
  0
VERTEX
  8
0
  6
CONTINUOUS
 10
4.277240
 20
2.625480
  0
VERTEX
  8
0
  6
CONTINUOUS
 10
4.911720
 20
3.000360
  0
VERTEX
  8
0
  6
CONTINUOUS
 10
4.941640
 20
2.990680
  0
VERTEX
  8
0
  6
CONTINUOUS
 10
4.307160
 20
2.615800
  0
VERTEX
  8
0
  6
CONTINUOUS
 10
4.277240
 20
2.625480
  0
SEQEND
  8
0
  0
SOLID
  8
0
 62
    15
 10
4.307160
 20
2.615800
 11
4.941640
 21
2.990680
 12
4.334440
 22
2.601280
 13
4.968920
 23
2.976160
  0
POLYLINE
  8
0
  6
CONTINUOUS
 66
     1
 40
0.000000
 41
0.000000
  0
VERTEX
  8
0
  6
CONTINUOUS
 10
4.307160
 20
2.615800
  0
VERTEX
  8
0
  6
CONTINUOUS
 10
4.941640
 20
2.990680
  0
VERTEX
  8
0
  6
CONTINUOUS
 10
4.968920
 20
2.976160
  0
VERTEX
  8
0
  6
CONTINUOUS
 10
4.334440
 20
2.601280
  0
VERTEX
  8
0
  6
CONTINUOUS
 10
4.307160
 20
2.615800
  0
SEQEND
  8
0
  0
SOLID
  8
0
 62
    15
 10
4.334440
 20
2.601280
 11
4.968920
 21
2.976160
 12
4.358640
 22
2.581480
 13
4.993120
 23
2.956360
  0
POLYLINE
  8
0
  6
CONTINUOUS
 66
     1
 40
0.000000
 41
0.000000
  0
VERTEX
  8
0
  6
CONTINUOUS
 10
4.334440
 20
2.601280
  0
VERTEX
  8
0
  6
CONTINUOUS
 10
4.968920
 20
2.976160
  0
VERTEX
  8
0
  6
CONTINUOUS
 10
4.993120
 20
2.956360
  0
VERTEX
  8
0
  6
CONTINUOUS
 10
4.358640
 20
2.581480
  0
VERTEX
  8
0
  6
CONTINUOUS
 10
4.334440
 20
2.601280
  0
SEQEND
  8
0
  0
SOLID
  8
0
 62
    15
 10
4.358640
 20
2.581480
 11
4.993120
 21
2.956360
 12
4.378000
 22
2.557720
 13
5.012480
 23
2.932600
  0
POLYLINE
  8
0
  6
CONTINUOUS
 66
     1
 40
0.000000
 41
0.000000
  0
VERTEX
  8
0
  6
CONTINUOUS
 10
4.358640
 20
2.581480
  0
VERTEX
  8
0
  6
CONTINUOUS
 10
4.993120
 20
2.956360
  0
VERTEX
  8
0
  6
CONTINUOUS
 10
5.012480
 20
2.932600
  0
VERTEX
  8
0
  6
CONTINUOUS
 10
4.378000
 20
2.557720
  0
VERTEX
  8
0
  6
CONTINUOUS
 10
4.358640
 20
2.581480
  0
SEQEND
  8
0
  0
SOLID
  8
0
 62
    15
 10
4.378000
 20
2.557720
 11
5.012480
 21
2.932600
 12
4.392960
 22
2.530440
 13
5.027440
 23
2.905320
  0
POLYLINE
  8
0
  6
CONTINUOUS
 66
     1
 40
0.000000
 41
0.000000
  0
VERTEX
  8
0
  6
CONTINUOUS
 10
4.378000
 20
2.557720
  0
VERTEX
  8
0
  6
CONTINUOUS
 10
5.012480
 20
2.932600
  0
VERTEX
  8
0
  6
CONTINUOUS
 10
5.027440
 20
2.905320
  0
VERTEX
  8
0
  6
CONTINUOUS
 10
4.392960
 20
2.530440
  0
VERTEX
  8
0
  6
CONTINUOUS
 10
4.378000
 20
2.557720
  0
SEQEND
  8
0
  0
SOLID
  8
0
 62
     7
 10
4.392960
 20
2.530440
 11
5.027440
 21
2.905320
 12
4.402200
 22
2.500080
 13
5.036680
 23
2.874960
  0
POLYLINE
  8
0
  6
CONTINUOUS
 66
     1
 40
0.000000
 41
0.000000
  0
VERTEX
  8
0
  6
CONTINUOUS
 10
4.392960
 20
2.530440
  0
VERTEX
  8
0
  6
CONTINUOUS
 10
5.027440
 20
2.905320
  0
VERTEX
  8
0
  6
CONTINUOUS
 10
5.036680
 20
2.874960
  0
VERTEX
  8
0
  6
CONTINUOUS
 10
4.402200
 20
2.500080
  0
VERTEX
  8
0
  6
CONTINUOUS
 10
4.392960
 20
2.530440
  0
SEQEND
  8
0
  0
SOLID
  8
0
 62
     7
 10
4.402200
 20
2.500080
 11
5.036680
 21
2.874960
 12
4.405720
 22
2.467520
 13
5.040200
 23
2.842400
  0
POLYLINE
  8
0
  6
CONTINUOUS
 66
     1
 40
0.000000
 41
0.000000
  0
VERTEX
  8
0
  6
CONTINUOUS
 10
4.402200
 20
2.500080
  0
VERTEX
  8
0
  6
CONTINUOUS
 10
5.036680
 20
2.874960
  0
VERTEX
  8
0
  6
CONTINUOUS
 10
5.040200
 20
2.842400
  0
VERTEX
  8
0
  6
CONTINUOUS
 10
4.405720
 20
2.467520
  0
VERTEX
  8
0
  6
CONTINUOUS
 10
4.402200
 20
2.500080
  0
SEQEND
  8
0
  0
SOLID
  8
0
 62
    15
 10
4.405720
 20
2.467520
 11
5.040200
 21
2.842400
 12
4.396480
 22
2.413840
 13
5.030960
 23
2.788720
  0
POLYLINE
  8
0
  6
CONTINUOUS
 66
     1
 40
0.000000
 41
0.000000
  0
VERTEX
  8
0
  6
CONTINUOUS
 10
4.405720
 20
2.467520
  0
VERTEX
  8
0
  6
CONTINUOUS
 10
5.040200
 20
2.842400
  0
VERTEX
  8
0
  6
CONTINUOUS
 10
5.030960
 20
2.788720
  0
VERTEX
  8
0
  6
CONTINUOUS
 10
4.396480
 20
2.413840
  0
VERTEX
  8
0
  6
CONTINUOUS
 10
4.405720
 20
2.467520
  0
SEQEND
  8
0
  0
SOLID
  8
0
 62
    15
 10
4.396480
 20
2.413840
 11
5.030960
 21
2.788720
 12
4.370960
 22
2.367640
 13
5.005440
 23
2.742520
  0
POLYLINE
  8
0
  6
CONTINUOUS
 66
     1
 40
0.000000
 41
0.000000
  0
VERTEX
  8
0
  6
CONTINUOUS
 10
4.396480
 20
2.413840
  0
VERTEX
  8
0
  6
CONTINUOUS
 10
5.030960
 20
2.788720
  0
VERTEX
  8
0
  6
CONTINUOUS
 10
5.005440
 20
2.742520
  0
VERTEX
  8
0
  6
CONTINUOUS
 10
4.370960
 20
2.367640
  0
VERTEX
  8
0
  6
CONTINUOUS
 10
4.396480
 20
2.413840
  0
SEQEND
  8
0
  0
SOLID
  8
0
 62
     7
 10
4.283840
 20
2.311320
 11
4.918320
 21
2.686200
 12
4.284280
 22
2.240920
 13
4.918760
 23
2.615800
  0
POLYLINE
  8
0
  6
CONTINUOUS
 66
     1
 40
0.000000
 41
0.000000
  0
VERTEX
  8
0
  6
CONTINUOUS
 10
4.283840
 20
2.311320
  0
VERTEX
  8
0
  6
CONTINUOUS
 10
4.918320
 20
2.686200
  0
VERTEX
  8
0
  6
CONTINUOUS
 10
4.918760
 20
2.615800
  0
VERTEX
  8
0
  6
CONTINUOUS
 10
4.284280
 20
2.240920
  0
VERTEX
  8
0
  6
CONTINUOUS
 10
4.283840
 20
2.311320
  0
SEQEND
  8
0
  0
SOLID
  8
0
 62
    15
 10
4.370960
 20
2.367640
 11
5.005440
 21
2.742520
 12
4.332680
 22
2.332440
 13
4.967160
 23
2.707320
  0
POLYLINE
  8
0
  6
CONTINUOUS
 66
     1
 40
0.000000
 41
0.000000
  0
VERTEX
  8
0
  6
CONTINUOUS
 10
4.370960
 20
2.367640
  0
VERTEX
  8
0
  6
CONTINUOUS
 10
5.005440
 20
2.742520
  0
VERTEX
  8
0
  6
CONTINUOUS
 10
4.967160
 20
2.707320
  0
VERTEX
  8
0
  6
CONTINUOUS
 10
4.332680
 20
2.332440
  0
VERTEX
  8
0
  6
CONTINUOUS
 10
4.370960
 20
2.367640
  0
SEQEND
  8
0
  0
SOLID
  8
0
 62
    15
 10
4.284280
 20
2.240920
 11
4.918760
 21
2.615800
 12
4.249080
 22
2.210560
 13
4.883560
 23
2.585440
  0
POLYLINE
  8
0
  6
CONTINUOUS
 66
     1
 40
0.000000
 41
0.000000
  0
VERTEX
  8
0
  6
CONTINUOUS
 10
4.284280
 20
2.240920
  0
VERTEX
  8
0
  6
CONTINUOUS
 10
4.918760
 20
2.615800
  0
VERTEX
  8
0
  6
CONTINUOUS
 10
4.883560
 20
2.585440
  0
VERTEX
  8
0
  6
CONTINUOUS
 10
4.249080
 20
2.210560
  0
VERTEX
  8
0
  6
CONTINUOUS
 10
4.284280
 20
2.240920
  0
SEQEND
  8
0
  0
SOLID
  8
0
 62
    15
 10
4.249080
 20
2.210560
 11
4.883560
 21
2.585440
 12
4.222680
 22
2.177120
 13
4.857160
 23
2.552000
  0
POLYLINE
  8
0
  6
CONTINUOUS
 66
     1
 40
0.000000
 41
0.000000
  0
VERTEX
  8
0
  6
CONTINUOUS
 10
4.249080
 20
2.210560
  0
VERTEX
  8
0
  6
CONTINUOUS
 10
4.883560
 20
2.585440
  0
VERTEX
  8
0
  6
CONTINUOUS
 10
4.857160
 20
2.552000
  0
VERTEX
  8
0
  6
CONTINUOUS
 10
4.222680
 20
2.177120
  0
VERTEX
  8
0
  6
CONTINUOUS
 10
4.249080
 20
2.210560
  0
SEQEND
  8
0
  0
SOLID
  8
0
 62
    15
 10
4.222680
 20
2.177120
 11
4.857160
 21
2.552000
 12
4.205080
 22
2.142360
 13
4.839560
 23
2.517240
  0
POLYLINE
  8
0
  6
CONTINUOUS
 66
     1
 40
0.000000
 41
0.000000
  0
VERTEX
  8
0
  6
CONTINUOUS
 10
4.222680
 20
2.177120
  0
VERTEX
  8
0
  6
CONTINUOUS
 10
4.857160
 20
2.552000
  0
VERTEX
  8
0
  6
CONTINUOUS
 10
4.839560
 20
2.517240
  0
VERTEX
  8
0
  6
CONTINUOUS
 10
4.205080
 20
2.142360
  0
VERTEX
  8
0
  6
CONTINUOUS
 10
4.222680
 20
2.177120
  0
SEQEND
  8
0
  0
SOLID
  8
0
 62
    15
 10
4.205080
 20
2.142360
 11
4.839560
 21
2.517240
 12
4.196280
 22
2.106720
 13
4.830760
 23
2.481600
  0
POLYLINE
  8
0
  6
CONTINUOUS
 66
     1
 40
0.000000
 41
0.000000
  0
VERTEX
  8
0
  6
CONTINUOUS
 10
4.205080
 20
2.142360
  0
VERTEX
  8
0
  6
CONTINUOUS
 10
4.839560
 20
2.517240
  0
VERTEX
  8
0
  6
CONTINUOUS
 10
4.830760
 20
2.481600
  0
VERTEX
  8
0
  6
CONTINUOUS
 10
4.196280
 20
2.106720
  0
VERTEX
  8
0
  6
CONTINUOUS
 10
4.205080
 20
2.142360
  0
SEQEND
  8
0
  0
SOLID
  8
0
 62
     7
 10
4.196280
 20
2.106720
 11
4.830760
 21
2.481600
 12
4.194960
 22
2.070200
 13
4.829440
 23
2.445080
  0
POLYLINE
  8
0
  6
CONTINUOUS
 66
     1
 40
0.000000
 41
0.000000
  0
VERTEX
  8
0
  6
CONTINUOUS
 10
4.196280
 20
2.106720
  0
VERTEX
  8
0
  6
CONTINUOUS
 10
4.830760
 20
2.481600
  0
VERTEX
  8
0
  6
CONTINUOUS
 10
4.829440
 20
2.445080
  0
VERTEX
  8
0
  6
CONTINUOUS
 10
4.194960
 20
2.070200
  0
VERTEX
  8
0
  6
CONTINUOUS
 10
4.196280
 20
2.106720
  0
SEQEND
  8
0
  0
SOLID
  8
0
 62
     7
 10
4.194960
 20
2.070200
 11
4.829440
 21
2.445080
 12
4.201560
 22
2.033680
 13
4.836040
 23
2.408560
  0
POLYLINE
  8
0
  6
CONTINUOUS
 66
     1
 40
0.000000
 41
0.000000
  0
VERTEX
  8
0
  6
CONTINUOUS
 10
4.194960
 20
2.070200
  0
VERTEX
  8
0
  6
CONTINUOUS
 10
4.829440
 20
2.445080
  0
VERTEX
  8
0
  6
CONTINUOUS
 10
4.836040
 20
2.408560
  0
VERTEX
  8
0
  6
CONTINUOUS
 10
4.201560
 20
2.033680
  0
VERTEX
  8
0
  6
CONTINUOUS
 10
4.194960
 20
2.070200
  0
SEQEND
  8
0
  0
SOLID
  8
0
 62
     7
 10
4.201560
 20
2.033680
 11
4.836040
 21
2.408560
 12
4.215200
 22
1.998040
 13
4.849680
 23
2.372920
  0
POLYLINE
  8
0
  6
CONTINUOUS
 66
     1
 40
0.000000
 41
0.000000
  0
VERTEX
  8
0
  6
CONTINUOUS
 10
4.201560
 20
2.033680
  0
VERTEX
  8
0
  6
CONTINUOUS
 10
4.836040
 20
2.408560
  0
VERTEX
  8
0
  6
CONTINUOUS
 10
4.849680
 20
2.372920
  0
VERTEX
  8
0
  6
CONTINUOUS
 10
4.215200
 20
1.998040
  0
VERTEX
  8
0
  6
CONTINUOUS
 10
4.201560
 20
2.033680
  0
SEQEND
  8
0
  0
SOLID
  8
0
 62
     7
 10
4.215200
 20
1.998040
 11
4.849680
 21
2.372920
 12
4.235880
 22
1.963720
 13
4.870360
 23
2.338600
  0
POLYLINE
  8
0
  6
CONTINUOUS
 66
     1
 40
0.000000
 41
0.000000
  0
VERTEX
  8
0
  6
CONTINUOUS
 10
4.215200
 20
1.998040
  0
VERTEX
  8
0
  6
CONTINUOUS
 10
4.849680
 20
2.372920
  0
VERTEX
  8
0
  6
CONTINUOUS
 10
4.870360
 20
2.338600
  0
VERTEX
  8
0
  6
CONTINUOUS
 10
4.235880
 20
1.963720
  0
VERTEX
  8
0
  6
CONTINUOUS
 10
4.215200
 20
1.998040
  0
SEQEND
  8
0
  0
SOLID
  8
0
 62
    15
 10
4.235880
 20
1.963720
 11
4.870360
 21
2.338600
 12
4.263160
 22
1.931160
 13
4.897640
 23
2.306040
  0
POLYLINE
  8
0
  6
CONTINUOUS
 66
     1
 40
0.000000
 41
0.000000
  0
VERTEX
  8
0
  6
CONTINUOUS
 10
4.235880
 20
1.963720
  0
VERTEX
  8
0
  6
CONTINUOUS
 10
4.870360
 20
2.338600
  0
VERTEX
  8
0
  6
CONTINUOUS
 10
4.897640
 20
2.306040
  0
VERTEX
  8
0
  6
CONTINUOUS
 10
4.263160
 20
1.931160
  0
VERTEX
  8
0
  6
CONTINUOUS
 10
4.235880
 20
1.963720
  0
SEQEND
  8
0
  0
SOLID
  8
0
 62
    15
 10
4.263160
 20
1.931160
 11
4.897640
 21
2.306040
 12
4.296600
 22
1.901240
 13
4.931080
 23
2.276120
  0
POLYLINE
  8
0
  6
CONTINUOUS
 66
     1
 40
0.000000
 41
0.000000
  0
VERTEX
  8
0
  6
CONTINUOUS
 10
4.263160
 20
1.931160
  0
VERTEX
  8
0
  6
CONTINUOUS
 10
4.897640
 20
2.306040
  0
VERTEX
  8
0
  6
CONTINUOUS
 10
4.931080
 20
2.276120
  0
VERTEX
  8
0
  6
CONTINUOUS
 10
4.296600
 20
1.901240
  0
VERTEX
  8
0
  6
CONTINUOUS
 10
4.263160
 20
1.931160
  0
SEQEND
  8
0
  0
SOLID
  8
0
 62
    15
 10
4.296600
 20
1.901240
 11
4.931080
 21
2.276120
 12
4.335760
 22
1.873960
 13
4.970240
 23
2.248840
  0
POLYLINE
  8
0
  6
CONTINUOUS
 66
     1
 40
0.000000
 41
0.000000
  0
VERTEX
  8
0
  6
CONTINUOUS
 10
4.296600
 20
1.901240
  0
VERTEX
  8
0
  6
CONTINUOUS
 10
4.931080
 20
2.276120
  0
VERTEX
  8
0
  6
CONTINUOUS
 10
4.970240
 20
2.248840
  0
VERTEX
  8
0
  6
CONTINUOUS
 10
4.335760
 20
1.873960
  0
VERTEX
  8
0
  6
CONTINUOUS
 10
4.296600
 20
1.901240
  0
SEQEND
  8
0
  0
SOLID
  8
0
 62
    15
 10
4.335760
 20
1.873960
 11
4.970240
 21
2.248840
 12
4.380640
 22
1.850640
 13
5.015120
 23
2.225520
  0
POLYLINE
  8
0
  6
CONTINUOUS
 66
     1
 40
0.000000
 41
0.000000
  0
VERTEX
  8
0
  6
CONTINUOUS
 10
4.335760
 20
1.873960
  0
VERTEX
  8
0
  6
CONTINUOUS
 10
4.970240
 20
2.248840
  0
VERTEX
  8
0
  6
CONTINUOUS
 10
5.015120
 20
2.225520
  0
VERTEX
  8
0
  6
CONTINUOUS
 10
4.380640
 20
1.850640
  0
VERTEX
  8
0
  6
CONTINUOUS
 10
4.335760
 20
1.873960
  0
SEQEND
  8
0
  0
SOLID
  8
0
 62
    15
 10
4.380640
 20
1.850640
 11
5.015120
 21
2.225520
 12
4.430360
 22
1.831280
 13
5.064840
 23
2.206160
  0
POLYLINE
  8
0
  6
CONTINUOUS
 66
     1
 40
0.000000
 41
0.000000
  0
VERTEX
  8
0
  6
CONTINUOUS
 10
4.380640
 20
1.850640
  0
VERTEX
  8
0
  6
CONTINUOUS
 10
5.015120
 20
2.225520
  0
VERTEX
  8
0
  6
CONTINUOUS
 10
5.064840
 20
2.206160
  0
VERTEX
  8
0
  6
CONTINUOUS
 10
4.430360
 20
1.831280
  0
VERTEX
  8
0
  6
CONTINUOUS
 10
4.380640
 20
1.850640
  0
SEQEND
  8
0
  0
SOLID
  8
0
 62
    15
 10
4.430360
 20
1.831280
 11
5.064840
 21
2.206160
 12
4.484920
 22
1.817200
 13
5.119400
 23
2.192080
  0
POLYLINE
  8
0
  6
CONTINUOUS
 66
     1
 40
0.000000
 41
0.000000
  0
VERTEX
  8
0
  6
CONTINUOUS
 10
4.430360
 20
1.831280
  0
VERTEX
  8
0
  6
CONTINUOUS
 10
5.064840
 20
2.206160
  0
VERTEX
  8
0
  6
CONTINUOUS
 10
5.119400
 20
2.192080
  0
VERTEX
  8
0
  6
CONTINUOUS
 10
4.484920
 20
1.817200
  0
VERTEX
  8
0
  6
CONTINUOUS
 10
4.430360
 20
1.831280
  0
SEQEND
  8
0
  0
SOLID
  8
0
 62
    15
 10
4.484920
 20
1.817200
 11
5.119400
 21
2.192080
 12
4.543440
 22
1.808400
 13
5.177920
 23
2.183280
  0
POLYLINE
  8
0
  6
CONTINUOUS
 66
     1
 40
0.000000
 41
0.000000
  0
VERTEX
  8
0
  6
CONTINUOUS
 10
4.484920
 20
1.817200
  0
VERTEX
  8
0
  6
CONTINUOUS
 10
5.119400
 20
2.192080
  0
VERTEX
  8
0
  6
CONTINUOUS
 10
5.177920
 20
2.183280
  0
VERTEX
  8
0
  6
CONTINUOUS
 10
4.543440
 20
1.808400
  0
VERTEX
  8
0
  6
CONTINUOUS
 10
4.484920
 20
1.817200
  0
SEQEND
  8
0
  0
SOLID
  8
0
 62
    15
 10
4.244680
 20
2.628560
 11
4.879160
 21
3.003440
 12
4.277240
 22
2.625480
 13
4.911720
 23
3.000360
  0
POLYLINE
  8
0
  6
CONTINUOUS
 66
     1
 40
0.000000
 41
0.000000
  0
VERTEX
  8
0
  6
CONTINUOUS
 10
4.244680
 20
2.628560
  0
VERTEX
  8
0
  6
CONTINUOUS
 10
4.879160
 20
3.003440
  0
VERTEX
  8
0
  6
CONTINUOUS
 10
4.911720
 20
3.000360
  0
VERTEX
  8
0
  6
CONTINUOUS
 10
4.277240
 20
2.625480
  0
VERTEX
  8
0
  6
CONTINUOUS
 10
4.244680
 20
2.628560
  0
SEQEND
  8
0
  0
SOLID
  8
0
 62
    15
 10
4.606360
 20
1.805320
 11
5.240840
 21
2.180200
 12
4.606360
 22
1.735360
 13
5.240840
 23
2.110240
  0
POLYLINE
  8
0
  6
CONTINUOUS
 66
     1
 40
0.000000
 41
0.000000
  0
VERTEX
  8
0
  6
CONTINUOUS
 10
4.606360
 20
1.805320
  0
VERTEX
  8
0
  6
CONTINUOUS
 10
5.240840
 20
2.180200
  0
VERTEX
  8
0
  6
CONTINUOUS
 10
5.240840
 20
2.110240
  0
VERTEX
  8
0
  6
CONTINUOUS
 10
4.606360
 20
1.735360
  0
VERTEX
  8
0
  6
CONTINUOUS
 10
4.606360
 20
1.805320
  0
SEQEND
  8
0
  0
SOLID
  8
0
 62
    15
 10
4.606360
 20
1.735360
 11
5.240840
 21
2.110240
 12
4.701840
 22
1.696640
 13
5.336320
 23
2.071520
  0
POLYLINE
  8
0
  6
CONTINUOUS
 66
     1
 40
0.000000
 41
0.000000
  0
VERTEX
  8
0
  6
CONTINUOUS
 10
4.606360
 20
1.735360
  0
VERTEX
  8
0
  6
CONTINUOUS
 10
5.240840
 20
2.110240
  0
VERTEX
  8
0
  6
CONTINUOUS
 10
5.336320
 20
2.071520
  0
VERTEX
  8
0
  6
CONTINUOUS
 10
4.701840
 20
1.696640
  0
VERTEX
  8
0
  6
CONTINUOUS
 10
4.606360
 20
1.735360
  0
SEQEND
  8
0
  0
SOLID
  8
0
 62
    15
 10
4.701840
 20
1.696640
 11
5.336320
 21
2.071520
 12
4.780600
 22
1.646480
 13
5.415080
 23
2.021360
  0
POLYLINE
  8
0
  6
CONTINUOUS
 66
     1
 40
0.000000
 41
0.000000
  0
VERTEX
  8
0
  6
CONTINUOUS
 10
4.701840
 20
1.696640
  0
VERTEX
  8
0
  6
CONTINUOUS
 10
5.336320
 20
2.071520
  0
VERTEX
  8
0
  6
CONTINUOUS
 10
5.415080
 20
2.021360
  0
VERTEX
  8
0
  6
CONTINUOUS
 10
4.780600
 20
1.646480
  0
VERTEX
  8
0
  6
CONTINUOUS
 10
4.701840
 20
1.696640
  0
SEQEND
  8
0
  0
SOLID
  8
0
 62
    15
 10
4.780600
 20
1.646480
 11
5.415080
 21
2.021360
 12
4.844400
 22
1.586200
 13
5.478880
 23
1.961080
  0
POLYLINE
  8
0
  6
CONTINUOUS
 66
     1
 40
0.000000
 41
0.000000
  0
VERTEX
  8
0
  6
CONTINUOUS
 10
4.780600
 20
1.646480
  0
VERTEX
  8
0
  6
CONTINUOUS
 10
5.415080
 20
2.021360
  0
VERTEX
  8
0
  6
CONTINUOUS
 10
5.478880
 20
1.961080
  0
VERTEX
  8
0
  6
CONTINUOUS
 10
4.844400
 20
1.586200
  0
VERTEX
  8
0
  6
CONTINUOUS
 10
4.780600
 20
1.646480
  0
SEQEND
  8
0
  0
SOLID
  8
0
 62
    15
 10
4.844400
 20
1.586200
 11
5.478880
 21
1.961080
 12
4.892800
 22
1.518000
 13
5.527280
 23
1.892880
  0
POLYLINE
  8
0
  6
CONTINUOUS
 66
     1
 40
0.000000
 41
0.000000
  0
VERTEX
  8
0
  6
CONTINUOUS
 10
4.844400
 20
1.586200
  0
VERTEX
  8
0
  6
CONTINUOUS
 10
5.478880
 20
1.961080
  0
VERTEX
  8
0
  6
CONTINUOUS
 10
5.527280
 20
1.892880
  0
VERTEX
  8
0
  6
CONTINUOUS
 10
4.892800
 20
1.518000
  0
VERTEX
  8
0
  6
CONTINUOUS
 10
4.844400
 20
1.586200
  0
SEQEND
  8
0
  0
SOLID
  8
0
 62
     7
 10
4.892800
 20
1.518000
 11
5.527280
 21
1.892880
 12
4.927560
 22
1.443640
 13
5.562040
 23
1.818520
  0
POLYLINE
  8
0
  6
CONTINUOUS
 66
     1
 40
0.000000
 41
0.000000
  0
VERTEX
  8
0
  6
CONTINUOUS
 10
4.892800
 20
1.518000
  0
VERTEX
  8
0
  6
CONTINUOUS
 10
5.527280
 20
1.892880
  0
VERTEX
  8
0
  6
CONTINUOUS
 10
5.562040
 20
1.818520
  0
VERTEX
  8
0
  6
CONTINUOUS
 10
4.927560
 20
1.443640
  0
VERTEX
  8
0
  6
CONTINUOUS
 10
4.892800
 20
1.518000
  0
SEQEND
  8
0
  0
SOLID
  8
0
 62
     7
 10
4.927560
 20
1.443640
 11
5.562040
 21
1.818520
 12
4.948680
 22
1.365320
 13
5.583160
 23
1.740200
  0
POLYLINE
  8
0
  6
CONTINUOUS
 66
     1
 40
0.000000
 41
0.000000
  0
VERTEX
  8
0
  6
CONTINUOUS
 10
4.927560
 20
1.443640
  0
VERTEX
  8
0
  6
CONTINUOUS
 10
5.562040
 20
1.818520
  0
VERTEX
  8
0
  6
CONTINUOUS
 10
5.583160
 20
1.740200
  0
VERTEX
  8
0
  6
CONTINUOUS
 10
4.948680
 20
1.365320
  0
VERTEX
  8
0
  6
CONTINUOUS
 10
4.927560
 20
1.443640
  0
SEQEND
  8
0
  0
SOLID
  8
0
 62
    15
 10
4.948680
 20
1.365320
 11
5.583160
 21
1.740200
 12
4.957920
 22
1.284800
 13
5.592400
 23
1.659680
  0
POLYLINE
  8
0
  6
CONTINUOUS
 66
     1
 40
0.000000
 41
0.000000
  0
VERTEX
  8
0
  6
CONTINUOUS
 10
4.948680
 20
1.365320
  0
VERTEX
  8
0
  6
CONTINUOUS
 10
5.583160
 20
1.740200
  0
VERTEX
  8
0
  6
CONTINUOUS
 10
5.592400
 20
1.659680
  0
VERTEX
  8
0
  6
CONTINUOUS
 10
4.957920
 20
1.284800
  0
VERTEX
  8
0
  6
CONTINUOUS
 10
4.948680
 20
1.365320
  0
SEQEND
  8
0
  0
SOLID
  8
0
 62
    15
 10
4.957920
 20
1.284800
 11
5.592400
 21
1.659680
 12
4.954840
 22
1.204720
 13
5.589320
 23
1.579600
  0
POLYLINE
  8
0
  6
CONTINUOUS
 66
     1
 40
0.000000
 41
0.000000
  0
VERTEX
  8
0
  6
CONTINUOUS
 10
4.957920
 20
1.284800
  0
VERTEX
  8
0
  6
CONTINUOUS
 10
5.592400
 20
1.659680
  0
VERTEX
  8
0
  6
CONTINUOUS
 10
5.589320
 20
1.579600
  0
VERTEX
  8
0
  6
CONTINUOUS
 10
4.954840
 20
1.204720
  0
VERTEX
  8
0
  6
CONTINUOUS
 10
4.957920
 20
1.284800
  0
SEQEND
  8
0
  0
SOLID
  8
0
 62
    15
 10
4.954840
 20
1.204720
 11
5.589320
 21
1.579600
 12
4.941200
 22
1.126400
 13
5.575680
 23
1.501280
  0
POLYLINE
  8
0
  6
CONTINUOUS
 66
     1
 40
0.000000
 41
0.000000
  0
VERTEX
  8
0
  6
CONTINUOUS
 10
4.954840
 20
1.204720
  0
VERTEX
  8
0
  6
CONTINUOUS
 10
5.589320
 20
1.579600
  0
VERTEX
  8
0
  6
CONTINUOUS
 10
5.575680
 20
1.501280
  0
VERTEX
  8
0
  6
CONTINUOUS
 10
4.941200
 20
1.126400
  0
VERTEX
  8
0
  6
CONTINUOUS
 10
4.954840
 20
1.204720
  0
SEQEND
  8
0
  0
SOLID
  8
0
 62
    15
 10
4.941200
 20
1.126400
 11
5.575680
 21
1.501280
 12
4.917440
 22
1.052040
 13
5.551920
 23
1.426920
  0
POLYLINE
  8
0
  6
CONTINUOUS
 66
     1
 40
0.000000
 41
0.000000
  0
VERTEX
  8
0
  6
CONTINUOUS
 10
4.941200
 20
1.126400
  0
VERTEX
  8
0
  6
CONTINUOUS
 10
5.575680
 20
1.501280
  0
VERTEX
  8
0
  6
CONTINUOUS
 10
5.551920
 20
1.426920
  0
VERTEX
  8
0
  6
CONTINUOUS
 10
4.917440
 20
1.052040
  0
VERTEX
  8
0
  6
CONTINUOUS
 10
4.941200
 20
1.126400
  0
SEQEND
  8
0
  0
SOLID
  8
0
 62
    15
 10
4.917440
 20
1.052040
 11
5.551920
 21
1.426920
 12
4.884000
 22
0.983840
 13
5.518480
 23
1.358720
  0
POLYLINE
  8
0
  6
CONTINUOUS
 66
     1
 40
0.000000
 41
0.000000
  0
VERTEX
  8
0
  6
CONTINUOUS
 10
4.917440
 20
1.052040
  0
VERTEX
  8
0
  6
CONTINUOUS
 10
5.551920
 20
1.426920
  0
VERTEX
  8
0
  6
CONTINUOUS
 10
5.518480
 20
1.358720
  0
VERTEX
  8
0
  6
CONTINUOUS
 10
4.884000
 20
0.983840
  0
VERTEX
  8
0
  6
CONTINUOUS
 10
4.917440
 20
1.052040
  0
SEQEND
  8
0
  0
SOLID
  8
0
 62
    15
 10
4.884000
 20
0.983840
 11
5.518480
 21
1.358720
 12
4.842200
 22
0.923560
 13
5.476680
 23
1.298440
  0
POLYLINE
  8
0
  6
CONTINUOUS
 66
     1
 40
0.000000
 41
0.000000
  0
VERTEX
  8
0
  6
CONTINUOUS
 10
4.884000
 20
0.983840
  0
VERTEX
  8
0
  6
CONTINUOUS
 10
5.518480
 20
1.358720
  0
VERTEX
  8
0
  6
CONTINUOUS
 10
5.476680
 20
1.298440
  0
VERTEX
  8
0
  6
CONTINUOUS
 10
4.842200
 20
0.923560
  0
VERTEX
  8
0
  6
CONTINUOUS
 10
4.884000
 20
0.983840
  0
SEQEND
  8
0
  0
SOLID
  8
0
 62
    15
 10
4.842200
 20
0.923560
 11
5.476680
 21
1.298440
 12
4.792480
 22
0.872960
 13
5.426960
 23
1.247840
  0
POLYLINE
  8
0
  6
CONTINUOUS
 66
     1
 40
0.000000
 41
0.000000
  0
VERTEX
  8
0
  6
CONTINUOUS
 10
4.842200
 20
0.923560
  0
VERTEX
  8
0
  6
CONTINUOUS
 10
5.476680
 20
1.298440
  0
VERTEX
  8
0
  6
CONTINUOUS
 10
5.426960
 20
1.247840
  0
VERTEX
  8
0
  6
CONTINUOUS
 10
4.792480
 20
0.872960
  0
VERTEX
  8
0
  6
CONTINUOUS
 10
4.842200
 20
0.923560
  0
SEQEND
  8
0
  0
SOLID
  8
0
 62
    15
 10
4.792480
 20
0.872960
 11
5.426960
 21
1.247840
 12
4.735720
 22
0.834680
 13
5.370200
 23
1.209560
  0
POLYLINE
  8
0
  6
CONTINUOUS
 66
     1
 40
0.000000
 41
0.000000
  0
VERTEX
  8
0
  6
CONTINUOUS
 10
4.792480
 20
0.872960
  0
VERTEX
  8
0
  6
CONTINUOUS
 10
5.426960
 20
1.247840
  0
VERTEX
  8
0
  6
CONTINUOUS
 10
5.370200
 20
1.209560
  0
VERTEX
  8
0
  6
CONTINUOUS
 10
4.735720
 20
0.834680
  0
VERTEX
  8
0
  6
CONTINUOUS
 10
4.792480
 20
0.872960
  0
SEQEND
  8
0
  0
SOLID
  8
0
 62
    15
 10
3.801160
 20
3.145560
 11
4.435640
 21
3.520440
 12
3.930520
 22
3.145560
 13
4.565000
 23
3.520440
  0
POLYLINE
  8
0
  6
CONTINUOUS
 66
     1
 40
0.000000
 41
0.000000
  0
VERTEX
  8
0
  6
CONTINUOUS
 10
3.801160
 20
3.145560
  0
VERTEX
  8
0
  6
CONTINUOUS
 10
4.435640
 20
3.520440
  0
VERTEX
  8
0
  6
CONTINUOUS
 10
4.565000
 20
3.520440
  0
VERTEX
  8
0
  6
CONTINUOUS
 10
3.930520
 20
3.145560
  0
VERTEX
  8
0
  6
CONTINUOUS
 10
3.801160
 20
3.145560
  0
SEQEND
  8
0
  0
SOLID
  8
0
 62
     7
 10
3.930520
 20
3.145560
 11
4.565000
 21
3.520440
 12
3.949880
 22
3.091880
 13
4.584360
 23
3.466760
  0
POLYLINE
  8
0
  6
CONTINUOUS
 66
     1
 40
0.000000
 41
0.000000
  0
VERTEX
  8
0
  6
CONTINUOUS
 10
3.930520
 20
3.145560
  0
VERTEX
  8
0
  6
CONTINUOUS
 10
4.565000
 20
3.520440
  0
VERTEX
  8
0
  6
CONTINUOUS
 10
4.584360
 20
3.466760
  0
VERTEX
  8
0
  6
CONTINUOUS
 10
3.949880
 20
3.091880
  0
VERTEX
  8
0
  6
CONTINUOUS
 10
3.930520
 20
3.145560
  0
SEQEND
  8
0
  0
SOLID
  8
0
 62
    15
 10
3.949880
 20
3.091880
 11
4.584360
 21
3.466760
 12
3.979800
 22
3.036000
 13
4.614280
 23
3.410880
  0
POLYLINE
  8
0
  6
CONTINUOUS
 66
     1
 40
0.000000
 41
0.000000
  0
VERTEX
  8
0
  6
CONTINUOUS
 10
3.949880
 20
3.091880
  0
VERTEX
  8
0
  6
CONTINUOUS
 10
4.584360
 20
3.466760
  0
VERTEX
  8
0
  6
CONTINUOUS
 10
4.614280
 20
3.410880
  0
VERTEX
  8
0
  6
CONTINUOUS
 10
3.979800
 20
3.036000
  0
VERTEX
  8
0
  6
CONTINUOUS
 10
3.949880
 20
3.091880
  0
SEQEND
  8
0
  0
SOLID
  8
0
 62
    15
 10
3.979800
 20
3.036000
 11
4.614280
 21
3.410880
 12
4.017640
 22
2.980560
 13
4.652120
 23
3.355440
  0
POLYLINE
  8
0
  6
CONTINUOUS
 66
     1
 40
0.000000
 41
0.000000
  0
VERTEX
  8
0
  6
CONTINUOUS
 10
3.979800
 20
3.036000
  0
VERTEX
  8
0
  6
CONTINUOUS
 10
4.614280
 20
3.410880
  0
VERTEX
  8
0
  6
CONTINUOUS
 10
4.652120
 20
3.355440
  0
VERTEX
  8
0
  6
CONTINUOUS
 10
4.017640
 20
2.980560
  0
VERTEX
  8
0
  6
CONTINUOUS
 10
3.979800
 20
3.036000
  0
SEQEND
  8
0
  0
SOLID
  8
0
 62
    15
 10
4.017640
 20
2.980560
 11
4.652120
 21
3.355440
 12
4.059880
 22
2.928640
 13
4.694360
 23
3.303520
  0
POLYLINE
  8
0
  6
CONTINUOUS
 66
     1
 40
0.000000
 41
0.000000
  0
VERTEX
  8
0
  6
CONTINUOUS
 10
4.017640
 20
2.980560
  0
VERTEX
  8
0
  6
CONTINUOUS
 10
4.652120
 20
3.355440
  0
VERTEX
  8
0
  6
CONTINUOUS
 10
4.694360
 20
3.303520
  0
VERTEX
  8
0
  6
CONTINUOUS
 10
4.059880
 20
2.928640
  0
VERTEX
  8
0
  6
CONTINUOUS
 10
4.017640
 20
2.980560
  0
SEQEND
  8
0
  0
SOLID
  8
0
 62
    15
 10
4.059880
 20
2.928640
 11
4.694360
 21
3.303520
 12
4.104760
 22
2.881560
 13
4.739240
 23
3.256440
  0
POLYLINE
  8
0
  6
CONTINUOUS
 66
     1
 40
0.000000
 41
0.000000
  0
VERTEX
  8
0
  6
CONTINUOUS
 10
4.059880
 20
2.928640
  0
VERTEX
  8
0
  6
CONTINUOUS
 10
4.694360
 20
3.303520
  0
VERTEX
  8
0
  6
CONTINUOUS
 10
4.739240
 20
3.256440
  0
VERTEX
  8
0
  6
CONTINUOUS
 10
4.104760
 20
2.881560
  0
VERTEX
  8
0
  6
CONTINUOUS
 10
4.059880
 20
2.928640
  0
SEQEND
  8
0
  0
SOLID
  8
0
 62
    15
 10
4.104760
 20
2.881560
 11
4.739240
 21
3.256440
 12
4.148760
 22
2.842400
 13
4.783240
 23
3.217280
  0
POLYLINE
  8
0
  6
CONTINUOUS
 66
     1
 40
0.000000
 41
0.000000
  0
VERTEX
  8
0
  6
CONTINUOUS
 10
4.104760
 20
2.881560
  0
VERTEX
  8
0
  6
CONTINUOUS
 10
4.739240
 20
3.256440
  0
VERTEX
  8
0
  6
CONTINUOUS
 10
4.783240
 20
3.217280
  0
VERTEX
  8
0
  6
CONTINUOUS
 10
4.148760
 20
2.842400
  0
VERTEX
  8
0
  6
CONTINUOUS
 10
4.104760
 20
2.881560
  0
SEQEND
  8
0
  0
SOLID
  8
0
 62
    15
 10
4.148760
 20
2.842400
 11
4.783240
 21
3.217280
 12
4.190120
 22
2.814240
 13
4.824600
 23
3.189120
  0
POLYLINE
  8
0
  6
CONTINUOUS
 66
     1
 40
0.000000
 41
0.000000
  0
VERTEX
  8
0
  6
CONTINUOUS
 10
4.148760
 20
2.842400
  0
VERTEX
  8
0
  6
CONTINUOUS
 10
4.783240
 20
3.217280
  0
VERTEX
  8
0
  6
CONTINUOUS
 10
4.824600
 20
3.189120
  0
VERTEX
  8
0
  6
CONTINUOUS
 10
4.190120
 20
2.814240
  0
VERTEX
  8
0
  6
CONTINUOUS
 10
4.148760
 20
2.842400
  0
SEQEND
  8
0
  0
SOLID
  8
0
 62
    15
 10
4.190120
 20
2.814240
 11
4.824600
 21
3.189120
 12
4.225320
 22
2.798400
 13
4.859800
 23
3.173280
  0
POLYLINE
  8
0
  6
CONTINUOUS
 66
     1
 40
0.000000
 41
0.000000
  0
VERTEX
  8
0
  6
CONTINUOUS
 10
4.190120
 20
2.814240
  0
VERTEX
  8
0
  6
CONTINUOUS
 10
4.824600
 20
3.189120
  0
VERTEX
  8
0
  6
CONTINUOUS
 10
4.859800
 20
3.173280
  0
VERTEX
  8
0
  6
CONTINUOUS
 10
4.225320
 20
2.798400
  0
VERTEX
  8
0
  6
CONTINUOUS
 10
4.190120
 20
2.814240
  0
SEQEND
  8
0
  0
SOLID
  8
0
 62
     7
 10
4.225320
 20
2.798400
 11
4.859800
 21
3.173280
 12
4.241160
 22
2.628120
 13
4.875640
 23
3.003000
  0
POLYLINE
  8
0
  6
CONTINUOUS
 66
     1
 40
0.000000
 41
0.000000
  0
VERTEX
  8
0
  6
CONTINUOUS
 10
4.225320
 20
2.798400
  0
VERTEX
  8
0
  6
CONTINUOUS
 10
4.859800
 20
3.173280
  0
VERTEX
  8
0
  6
CONTINUOUS
 10
4.875640
 20
3.003000
  0
VERTEX
  8
0
  6
CONTINUOUS
 10
4.241160
 20
2.628120
  0
VERTEX
  8
0
  6
CONTINUOUS
 10
4.225320
 20
2.798400
  0
SEQEND
  8
0
  0
SOLID
  8
0
 62
    15
 10
4.241160
 20
2.628120
 11
4.875640
 21
3.003000
 12
4.244680
 22
2.628560
 13
4.879160
 23
3.003440
  0
POLYLINE
  8
0
  6
CONTINUOUS
 66
     1
 40
0.000000
 41
0.000000
  0
VERTEX
  8
0
  6
CONTINUOUS
 10
4.241160
 20
2.628120
  0
VERTEX
  8
0
  6
CONTINUOUS
 10
4.875640
 20
3.003000
  0
VERTEX
  8
0
  6
CONTINUOUS
 10
4.879160
 20
3.003440
  0
VERTEX
  8
0
  6
CONTINUOUS
 10
4.244680
 20
2.628560
  0
VERTEX
  8
0
  6
CONTINUOUS
 10
4.241160
 20
2.628120
  0
SEQEND
  8
0
  0
POLYLINE
  8
0
  6
CONTINUOUS
 66
     1
 40
0.000000
 41
0.000000
  0
VERTEX
  8
0
  6
CONTINUOUS
 10
4.244680
 20
2.628560
  0
VERTEX
  8
0
  6
CONTINUOUS
 10
4.277240
 20
2.625480
  0
VERTEX
  8
0
  6
CONTINUOUS
 10
4.307160
 20
2.615800
  0
VERTEX
  8
0
  6
CONTINUOUS
 10
4.334440
 20
2.601280
  0
VERTEX
  8
0
  6
CONTINUOUS
 10
4.358640
 20
2.581480
  0
VERTEX
  8
0
  6
CONTINUOUS
 10
4.378000
 20
2.557720
  0
VERTEX
  8
0
  6
CONTINUOUS
 10
4.392960
 20
2.530440
  0
VERTEX
  8
0
  6
CONTINUOUS
 10
4.402200
 20
2.500080
  0
VERTEX
  8
0
  6
CONTINUOUS
 10
4.405720
 20
2.467520
  0
VERTEX
  8
0
  6
CONTINUOUS
 10
4.396480
 20
2.413840
  0
VERTEX
  8
0
  6
CONTINUOUS
 10
4.370960
 20
2.367640
  0
VERTEX
  8
0
  6
CONTINUOUS
 10
4.332680
 20
2.332440
  0
VERTEX
  8
0
  6
CONTINUOUS
 10
4.283840
 20
2.311320
  0
VERTEX
  8
0
  6
CONTINUOUS
 10
4.284280
 20
2.240920
  0
VERTEX
  8
0
  6
CONTINUOUS
 10
4.249080
 20
2.210560
  0
VERTEX
  8
0
  6
CONTINUOUS
 10
4.222680
 20
2.177120
  0
VERTEX
  8
0
  6
CONTINUOUS
 10
4.205080
 20
2.142360
  0
VERTEX
  8
0
  6
CONTINUOUS
 10
4.196280
 20
2.106720
  0
VERTEX
  8
0
  6
CONTINUOUS
 10
4.194960
 20
2.070200
  0
VERTEX
  8
0
  6
CONTINUOUS
 10
4.201560
 20
2.033680
  0
VERTEX
  8
0
  6
CONTINUOUS
 10
4.215200
 20
1.998040
  0
VERTEX
  8
0
  6
CONTINUOUS
 10
4.235880
 20
1.963720
  0
VERTEX
  8
0
  6
CONTINUOUS
 10
4.263160
 20
1.931160
  0
VERTEX
  8
0
  6
CONTINUOUS
 10
4.296600
 20
1.901240
  0
VERTEX
  8
0
  6
CONTINUOUS
 10
4.335760
 20
1.873960
  0
VERTEX
  8
0
  6
CONTINUOUS
 10
4.380640
 20
1.850640
  0
VERTEX
  8
0
  6
CONTINUOUS
 10
4.430360
 20
1.831280
  0
VERTEX
  8
0
  6
CONTINUOUS
 10
4.484920
 20
1.817200
  0
VERTEX
  8
0
  6
CONTINUOUS
 10
4.543440
 20
1.808400
  0
VERTEX
  8
0
  6
CONTINUOUS
 10
4.606360
 20
1.805320
  0
VERTEX
  8
0
  6
CONTINUOUS
 10
4.606360
 20
1.735360
  0
VERTEX
  8
0
  6
CONTINUOUS
 10
4.701840
 20
1.696640
  0
VERTEX
  8
0
  6
CONTINUOUS
 10
4.780600
 20
1.646480
  0
VERTEX
  8
0
  6
CONTINUOUS
 10
4.844400
 20
1.586200
  0
VERTEX
  8
0
  6
CONTINUOUS
 10
4.892800
 20
1.518000
  0
VERTEX
  8
0
  6
CONTINUOUS
 10
4.927560
 20
1.443640
  0
VERTEX
  8
0
  6
CONTINUOUS
 10
4.948680
 20
1.365320
  0
VERTEX
  8
0
  6
CONTINUOUS
 10
4.957920
 20
1.284800
  0
VERTEX
  8
0
  6
CONTINUOUS
 10
4.954840
 20
1.204720
  0
VERTEX
  8
0
  6
CONTINUOUS
 10
4.941200
 20
1.126400
  0
VERTEX
  8
0
  6
CONTINUOUS
 10
4.917440
 20
1.052040
  0
VERTEX
  8
0
  6
CONTINUOUS
 10
4.884000
 20
0.983840
  0
VERTEX
  8
0
  6
CONTINUOUS
 10
4.842200
 20
0.923560
  0
VERTEX
  8
0
  6
CONTINUOUS
 10
4.792480
 20
0.872960
  0
VERTEX
  8
0
  6
CONTINUOUS
 10
4.735720
 20
0.834680
  0
VERTEX
  8
0
  6
CONTINUOUS
 10
4.672800
 20
0.810040
  0
VERTEX
  8
0
  6
CONTINUOUS
 10
4.604160
 20
0.801240
  0
VERTEX
  8
0
  6
CONTINUOUS
 10
3.801160
 20
0.801240
  0
VERTEX
  8
0
  6
CONTINUOUS
 10
3.801160
 20
3.145560
  0
VERTEX
  8
0
  6
CONTINUOUS
 10
3.930520
 20
3.145560
  0
VERTEX
  8
0
  6
CONTINUOUS
 10
3.949880
 20
3.091880
  0
VERTEX
  8
0
  6
CONTINUOUS
 10
3.979800
 20
3.036000
  0
VERTEX
  8
0
  6
CONTINUOUS
 10
4.017640
 20
2.980560
  0
VERTEX
  8
0
  6
CONTINUOUS
 10
4.059880
 20
2.928640
  0
VERTEX
  8
0
  6
CONTINUOUS
 10
4.104760
 20
2.881560
  0
VERTEX
  8
0
  6
CONTINUOUS
 10
4.148760
 20
2.842400
  0
VERTEX
  8
0
  6
CONTINUOUS
 10
4.190120
 20
2.814240
  0
VERTEX
  8
0
  6
CONTINUOUS
 10
4.225320
 20
2.798400
  0
VERTEX
  8
0
  6
CONTINUOUS
 10
4.241160
 20
2.628120
  0
VERTEX
  8
0
  6
CONTINUOUS
 10
4.244680
 20
2.628560
  0
SEQEND
  8
0
  0
TEXT
  8
0
 10
4.401760
 20
0.558360
 40
0.138208
  1
BA  940
 41
1.000000
  7
SN0
 71
     0
 72
     5
 11
4.993298
 21
0.558360
  0
TEXT
  8
0
 10
4.103000
 20
0.366960
 40
0.138208
  1
1-3/16" x 2- 3/8"
 41
1.000000
  7
SN0
 71
     0
 72
     5
 11
5.292506
 21
0.366960
  0
POLYLINE
  8
0
  6
CONTINUOUS
 66
     1
 40
0.000000
 41
0.000000
  0
VERTEX
  8
0
  6
CONTINUOUS
 10
7.717600
 20
2.437160
  0
VERTEX
  8
0
  6
CONTINUOUS
 10
7.714520
 20
2.469720
  0
VERTEX
  8
0
  6
CONTINUOUS
 10
7.710560
 20
2.485120
  0
VERTEX
  8
0
  6
CONTINUOUS
 10
7.698240
 20
2.513720
  0
VERTEX
  8
0
  6
CONTINUOUS
 10
7.680640
 20
2.539680
  0
VERTEX
  8
0
  6
CONTINUOUS
 10
7.659080
 20
2.561240
  0
VERTEX
  8
0
  6
CONTINUOUS
 10
7.633120
 20
2.578840
  0
VERTEX
  8
0
  6
CONTINUOUS
 10
7.604520
 20
2.591160
  0
VERTEX
  8
0
  6
CONTINUOUS
 10
7.589120
 20
2.595120
  0
VERTEX
  8
0
  6
CONTINUOUS
 10
7.556560
 20
2.598200
  0
VERTEX
  8
0
  6
CONTINUOUS
 10
7.528840
 20
2.596000
  0
VERTEX
  8
0
  6
CONTINUOUS
 10
7.502880
 20
2.588960
  0
VERTEX
  8
0
  6
CONTINUOUS
 10
7.478680
 20
2.578400
  0
VERTEX
  8
0
  6
CONTINUOUS
 10
7.456680
 20
2.563880
  0
VERTEX
  8
0
  6
CONTINUOUS
 10
7.437760
 20
2.545840
  0
VERTEX
  8
0
  6
CONTINUOUS
 10
7.421480
 20
2.525160
  0
VERTEX
  8
0
  6
CONTINUOUS
 10
7.409160
 20
2.502280
  0
VERTEX
  8
0
  6
CONTINUOUS
 10
7.400360
 20
2.476760
  0
VERTEX
  8
0
  6
CONTINUOUS
 10
7.329960
 20
2.476760
  0
VERTEX
  8
0
  6
CONTINUOUS
 10
7.315000
 20
2.457840
  0
VERTEX
  8
0
  6
CONTINUOUS
 10
7.299160
 20
2.441560
  0
VERTEX
  8
0
  6
CONTINUOUS
 10
7.266160
 20
2.415160
  0
VERTEX
  8
0
  6
CONTINUOUS
 10
7.249000
 20
2.405480
  0
VERTEX
  8
0
  6
CONTINUOUS
 10
7.231400
 20
2.398000
  0
VERTEX
  8
0
  6
CONTINUOUS
 10
7.213360
 20
2.392280
  0
VERTEX
  8
0
  6
CONTINUOUS
 10
7.195320
 20
2.388760
  0
VERTEX
  8
0
  6
CONTINUOUS
 10
7.177280
 20
2.387440
  0
VERTEX
  8
0
  6
CONTINUOUS
 10
7.159240
 20
2.387880
  0
VERTEX
  8
0
  6
CONTINUOUS
 10
7.140760
 20
2.390080
  0
VERTEX
  8
0
  6
CONTINUOUS
 10
7.104680
 20
2.400200
  0
VERTEX
  8
0
  6
CONTINUOUS
 10
7.069480
 20
2.417800
  0
VERTEX
  8
0
  6
CONTINUOUS
 10
7.036040
 20
2.441560
  0
VERTEX
  8
0
  6
CONTINUOUS
 10
7.004800
 20
2.471920
  0
VERTEX
  8
0
  6
CONTINUOUS
 10
6.975760
 20
2.508440
  0
VERTEX
  8
0
  6
CONTINUOUS
 10
6.950680
 20
2.550240
  0
VERTEX
  8
0
  6
CONTINUOUS
 10
6.929120
 20
2.597760
  0
VERTEX
  8
0
  6
CONTINUOUS
 10
6.912400
 20
2.649680
  0
VERTEX
  8
0
  6
CONTINUOUS
 10
6.900960
 20
2.706440
  0
VERTEX
  8
0
  6
CONTINUOUS
 10
6.897000
 20
2.736360
  0
VERTEX
  8
0
  6
CONTINUOUS
 10
6.894800
 20
2.767600
  0
VERTEX
  8
0
  6
CONTINUOUS
 10
6.894360
 20
2.799280
  0
VERTEX
  8
0
  6
CONTINUOUS
 10
6.823960
 20
2.799280
  0
VERTEX
  8
0
  6
CONTINUOUS
 10
6.806360
 20
2.849000
  0
VERTEX
  8
0
  6
CONTINUOUS
 10
6.785680
 20
2.894760
  0
VERTEX
  8
0
  6
CONTINUOUS
 10
6.761920
 20
2.936120
  0
VERTEX
  8
0
  6
CONTINUOUS
 10
6.735080
 20
2.973520
  0
VERTEX
  8
0
  6
CONTINUOUS
 10
6.706040
 20
3.007400
  0
VERTEX
  8
0
  6
CONTINUOUS
 10
6.674800
 20
3.036880
  0
VERTEX
  8
0
  6
CONTINUOUS
 10
6.641800
 20
3.063280
  0
VERTEX
  8
0
  6
CONTINUOUS
 10
6.606600
 20
3.085720
  0
VERTEX
  8
0
  6
CONTINUOUS
 10
6.551160
 20
3.113000
  0
VERTEX
  8
0
  6
CONTINUOUS
 10
6.493520
 20
3.132360
  0
VERTEX
  8
0
  6
CONTINUOUS
 10
6.453920
 20
3.141600
  0
VERTEX
  8
0
  6
CONTINUOUS
 10
6.413880
 20
3.147320
  0
VERTEX
  8
0
  6
CONTINUOUS
 10
6.373840
 20
3.150400
  0
VERTEX
  8
0
  6
CONTINUOUS
 10
6.333800
 20
3.150400
  0
VERTEX
  8
0
  6
CONTINUOUS
 10
6.293760
 20
3.147760
  0
VERTEX
  8
0
  6
CONTINUOUS
 10
6.254160
 20
3.142040
  0
VERTEX
  8
0
  6
CONTINUOUS
 10
6.196520
 20
3.128840
  0
VERTEX
  8
0
  6
CONTINUOUS
 10
6.141080
 20
3.109920
  0
VERTEX
  8
0
  6
CONTINUOUS
 10
6.105880
 20
3.094520
  0
VERTEX
  8
0
  6
CONTINUOUS
 10
6.056600
 20
3.066800
  0
VERTEX
  8
0
  6
CONTINUOUS
 10
6.012160
 20
3.034680
  0
VERTEX
  8
0
  6
CONTINUOUS
 10
5.973440
 20
2.998160
  0
VERTEX
  8
0
  6
CONTINUOUS
 10
5.940880
 20
2.957240
  0
VERTEX
  8
0
  6
CONTINUOUS
 10
5.923280
 20
2.928200
  0
VERTEX
  8
0
  6
CONTINUOUS
 10
5.909200
 20
2.897400
  0
VERTEX
  8
0
  6
CONTINUOUS
 10
5.899080
 20
2.865280
  0
VERTEX
  8
0
  6
CONTINUOUS
 10
5.892480
 20
2.831400
  0
VERTEX
  8
0
  6
CONTINUOUS
 10
5.890280
 20
2.796640
  0
VERTEX
  8
0
  6
CONTINUOUS
 10
5.890280
 20
1.993640
  0
VERTEX
  8
0
  6
CONTINUOUS
 10
8.234160
 20
1.993640
  0
VERTEX
  8
0
  6
CONTINUOUS
 10
8.234160
 20
2.123000
  0
VERTEX
  8
0
  6
CONTINUOUS
 10
8.194120
 20
2.136640
  0
VERTEX
  8
0
  6
CONTINUOUS
 10
8.152760
 20
2.156440
  0
VERTEX
  8
0
  6
CONTINUOUS
 10
8.096880
 20
2.190760
  0
VERTEX
  8
0
  6
CONTINUOUS
 10
8.042760
 20
2.231240
  0
VERTEX
  8
0
  6
CONTINUOUS
 10
7.993040
 20
2.274800
  0
VERTEX
  8
0
  6
CONTINUOUS
 10
7.949480
 20
2.319680
  0
VERTEX
  8
0
  6
CONTINUOUS
 10
7.915600
 20
2.362800
  0
VERTEX
  8
0
  6
CONTINUOUS
 10
7.897560
 20
2.392280
  0
VERTEX
  8
0
  6
CONTINUOUS
 10
7.887000
 20
2.417800
  0
VERTEX
  8
0
  6
CONTINUOUS
 10
7.717160
 20
2.433640
  0
VERTEX
  8
0
  6
CONTINUOUS
 10
7.717600
 20
2.437160
  0
SEQEND
  8
0
  0
TEXT
  8
0
 10
6.691960
 20
2.255000
 40
0.138208
  1
940
 41
1.000000
  7
SN0
 71
     0
 72
     5
 11
6.969548
 21
2.255000
  0
TEXT
  8
0
 10
6.236120
 20
2.063600
 40
0.138208
  1
1-3/16" x 2- 3/8"
 41
1.000000
  7
SN0
 71
     0
 72
     5
 11
7.425626
 21
2.063600
  0
ENDSEC
  0
EOF
