  0
SECTION
  2
HEADER
  9
$ACADVER
  1
AC1006
  9
$EXTMIN
 10
4.553560
 20
0.436920
  9
$EXTMAX
 10
7.473840
 20
1.955800
  9
$LTSCALE
 40
0.044000
  9
$PDMODE
 70
    35
  9
$PDSIZE
 40
0.035200
  0
ENDSEC
  0
SECTION
  2
TABLES
  0
TABLE
  2
LTYPE
 70
     9
  0
LTYPE
  2
CONTINUOUS
 70
    64
  3
Solid line
 72
    65
 73
     0
 40
0.000000
  0
LTYPE
  2
DASHED
 70
    64
  3
__ __ __ __ __ __ __ __ __ __ __ __ __ __ __
 72
    65
 73
     2
 40
0.000330
 49
0.000220
 49
-0.000110
  0
LTYPE
  2
HIDDEN
 70
    64
  3
 _ _ _ _ _ _ _ _ _ _ _ _ _ _ _ _ _ _ _ _ _ _
 72
    65
 73
     2
 40
0.000165
 49
0.000110
 49
-0.000055
  0
LTYPE
  2
CENTER
 70
    64
  3
____ _ ____ _ ____ _ ____ _ ____ _ ____ _ ____
 72
    65
 73
     4
 40
0.000880
 49
0.000550
 49
-0.000110
 49
0.000110
 49
-0.000110
  0
LTYPE
  2
PHANTOM
 70
    64
  3
_____ _ _ _____ _ _ _____ _ _ _____ _ _ ____
 72
    65
 73
     6
 40
0.001100
 49
0.000550
 49
-0.000110
 49
0.000110
 49
-0.000110
 49
0.000110
 49
-0.000110
  0
LTYPE
  2
DOT
 70
    64
  3
...............................................
 72
    65
 73
     2
 40
0.000110
 49
0.000000
 49
-0.000110
  0
LTYPE
  2
DASHDOT
 70
    64
  3
__ . __ . __ . __ . __ . __ . __ . __ . __ . __
 72
    65
 73
     4
 40
0.000440
 49
0.000220
 49
-0.000110
 49
0.000000
 49
-0.000110
  0
LTYPE
  2
BORDER
 70
    64
  3
__ __ . __ __ . __ __ . __ __ . __ __ . __ __
 72
    65
 73
     6
 40
0.000770
 49
0.000220
 49
-0.000110
 49
0.000220
 49
-0.000110
 49
0.000000
 49
-0.000110
  0
LTYPE
  2
DIVIDE
 70
    64
  3
__ . . __ . . __ . . __ . . __ . . __ . . __
 72
    65
 73
     6
 40
0.000550
 49
0.000220
 49
-0.000110
 49
0.000000
 49
-0.000110
 49
0.000000
 49
-0.000110
  0
LTYPE
  2
DOTDOT
 70
    64
  3
 . .  . .  . .  . .  . .  . . 
 72
    65
 73
     5
 40
0.000242
 49
-0.000110
 49
0.000000
 49
-0.000110
 49
0.000000
 49
-0.000110
  0
ENDTAB
  0
TABLE
  2
STYLE
 70
     2
  0
STYLE
 70
     0
  2
SN0
 40
0.000000
 41
0.000440
 50
0.000000
 71
     0
 42
0.000000
  3
ROMAND
  0
STYLE
 70
    68
  2
SV0
 40
0.000000
 41
0.000440
 50
0.000000
 71
     0
 42
0.000000
  3
ROMAND
  0
ENDTAB
  0
TABLE
  2
LAYER
 70
     3
  0
LAYER
  2
FOREGROUND
 70
    64
 62
     7
  6
CONTINUOUS
  0
LAYER
  2
BACKGROUND
 70
    65
 62
    -7
  6
CONTINUOUS
  0
LAYER
  2
0
 70
    64
 62
     7
  6
CONTINUOUS
  0
ENDTAB
  0
ENDSEC
  0
SECTION
  2
ENTITIES
  0
POLYLINE
  8
FOREGROUND
  6
CONTINUOUS
 66
     1
 40
0.000000
 41
0.000000
  0
VERTEX
  8
FOREGROUND
  6
CONTINUOUS
 10
0.000000
 20
2.392720
  0
VERTEX
  8
FOREGROUND
  6
CONTINUOUS
 10
8.499920
 20
2.392720
  0
VERTEX
  8
FOREGROUND
  6
CONTINUOUS
 10
8.499920
 20
-8.607280
  0
VERTEX
  8
FOREGROUND
  6
CONTINUOUS
 10
0.000000
 20
-8.607280
  0
VERTEX
  8
FOREGROUND
  6
CONTINUOUS
 10
0.000000
 20
2.392720
  0
SEQEND
  8
0
  0
POLYLINE
  8
FOREGROUND
  6
CONTINUOUS
 66
     1
 40
0.000000
 41
0.000000
  0
VERTEX
  8
FOREGROUND
  6
CONTINUOUS
 10
0.000000
 20
2.392720
  0
VERTEX
  8
FOREGROUND
  6
CONTINUOUS
 10
8.499920
 20
2.392720
  0
VERTEX
  8
FOREGROUND
  6
CONTINUOUS
 10
8.499920
 20
-8.607280
  0
VERTEX
  8
FOREGROUND
  6
CONTINUOUS
 10
0.000000
 20
-8.607280
  0
VERTEX
  8
FOREGROUND
  6
CONTINUOUS
 10
0.000000
 20
2.392720
  0
SEQEND
  8
0
  0
POLYLINE
  8
0
  6
CONTINUOUS
 66
     1
 40
0.014080
 41
0.014080
  0
VERTEX
  8
0
  6
CONTINUOUS
 10
6.840680
 20
1.837880
  0
VERTEX
  8
0
  6
CONTINUOUS
 10
6.852120
 20
1.756480
  0
VERTEX
  8
0
  6
CONTINUOUS
 10
6.860040
 20
1.723920
  0
VERTEX
  8
0
  6
CONTINUOUS
 10
6.867960
 20
1.706760
  0
VERTEX
  8
0
  6
CONTINUOUS
 10
6.879400
 20
1.692240
  0
VERTEX
  8
0
  6
CONTINUOUS
 10
6.895680
 20
1.679040
  0
VERTEX
  8
0
  6
CONTINUOUS
 10
6.924280
 20
1.662760
  0
VERTEX
  8
0
  6
CONTINUOUS
 10
7.095880
 20
1.595440
  0
VERTEX
  8
0
  6
CONTINUOUS
 10
7.165400
 20
1.565520
  0
VERTEX
  8
0
  6
CONTINUOUS
 10
7.234920
 20
1.530760
  0
VERTEX
  8
0
  6
CONTINUOUS
 10
7.299600
 20
1.490280
  0
VERTEX
  8
0
  6
CONTINUOUS
 10
7.342720
 20
1.456840
  0
VERTEX
  8
0
  6
CONTINUOUS
 10
7.367800
 20
1.432640
  0
VERTEX
  8
0
  6
CONTINUOUS
 10
7.407400
 20
1.383360
  0
VERTEX
  8
0
  6
CONTINUOUS
 10
7.436000
 20
1.340240
  0
VERTEX
  8
0
  6
CONTINUOUS
 10
7.450960
 20
1.311200
  0
VERTEX
  8
0
  6
CONTINUOUS
 10
7.458000
 20
1.293160
  0
VERTEX
  8
0
  6
CONTINUOUS
 10
7.462840
 20
1.276000
  0
VERTEX
  8
0
  6
CONTINUOUS
 10
7.465920
 20
1.259280
  0
VERTEX
  8
0
  6
CONTINUOUS
 10
7.466360
 20
1.227600
  0
VERTEX
  8
0
  6
CONTINUOUS
 10
7.464600
 20
1.211760
  0
VERTEX
  8
0
  6
CONTINUOUS
 10
7.456240
 20
1.180520
  0
VERTEX
  8
0
  6
CONTINUOUS
 10
7.444360
 20
1.147080
  0
VERTEX
  8
0
  6
CONTINUOUS
 10
7.436880
 20
1.129480
  0
VERTEX
  8
0
  6
CONTINUOUS
 10
6.438520
 20
1.129480
  0
VERTEX
  8
0
  6
CONTINUOUS
 10
6.438520
 20
1.838760
  0
VERTEX
  8
0
  6
CONTINUOUS
 10
6.842000
 20
1.838760
  0
SEQEND
  8
0
  0
SOLID
  8
0
 62
    15
 10
5.316080
 20
1.291840
 11
5.954080
 21
1.664960
 12
5.383840
 22
1.254440
 13
6.021840
 23
1.627560
  0
POLYLINE
  8
0
  6
CONTINUOUS
 66
     1
 40
0.000000
 41
0.000000
  0
VERTEX
  8
0
  6
CONTINUOUS
 10
5.316080
 20
1.291840
  0
VERTEX
  8
0
  6
CONTINUOUS
 10
5.954080
 20
1.664960
  0
VERTEX
  8
0
  6
CONTINUOUS
 10
6.021840
 20
1.627560
  0
VERTEX
  8
0
  6
CONTINUOUS
 10
5.383840
 20
1.254440
  0
VERTEX
  8
0
  6
CONTINUOUS
 10
5.316080
 20
1.291840
  0
SEQEND
  8
0
  0
SOLID
  8
0
 62
    15
 10
4.965840
 20
1.512720
 11
5.603840
 21
1.886280
 12
4.970240
 22
1.487640
 13
5.608240
 23
1.861200
  0
POLYLINE
  8
0
  6
CONTINUOUS
 66
     1
 40
0.000000
 41
0.000000
  0
VERTEX
  8
0
  6
CONTINUOUS
 10
4.965840
 20
1.512720
  0
VERTEX
  8
0
  6
CONTINUOUS
 10
5.603840
 20
1.886280
  0
VERTEX
  8
0
  6
CONTINUOUS
 10
5.608240
 20
1.861200
  0
VERTEX
  8
0
  6
CONTINUOUS
 10
4.970240
 20
1.487640
  0
VERTEX
  8
0
  6
CONTINUOUS
 10
4.965840
 20
1.512720
  0
SEQEND
  8
0
  0
SOLID
  8
0
 62
     7
 10
4.970240
 20
1.487640
 11
5.608240
 21
1.861200
 12
4.975960
 22
1.467400
 13
5.613960
 23
1.840520
  0
POLYLINE
  8
0
  6
CONTINUOUS
 66
     1
 40
0.000000
 41
0.000000
  0
VERTEX
  8
0
  6
CONTINUOUS
 10
4.970240
 20
1.487640
  0
VERTEX
  8
0
  6
CONTINUOUS
 10
5.608240
 20
1.861200
  0
VERTEX
  8
0
  6
CONTINUOUS
 10
5.613960
 20
1.840520
  0
VERTEX
  8
0
  6
CONTINUOUS
 10
4.975960
 20
1.467400
  0
VERTEX
  8
0
  6
CONTINUOUS
 10
4.970240
 20
1.487640
  0
SEQEND
  8
0
  0
SOLID
  8
0
 62
     7
 10
4.975960
 20
1.467400
 11
5.613960
 21
1.840520
 12
4.983880
 22
1.450240
 13
5.621880
 23
1.823360
  0
POLYLINE
  8
0
  6
CONTINUOUS
 66
     1
 40
0.000000
 41
0.000000
  0
VERTEX
  8
0
  6
CONTINUOUS
 10
4.975960
 20
1.467400
  0
VERTEX
  8
0
  6
CONTINUOUS
 10
5.613960
 20
1.840520
  0
VERTEX
  8
0
  6
CONTINUOUS
 10
5.621880
 20
1.823360
  0
VERTEX
  8
0
  6
CONTINUOUS
 10
4.983880
 20
1.450240
  0
VERTEX
  8
0
  6
CONTINUOUS
 10
4.975960
 20
1.467400
  0
SEQEND
  8
0
  0
SOLID
  8
0
 62
    15
 10
4.983880
 20
1.450240
 11
5.621880
 21
1.823360
 12
4.994880
 22
1.435720
 13
5.633320
 23
1.808840
  0
POLYLINE
  8
0
  6
CONTINUOUS
 66
     1
 40
0.000000
 41
0.000000
  0
VERTEX
  8
0
  6
CONTINUOUS
 10
4.983880
 20
1.450240
  0
VERTEX
  8
0
  6
CONTINUOUS
 10
5.621880
 20
1.823360
  0
VERTEX
  8
0
  6
CONTINUOUS
 10
5.633320
 20
1.808840
  0
VERTEX
  8
0
  6
CONTINUOUS
 10
4.994880
 20
1.435720
  0
VERTEX
  8
0
  6
CONTINUOUS
 10
4.983880
 20
1.450240
  0
SEQEND
  8
0
  0
SOLID
  8
0
 62
    15
 10
4.994880
 20
1.435720
 11
5.633320
 21
1.808840
 12
5.011160
 22
1.422080
 13
5.649160
 23
1.795640
  0
POLYLINE
  8
0
  6
CONTINUOUS
 66
     1
 40
0.000000
 41
0.000000
  0
VERTEX
  8
0
  6
CONTINUOUS
 10
4.994880
 20
1.435720
  0
VERTEX
  8
0
  6
CONTINUOUS
 10
5.633320
 20
1.808840
  0
VERTEX
  8
0
  6
CONTINUOUS
 10
5.649160
 20
1.795640
  0
VERTEX
  8
0
  6
CONTINUOUS
 10
5.011160
 20
1.422080
  0
VERTEX
  8
0
  6
CONTINUOUS
 10
4.994880
 20
1.435720
  0
SEQEND
  8
0
  0
SOLID
  8
0
 62
    15
 10
5.011160
 20
1.422080
 11
5.649160
 21
1.795640
 12
5.032720
 22
1.409320
 13
5.670720
 23
1.782440
  0
POLYLINE
  8
0
  6
CONTINUOUS
 66
     1
 40
0.000000
 41
0.000000
  0
VERTEX
  8
0
  6
CONTINUOUS
 10
5.011160
 20
1.422080
  0
VERTEX
  8
0
  6
CONTINUOUS
 10
5.649160
 20
1.795640
  0
VERTEX
  8
0
  6
CONTINUOUS
 10
5.670720
 20
1.782440
  0
VERTEX
  8
0
  6
CONTINUOUS
 10
5.032720
 20
1.409320
  0
VERTEX
  8
0
  6
CONTINUOUS
 10
5.011160
 20
1.422080
  0
SEQEND
  8
0
  0
SOLID
  8
0
 62
    15
 10
5.032720
 20
1.409320
 11
5.670720
 21
1.782440
 12
5.047680
 22
1.402280
 13
5.685680
 23
1.775400
  0
POLYLINE
  8
0
  6
CONTINUOUS
 66
     1
 40
0.000000
 41
0.000000
  0
VERTEX
  8
0
  6
CONTINUOUS
 10
5.032720
 20
1.409320
  0
VERTEX
  8
0
  6
CONTINUOUS
 10
5.670720
 20
1.782440
  0
VERTEX
  8
0
  6
CONTINUOUS
 10
5.685680
 20
1.775400
  0
VERTEX
  8
0
  6
CONTINUOUS
 10
5.047680
 20
1.402280
  0
VERTEX
  8
0
  6
CONTINUOUS
 10
5.032720
 20
1.409320
  0
SEQEND
  8
0
  0
SOLID
  8
0
 62
    15
 10
5.047680
 20
1.402280
 11
5.685680
 21
1.775400
 12
5.067040
 22
1.394360
 13
5.705040
 23
1.767480
  0
POLYLINE
  8
0
  6
CONTINUOUS
 66
     1
 40
0.000000
 41
0.000000
  0
VERTEX
  8
0
  6
CONTINUOUS
 10
5.047680
 20
1.402280
  0
VERTEX
  8
0
  6
CONTINUOUS
 10
5.685680
 20
1.775400
  0
VERTEX
  8
0
  6
CONTINUOUS
 10
5.705040
 20
1.767480
  0
VERTEX
  8
0
  6
CONTINUOUS
 10
5.067040
 20
1.394360
  0
VERTEX
  8
0
  6
CONTINUOUS
 10
5.047680
 20
1.402280
  0
SEQEND
  8
0
  0
SOLID
  8
0
 62
    15
 10
5.067040
 20
1.394360
 11
5.705040
 21
1.767480
 12
5.090360
 22
1.385120
 13
5.728360
 23
1.758680
  0
POLYLINE
  8
0
  6
CONTINUOUS
 66
     1
 40
0.000000
 41
0.000000
  0
VERTEX
  8
0
  6
CONTINUOUS
 10
5.067040
 20
1.394360
  0
VERTEX
  8
0
  6
CONTINUOUS
 10
5.705040
 20
1.767480
  0
VERTEX
  8
0
  6
CONTINUOUS
 10
5.728360
 20
1.758680
  0
VERTEX
  8
0
  6
CONTINUOUS
 10
5.090360
 20
1.385120
  0
VERTEX
  8
0
  6
CONTINUOUS
 10
5.067040
 20
1.394360
  0
SEQEND
  8
0
  0
SOLID
  8
0
 62
    15
 10
5.090360
 20
1.385120
 11
5.728360
 21
1.758680
 12
5.116760
 22
1.375440
 13
5.755200
 23
1.748560
  0
POLYLINE
  8
0
  6
CONTINUOUS
 66
     1
 40
0.000000
 41
0.000000
  0
VERTEX
  8
0
  6
CONTINUOUS
 10
5.090360
 20
1.385120
  0
VERTEX
  8
0
  6
CONTINUOUS
 10
5.728360
 20
1.758680
  0
VERTEX
  8
0
  6
CONTINUOUS
 10
5.755200
 20
1.748560
  0
VERTEX
  8
0
  6
CONTINUOUS
 10
5.116760
 20
1.375440
  0
VERTEX
  8
0
  6
CONTINUOUS
 10
5.090360
 20
1.385120
  0
SEQEND
  8
0
  0
SOLID
  8
0
 62
    15
 10
5.116760
 20
1.375440
 11
5.755200
 21
1.748560
 12
5.177920
 22
1.352120
 13
5.816360
 23
1.725240
  0
POLYLINE
  8
0
  6
CONTINUOUS
 66
     1
 40
0.000000
 41
0.000000
  0
VERTEX
  8
0
  6
CONTINUOUS
 10
5.116760
 20
1.375440
  0
VERTEX
  8
0
  6
CONTINUOUS
 10
5.755200
 20
1.748560
  0
VERTEX
  8
0
  6
CONTINUOUS
 10
5.816360
 20
1.725240
  0
VERTEX
  8
0
  6
CONTINUOUS
 10
5.177920
 20
1.352120
  0
VERTEX
  8
0
  6
CONTINUOUS
 10
5.116760
 20
1.375440
  0
SEQEND
  8
0
  0
SOLID
  8
0
 62
    15
 10
5.177920
 20
1.352120
 11
5.816360
 21
1.725240
 12
5.245680
 22
1.324400
 13
5.884120
 23
1.697520
  0
POLYLINE
  8
0
  6
CONTINUOUS
 66
     1
 40
0.000000
 41
0.000000
  0
VERTEX
  8
0
  6
CONTINUOUS
 10
5.177920
 20
1.352120
  0
VERTEX
  8
0
  6
CONTINUOUS
 10
5.816360
 20
1.725240
  0
VERTEX
  8
0
  6
CONTINUOUS
 10
5.884120
 20
1.697520
  0
VERTEX
  8
0
  6
CONTINUOUS
 10
5.245680
 20
1.324400
  0
VERTEX
  8
0
  6
CONTINUOUS
 10
5.177920
 20
1.352120
  0
SEQEND
  8
0
  0
SOLID
  8
0
 62
    15
 10
5.245680
 20
1.324400
 11
5.884120
 21
1.697520
 12
5.316080
 22
1.291840
 13
5.954080
 23
1.664960
  0
POLYLINE
  8
0
  6
CONTINUOUS
 66
     1
 40
0.000000
 41
0.000000
  0
VERTEX
  8
0
  6
CONTINUOUS
 10
5.245680
 20
1.324400
  0
VERTEX
  8
0
  6
CONTINUOUS
 10
5.884120
 20
1.697520
  0
VERTEX
  8
0
  6
CONTINUOUS
 10
5.954080
 20
1.664960
  0
VERTEX
  8
0
  6
CONTINUOUS
 10
5.316080
 20
1.291840
  0
VERTEX
  8
0
  6
CONTINUOUS
 10
5.245680
 20
1.324400
  0
SEQEND
  8
0
  0
SOLID
  8
0
 62
    15
 10
4.956160
 20
1.580920
 11
5.594600
 21
1.954480
 12
4.965840
 22
1.512720
 13
5.603840
 23
1.886280
  0
POLYLINE
  8
0
  6
CONTINUOUS
 66
     1
 40
0.000000
 41
0.000000
  0
VERTEX
  8
0
  6
CONTINUOUS
 10
4.956160
 20
1.580920
  0
VERTEX
  8
0
  6
CONTINUOUS
 10
5.594600
 20
1.954480
  0
VERTEX
  8
0
  6
CONTINUOUS
 10
5.603840
 20
1.886280
  0
VERTEX
  8
0
  6
CONTINUOUS
 10
4.965840
 20
1.512720
  0
VERTEX
  8
0
  6
CONTINUOUS
 10
4.956160
 20
1.580920
  0
SEQEND
  8
0
  0
SOLID
  8
0
 62
    15
 10
5.383840
 20
1.254440
 11
6.021840
 21
1.627560
 12
5.444560
 22
1.211760
 13
6.082560
 23
1.584880
  0
POLYLINE
  8
0
  6
CONTINUOUS
 66
     1
 40
0.000000
 41
0.000000
  0
VERTEX
  8
0
  6
CONTINUOUS
 10
5.383840
 20
1.254440
  0
VERTEX
  8
0
  6
CONTINUOUS
 10
6.021840
 20
1.627560
  0
VERTEX
  8
0
  6
CONTINUOUS
 10
6.082560
 20
1.584880
  0
VERTEX
  8
0
  6
CONTINUOUS
 10
5.444560
 20
1.211760
  0
VERTEX
  8
0
  6
CONTINUOUS
 10
5.383840
 20
1.254440
  0
SEQEND
  8
0
  0
SOLID
  8
0
 62
    15
 10
5.444560
 20
1.211760
 11
6.082560
 21
1.584880
 12
5.470960
 22
1.188000
 13
6.109400
 23
1.561560
  0
POLYLINE
  8
0
  6
CONTINUOUS
 66
     1
 40
0.000000
 41
0.000000
  0
VERTEX
  8
0
  6
CONTINUOUS
 10
5.444560
 20
1.211760
  0
VERTEX
  8
0
  6
CONTINUOUS
 10
6.082560
 20
1.584880
  0
VERTEX
  8
0
  6
CONTINUOUS
 10
6.109400
 20
1.561560
  0
VERTEX
  8
0
  6
CONTINUOUS
 10
5.470960
 20
1.188000
  0
VERTEX
  8
0
  6
CONTINUOUS
 10
5.444560
 20
1.211760
  0
SEQEND
  8
0
  0
SOLID
  8
0
 62
    15
 10
5.470960
 20
1.188000
 11
6.109400
 21
1.561560
 12
5.494280
 22
1.163360
 13
6.132280
 23
1.536480
  0
POLYLINE
  8
0
  6
CONTINUOUS
 66
     1
 40
0.000000
 41
0.000000
  0
VERTEX
  8
0
  6
CONTINUOUS
 10
5.470960
 20
1.188000
  0
VERTEX
  8
0
  6
CONTINUOUS
 10
6.109400
 20
1.561560
  0
VERTEX
  8
0
  6
CONTINUOUS
 10
6.132280
 20
1.536480
  0
VERTEX
  8
0
  6
CONTINUOUS
 10
5.494280
 20
1.163360
  0
VERTEX
  8
0
  6
CONTINUOUS
 10
5.470960
 20
1.188000
  0
SEQEND
  8
0
  0
SOLID
  8
0
 62
    15
 10
5.494280
 20
1.163360
 11
6.132280
 21
1.536480
 12
5.514080
 22
1.138280
 13
6.152080
 23
1.511400
  0
POLYLINE
  8
0
  6
CONTINUOUS
 66
     1
 40
0.000000
 41
0.000000
  0
VERTEX
  8
0
  6
CONTINUOUS
 10
5.494280
 20
1.163360
  0
VERTEX
  8
0
  6
CONTINUOUS
 10
6.132280
 20
1.536480
  0
VERTEX
  8
0
  6
CONTINUOUS
 10
6.152080
 20
1.511400
  0
VERTEX
  8
0
  6
CONTINUOUS
 10
5.514080
 20
1.138280
  0
VERTEX
  8
0
  6
CONTINUOUS
 10
5.494280
 20
1.163360
  0
SEQEND
  8
0
  0
SOLID
  8
0
 62
    15
 10
5.514080
 20
1.138280
 11
6.152080
 21
1.511400
 12
5.531240
 22
1.115400
 13
6.169240
 23
1.488520
  0
POLYLINE
  8
0
  6
CONTINUOUS
 66
     1
 40
0.000000
 41
0.000000
  0
VERTEX
  8
0
  6
CONTINUOUS
 10
5.514080
 20
1.138280
  0
VERTEX
  8
0
  6
CONTINUOUS
 10
6.152080
 20
1.511400
  0
VERTEX
  8
0
  6
CONTINUOUS
 10
6.169240
 20
1.488520
  0
VERTEX
  8
0
  6
CONTINUOUS
 10
5.531240
 20
1.115400
  0
VERTEX
  8
0
  6
CONTINUOUS
 10
5.514080
 20
1.138280
  0
SEQEND
  8
0
  0
SOLID
  8
0
 62
    15
 10
5.531240
 20
1.115400
 11
6.169240
 21
1.488520
 12
5.557200
 22
1.073600
 13
6.195200
 23
1.446720
  0
POLYLINE
  8
0
  6
CONTINUOUS
 66
     1
 40
0.000000
 41
0.000000
  0
VERTEX
  8
0
  6
CONTINUOUS
 10
5.531240
 20
1.115400
  0
VERTEX
  8
0
  6
CONTINUOUS
 10
6.169240
 20
1.488520
  0
VERTEX
  8
0
  6
CONTINUOUS
 10
6.195200
 20
1.446720
  0
VERTEX
  8
0
  6
CONTINUOUS
 10
5.557200
 20
1.073600
  0
VERTEX
  8
0
  6
CONTINUOUS
 10
5.531240
 20
1.115400
  0
SEQEND
  8
0
  0
SOLID
  8
0
 62
    15
 10
5.557200
 20
1.073600
 11
6.195200
 21
1.446720
 12
5.573480
 22
1.036640
 13
6.211480
 23
1.409760
  0
POLYLINE
  8
0
  6
CONTINUOUS
 66
     1
 40
0.000000
 41
0.000000
  0
VERTEX
  8
0
  6
CONTINUOUS
 10
5.557200
 20
1.073600
  0
VERTEX
  8
0
  6
CONTINUOUS
 10
6.195200
 20
1.446720
  0
VERTEX
  8
0
  6
CONTINUOUS
 10
6.211480
 20
1.409760
  0
VERTEX
  8
0
  6
CONTINUOUS
 10
5.573480
 20
1.036640
  0
VERTEX
  8
0
  6
CONTINUOUS
 10
5.557200
 20
1.073600
  0
SEQEND
  8
0
  0
SOLID
  8
0
 62
    15
 10
5.573480
 20
1.036640
 11
6.211480
 21
1.409760
 12
5.581400
 22
1.002760
 13
6.219400
 23
1.375880
  0
POLYLINE
  8
0
  6
CONTINUOUS
 66
     1
 40
0.000000
 41
0.000000
  0
VERTEX
  8
0
  6
CONTINUOUS
 10
5.573480
 20
1.036640
  0
VERTEX
  8
0
  6
CONTINUOUS
 10
6.211480
 20
1.409760
  0
VERTEX
  8
0
  6
CONTINUOUS
 10
6.219400
 20
1.375880
  0
VERTEX
  8
0
  6
CONTINUOUS
 10
5.581400
 20
1.002760
  0
VERTEX
  8
0
  6
CONTINUOUS
 10
5.573480
 20
1.036640
  0
SEQEND
  8
0
  0
SOLID
  8
0
 62
    15
 10
5.581400
 20
1.002760
 11
6.219400
 21
1.375880
 12
5.581840
 22
0.971080
 13
6.220280
 23
1.344200
  0
POLYLINE
  8
0
  6
CONTINUOUS
 66
     1
 40
0.000000
 41
0.000000
  0
VERTEX
  8
0
  6
CONTINUOUS
 10
5.581400
 20
1.002760
  0
VERTEX
  8
0
  6
CONTINUOUS
 10
6.219400
 20
1.375880
  0
VERTEX
  8
0
  6
CONTINUOUS
 10
6.220280
 20
1.344200
  0
VERTEX
  8
0
  6
CONTINUOUS
 10
5.581840
 20
0.971080
  0
VERTEX
  8
0
  6
CONTINUOUS
 10
5.581400
 20
1.002760
  0
SEQEND
  8
0
  0
SOLID
  8
0
 62
    15
 10
5.581840
 20
0.971080
 11
6.220280
 21
1.344200
 12
5.576560
 22
0.939400
 13
6.214560
 23
1.312520
  0
POLYLINE
  8
0
  6
CONTINUOUS
 66
     1
 40
0.000000
 41
0.000000
  0
VERTEX
  8
0
  6
CONTINUOUS
 10
5.581840
 20
0.971080
  0
VERTEX
  8
0
  6
CONTINUOUS
 10
6.220280
 20
1.344200
  0
VERTEX
  8
0
  6
CONTINUOUS
 10
6.214560
 20
1.312520
  0
VERTEX
  8
0
  6
CONTINUOUS
 10
5.576560
 20
0.939400
  0
VERTEX
  8
0
  6
CONTINUOUS
 10
5.581840
 20
0.971080
  0
SEQEND
  8
0
  0
SOLID
  8
0
 62
    15
 10
5.576560
 20
0.939400
 11
6.214560
 21
1.312520
 12
5.566440
 22
0.907280
 13
6.204440
 23
1.280400
  0
POLYLINE
  8
0
  6
CONTINUOUS
 66
     1
 40
0.000000
 41
0.000000
  0
VERTEX
  8
0
  6
CONTINUOUS
 10
5.576560
 20
0.939400
  0
VERTEX
  8
0
  6
CONTINUOUS
 10
6.214560
 20
1.312520
  0
VERTEX
  8
0
  6
CONTINUOUS
 10
6.204440
 20
1.280400
  0
VERTEX
  8
0
  6
CONTINUOUS
 10
5.566440
 20
0.907280
  0
VERTEX
  8
0
  6
CONTINUOUS
 10
5.576560
 20
0.939400
  0
SEQEND
  8
0
  0
SOLID
  8
0
 62
    15
 10
5.566440
 20
0.907280
 11
6.204440
 21
1.280400
 12
5.552360
 22
0.872960
 13
6.190360
 23
1.246080
  0
POLYLINE
  8
0
  6
CONTINUOUS
 66
     1
 40
0.000000
 41
0.000000
  0
VERTEX
  8
0
  6
CONTINUOUS
 10
5.566440
 20
0.907280
  0
VERTEX
  8
0
  6
CONTINUOUS
 10
6.204440
 20
1.280400
  0
VERTEX
  8
0
  6
CONTINUOUS
 10
6.190360
 20
1.246080
  0
VERTEX
  8
0
  6
CONTINUOUS
 10
5.552360
 20
0.872960
  0
VERTEX
  8
0
  6
CONTINUOUS
 10
5.566440
 20
0.907280
  0
SEQEND
  8
0
  0
SOLID
  8
0
 62
    15
 10
4.554000
 20
1.581800
 11
5.192440
 21
1.954920
 12
4.957480
 22
1.581800
 13
5.595920
 23
1.954920
  0
POLYLINE
  8
0
  6
CONTINUOUS
 66
     1
 40
0.000000
 41
0.000000
  0
VERTEX
  8
0
  6
CONTINUOUS
 10
4.554000
 20
1.581800
  0
VERTEX
  8
0
  6
CONTINUOUS
 10
5.192440
 20
1.954920
  0
VERTEX
  8
0
  6
CONTINUOUS
 10
5.595920
 20
1.954920
  0
VERTEX
  8
0
  6
CONTINUOUS
 10
4.957480
 20
1.581800
  0
VERTEX
  8
0
  6
CONTINUOUS
 10
4.554000
 20
1.581800
  0
SEQEND
  8
0
  0
SOLID
  8
0
 62
    15
 10
4.957480
 20
1.581800
 11
5.595920
 21
1.954920
 12
4.956160
 22
1.580920
 13
5.594600
 23
1.954480
  0
POLYLINE
  8
0
  6
CONTINUOUS
 66
     1
 40
0.000000
 41
0.000000
  0
VERTEX
  8
0
  6
CONTINUOUS
 10
4.957480
 20
1.581800
  0
VERTEX
  8
0
  6
CONTINUOUS
 10
5.595920
 20
1.954920
  0
VERTEX
  8
0
  6
CONTINUOUS
 10
5.594600
 20
1.954480
  0
VERTEX
  8
0
  6
CONTINUOUS
 10
4.956160
 20
1.580920
  0
VERTEX
  8
0
  6
CONTINUOUS
 10
4.957480
 20
1.581800
  0
SEQEND
  8
0
  0
POLYLINE
  8
0
  6
CONTINUOUS
 66
     1
 40
0.000000
 41
0.000000
  0
VERTEX
  8
0
  6
CONTINUOUS
 10
4.956160
 20
1.580920
  0
VERTEX
  8
0
  6
CONTINUOUS
 10
4.965840
 20
1.512720
  0
VERTEX
  8
0
  6
CONTINUOUS
 10
4.970240
 20
1.487640
  0
VERTEX
  8
0
  6
CONTINUOUS
 10
4.975960
 20
1.467400
  0
VERTEX
  8
0
  6
CONTINUOUS
 10
4.983880
 20
1.450240
  0
VERTEX
  8
0
  6
CONTINUOUS
 10
4.994880
 20
1.435720
  0
VERTEX
  8
0
  6
CONTINUOUS
 10
5.011160
 20
1.422080
  0
VERTEX
  8
0
  6
CONTINUOUS
 10
5.032720
 20
1.409320
  0
VERTEX
  8
0
  6
CONTINUOUS
 10
5.047680
 20
1.402280
  0
VERTEX
  8
0
  6
CONTINUOUS
 10
5.067040
 20
1.394360
  0
VERTEX
  8
0
  6
CONTINUOUS
 10
5.090360
 20
1.385120
  0
VERTEX
  8
0
  6
CONTINUOUS
 10
5.116760
 20
1.375440
  0
VERTEX
  8
0
  6
CONTINUOUS
 10
5.177920
 20
1.352120
  0
VERTEX
  8
0
  6
CONTINUOUS
 10
5.245680
 20
1.324400
  0
VERTEX
  8
0
  6
CONTINUOUS
 10
5.316080
 20
1.291840
  0
VERTEX
  8
0
  6
CONTINUOUS
 10
5.383840
 20
1.254440
  0
VERTEX
  8
0
  6
CONTINUOUS
 10
5.444560
 20
1.211760
  0
VERTEX
  8
0
  6
CONTINUOUS
 10
5.470960
 20
1.188000
  0
VERTEX
  8
0
  6
CONTINUOUS
 10
5.494280
 20
1.163360
  0
VERTEX
  8
0
  6
CONTINUOUS
 10
5.514080
 20
1.138280
  0
VERTEX
  8
0
  6
CONTINUOUS
 10
5.531240
 20
1.115400
  0
VERTEX
  8
0
  6
CONTINUOUS
 10
5.557200
 20
1.073600
  0
VERTEX
  8
0
  6
CONTINUOUS
 10
5.573480
 20
1.036640
  0
VERTEX
  8
0
  6
CONTINUOUS
 10
5.581400
 20
1.002760
  0
VERTEX
  8
0
  6
CONTINUOUS
 10
5.581840
 20
0.971080
  0
VERTEX
  8
0
  6
CONTINUOUS
 10
5.576560
 20
0.939400
  0
VERTEX
  8
0
  6
CONTINUOUS
 10
5.566440
 20
0.907280
  0
VERTEX
  8
0
  6
CONTINUOUS
 10
5.552360
 20
0.872960
  0
VERTEX
  8
0
  6
CONTINUOUS
 10
4.554000
 20
0.872960
  0
VERTEX
  8
0
  6
CONTINUOUS
 10
4.554000
 20
1.581800
  0
VERTEX
  8
0
  6
CONTINUOUS
 10
4.957480
 20
1.581800
  0
VERTEX
  8
0
  6
CONTINUOUS
 10
4.956160
 20
1.580920
  0
SEQEND
  8
0
  0
TEXT
  8
0
 10
5.091680
 20
0.673200
 40
0.138134
  1
BA  936
 41
1.000000
  7
SN0
 71
     0
 72
     5
 11
5.681285
 21
0.673200
  0
TEXT
  8
0
 10
5.078920
 20
0.481360
 40
0.138134
  1
3/4" x 1"
 41
1.000000
  7
SN0
 71
     0
 72
     5
 11
5.693493
 21
0.481360
  0
ENDSEC
  0
EOF
