  0
SECTION
  2
HEADER
  9
$ACADVER
  1
AC1006
  9
$EXTMIN
 10
0.713240
 20
0.574640
  9
$EXTMAX
 10
8.294440
 20
2.549800
  9
$LTSCALE
 40
0.044000
  9
$PDMODE
 70
    35
  9
$PDSIZE
 40
0.035200
  0
ENDSEC
  0
SECTION
  2
TABLES
  0
TABLE
  2
LTYPE
 70
     9
  0
LTYPE
  2
CONTINUOUS
 70
    64
  3
Solid line
 72
    65
 73
     0
 40
0.000000
  0
LTYPE
  2
DASHED
 70
    64
  3
__ __ __ __ __ __ __ __ __ __ __ __ __ __ __
 72
    65
 73
     2
 40
0.000330
 49
0.000220
 49
-0.000110
  0
LTYPE
  2
HIDDEN
 70
    64
  3
 _ _ _ _ _ _ _ _ _ _ _ _ _ _ _ _ _ _ _ _ _ _
 72
    65
 73
     2
 40
0.000165
 49
0.000110
 49
-0.000055
  0
LTYPE
  2
CENTER
 70
    64
  3
____ _ ____ _ ____ _ ____ _ ____ _ ____ _ ____
 72
    65
 73
     4
 40
0.000880
 49
0.000550
 49
-0.000110
 49
0.000110
 49
-0.000110
  0
LTYPE
  2
PHANTOM
 70
    64
  3
_____ _ _ _____ _ _ _____ _ _ _____ _ _ ____
 72
    65
 73
     6
 40
0.001100
 49
0.000550
 49
-0.000110
 49
0.000110
 49
-0.000110
 49
0.000110
 49
-0.000110
  0
LTYPE
  2
DOT
 70
    64
  3
...............................................
 72
    65
 73
     2
 40
0.000110
 49
0.000000
 49
-0.000110
  0
LTYPE
  2
DASHDOT
 70
    64
  3
__ . __ . __ . __ . __ . __ . __ . __ . __ . __
 72
    65
 73
     4
 40
0.000440
 49
0.000220
 49
-0.000110
 49
0.000000
 49
-0.000110
  0
LTYPE
  2
BORDER
 70
    64
  3
__ __ . __ __ . __ __ . __ __ . __ __ . __ __
 72
    65
 73
     6
 40
0.000770
 49
0.000220
 49
-0.000110
 49
0.000220
 49
-0.000110
 49
0.000000
 49
-0.000110
  0
LTYPE
  2
DIVIDE
 70
    64
  3
__ . . __ . . __ . . __ . . __ . . __ . . __
 72
    65
 73
     6
 40
0.000550
 49
0.000220
 49
-0.000110
 49
0.000000
 49
-0.000110
 49
0.000000
 49
-0.000110
  0
LTYPE
  2
DOTDOT
 70
    64
  3
 . .  . .  . .  . .  . .  . . 
 72
    65
 73
     5
 40
0.000242
 49
-0.000110
 49
0.000000
 49
-0.000110
 49
0.000000
 49
-0.000110
  0
ENDTAB
  0
TABLE
  2
STYLE
 70
     2
  0
STYLE
 70
     0
  2
SN0
 40
0.000000
 41
0.000440
 50
0.000000
 71
     0
 42
0.000000
  3
ROMAND
  0
STYLE
 70
    68
  2
SV0
 40
0.000000
 41
0.000440
 50
0.000000
 71
     0
 42
0.000000
  3
ROMAND
  0
ENDTAB
  0
TABLE
  2
LAYER
 70
     3
  0
LAYER
  2
FOREGROUND
 70
    64
 62
     7
  6
CONTINUOUS
  0
LAYER
  2
BACKGROUND
 70
    65
 62
    -7
  6
CONTINUOUS
  0
LAYER
  2
0
 70
    64
 62
     7
  6
CONTINUOUS
  0
ENDTAB
  0
ENDSEC
  0
SECTION
  2
ENTITIES
  0
POLYLINE
  8
FOREGROUND
  6
CONTINUOUS
 66
     1
 40
0.000000
 41
0.000000
  0
VERTEX
  8
FOREGROUND
  6
CONTINUOUS
 10
0.000000
 20
3.124440
  0
VERTEX
  8
FOREGROUND
  6
CONTINUOUS
 10
8.499920
 20
3.124440
  0
VERTEX
  8
FOREGROUND
  6
CONTINUOUS
 10
8.499920
 20
-7.875560
  0
VERTEX
  8
FOREGROUND
  6
CONTINUOUS
 10
0.000000
 20
-7.875560
  0
VERTEX
  8
FOREGROUND
  6
CONTINUOUS
 10
0.000000
 20
3.124440
  0
SEQEND
  8
0
  0
POLYLINE
  8
FOREGROUND
  6
CONTINUOUS
 66
     1
 40
0.000000
 41
0.000000
  0
VERTEX
  8
FOREGROUND
  6
CONTINUOUS
 10
0.000000
 20
3.124440
  0
VERTEX
  8
FOREGROUND
  6
CONTINUOUS
 10
8.499920
 20
3.124440
  0
VERTEX
  8
FOREGROUND
  6
CONTINUOUS
 10
8.499920
 20
-7.875560
  0
VERTEX
  8
FOREGROUND
  6
CONTINUOUS
 10
0.000000
 20
-7.875560
  0
VERTEX
  8
FOREGROUND
  6
CONTINUOUS
 10
0.000000
 20
3.124440
  0
SEQEND
  8
0
  0
POLYLINE
  8
0
  6
CONTINUOUS
 66
     1
 40
0.014080
 41
0.014080
  0
VERTEX
  8
0
  6
CONTINUOUS
 10
6.440720
 20
2.146760
  0
VERTEX
  8
0
  6
CONTINUOUS
 10
7.049680
 20
2.146760
  0
VERTEX
  8
0
  6
CONTINUOUS
 10
7.053200
 20
2.172720
  0
VERTEX
  8
0
  6
CONTINUOUS
 10
7.059360
 20
2.199560
  0
VERTEX
  8
0
  6
CONTINUOUS
 10
7.071240
 20
2.229920
  0
VERTEX
  8
0
  6
CONTINUOUS
 10
7.090160
 20
2.260720
  0
VERTEX
  8
0
  6
CONTINUOUS
 10
7.109520
 20
2.281400
  0
VERTEX
  8
0
  6
CONTINUOUS
 10
7.134600
 20
2.298120
  0
VERTEX
  8
0
  6
CONTINUOUS
 10
7.154840
 20
2.306480
  0
VERTEX
  8
0
  6
CONTINUOUS
 10
7.177720
 20
2.311760
  0
VERTEX
  8
0
  6
CONTINUOUS
 10
7.203680
 20
2.313520
  0
VERTEX
  8
0
  6
CONTINUOUS
 10
8.286960
 20
2.313520
  0
VERTEX
  8
0
  6
CONTINUOUS
 10
8.286960
 20
1.563320
  0
VERTEX
  8
0
  6
CONTINUOUS
 10
4.786760
 20
1.563320
  0
VERTEX
  8
0
  6
CONTINUOUS
 10
4.786760
 20
2.313520
  0
VERTEX
  8
0
  6
CONTINUOUS
 10
5.883680
 20
2.313080
  0
VERTEX
  8
0
  6
CONTINUOUS
 10
5.908320
 20
2.309560
  0
VERTEX
  8
0
  6
CONTINUOUS
 10
5.929880
 20
2.302520
  0
VERTEX
  8
0
  6
CONTINUOUS
 10
5.948360
 20
2.293280
  0
VERTEX
  8
0
  6
CONTINUOUS
 10
5.971240
 20
2.274800
  0
VERTEX
  8
0
  6
CONTINUOUS
 10
5.984000
 20
2.260720
  0
VERTEX
  8
0
  6
CONTINUOUS
 10
5.994120
 20
2.245760
  0
VERTEX
  8
0
  6
CONTINUOUS
 10
6.009080
 20
2.214520
  0
VERTEX
  8
0
  6
CONTINUOUS
 10
6.018320
 20
2.185480
  0
VERTEX
  8
0
  6
CONTINUOUS
 10
6.024040
 20
2.146760
  0
VERTEX
  8
0
  6
CONTINUOUS
 10
6.447320
 20
2.146760
  0
VERTEX
  8
0
  6
CONTINUOUS
 10
6.440720
 20
2.146760
  0
SEQEND
  8
0
  0
SOLID
  8
0
 62
    15
 10
0.713680
 20
1.802240
 11
0.713680
 21
2.548920
 12
1.797400
 22
1.802240
 13
1.797400
 23
2.548920
  0
POLYLINE
  8
0
  6
CONTINUOUS
 66
     1
 40
0.000000
 41
0.000000
  0
VERTEX
  8
0
  6
CONTINUOUS
 10
0.713680
 20
1.802240
  0
VERTEX
  8
0
  6
CONTINUOUS
 10
0.713680
 20
2.548920
  0
VERTEX
  8
0
  6
CONTINUOUS
 10
1.797400
 20
2.548920
  0
VERTEX
  8
0
  6
CONTINUOUS
 10
1.797400
 20
1.802240
  0
VERTEX
  8
0
  6
CONTINUOUS
 10
0.713680
 20
1.802240
  0
SEQEND
  8
0
  0
SOLID
  8
0
 62
    15
 10
2.976600
 20
1.635480
 11
2.976600
 21
2.382600
 12
2.977480
 22
1.642960
 13
2.977480
 23
2.389640
  0
POLYLINE
  8
0
  6
CONTINUOUS
 66
     1
 40
0.000000
 41
0.000000
  0
VERTEX
  8
0
  6
CONTINUOUS
 10
2.976600
 20
1.635480
  0
VERTEX
  8
0
  6
CONTINUOUS
 10
2.976600
 20
2.382600
  0
VERTEX
  8
0
  6
CONTINUOUS
 10
2.977480
 20
2.389640
  0
VERTEX
  8
0
  6
CONTINUOUS
 10
2.977480
 20
1.642960
  0
VERTEX
  8
0
  6
CONTINUOUS
 10
2.976600
 20
1.635480
  0
SEQEND
  8
0
  0
SOLID
  8
0
 62
    15
 10
2.977480
 20
1.642960
 11
2.977480
 21
2.389640
 12
2.980120
 22
1.661880
 13
2.980120
 23
2.408560
  0
POLYLINE
  8
0
  6
CONTINUOUS
 66
     1
 40
0.000000
 41
0.000000
  0
VERTEX
  8
0
  6
CONTINUOUS
 10
2.977480
 20
1.642960
  0
VERTEX
  8
0
  6
CONTINUOUS
 10
2.977480
 20
2.389640
  0
VERTEX
  8
0
  6
CONTINUOUS
 10
2.980120
 20
2.408560
  0
VERTEX
  8
0
  6
CONTINUOUS
 10
2.980120
 20
1.661880
  0
VERTEX
  8
0
  6
CONTINUOUS
 10
2.977480
 20
1.642960
  0
SEQEND
  8
0
  0
SOLID
  8
0
 62
    15
 10
2.980120
 20
1.661880
 11
2.980120
 21
2.408560
 12
2.986720
 22
1.688280
 13
2.986720
 23
2.435400
  0
POLYLINE
  8
0
  6
CONTINUOUS
 66
     1
 40
0.000000
 41
0.000000
  0
VERTEX
  8
0
  6
CONTINUOUS
 10
2.980120
 20
1.661880
  0
VERTEX
  8
0
  6
CONTINUOUS
 10
2.980120
 20
2.408560
  0
VERTEX
  8
0
  6
CONTINUOUS
 10
2.986720
 20
2.435400
  0
VERTEX
  8
0
  6
CONTINUOUS
 10
2.986720
 20
1.688280
  0
VERTEX
  8
0
  6
CONTINUOUS
 10
2.980120
 20
1.661880
  0
SEQEND
  8
0
  0
SOLID
  8
0
 62
    15
 10
2.986720
 20
1.688280
 11
2.986720
 21
2.435400
 12
2.998600
 22
1.719080
 13
2.998600
 23
2.465760
  0
POLYLINE
  8
0
  6
CONTINUOUS
 66
     1
 40
0.000000
 41
0.000000
  0
VERTEX
  8
0
  6
CONTINUOUS
 10
2.986720
 20
1.688280
  0
VERTEX
  8
0
  6
CONTINUOUS
 10
2.986720
 20
2.435400
  0
VERTEX
  8
0
  6
CONTINUOUS
 10
2.998600
 20
2.465760
  0
VERTEX
  8
0
  6
CONTINUOUS
 10
2.998600
 20
1.719080
  0
VERTEX
  8
0
  6
CONTINUOUS
 10
2.986720
 20
1.688280
  0
SEQEND
  8
0
  0
SOLID
  8
0
 62
    15
 10
2.998600
 20
1.719080
 11
2.998600
 21
2.465760
 12
3.017080
 22
1.749440
 13
3.017080
 23
2.496560
  0
POLYLINE
  8
0
  6
CONTINUOUS
 66
     1
 40
0.000000
 41
0.000000
  0
VERTEX
  8
0
  6
CONTINUOUS
 10
2.998600
 20
1.719080
  0
VERTEX
  8
0
  6
CONTINUOUS
 10
2.998600
 20
2.465760
  0
VERTEX
  8
0
  6
CONTINUOUS
 10
3.017080
 20
2.496560
  0
VERTEX
  8
0
  6
CONTINUOUS
 10
3.017080
 20
1.749440
  0
VERTEX
  8
0
  6
CONTINUOUS
 10
2.998600
 20
1.719080
  0
SEQEND
  8
0
  0
SOLID
  8
0
 62
    15
 10
3.017080
 20
1.749440
 11
3.017080
 21
2.496560
 12
3.044360
 22
1.776280
 13
3.044360
 23
2.522960
  0
POLYLINE
  8
0
  6
CONTINUOUS
 66
     1
 40
0.000000
 41
0.000000
  0
VERTEX
  8
0
  6
CONTINUOUS
 10
3.017080
 20
1.749440
  0
VERTEX
  8
0
  6
CONTINUOUS
 10
3.017080
 20
2.496560
  0
VERTEX
  8
0
  6
CONTINUOUS
 10
3.044360
 20
2.522960
  0
VERTEX
  8
0
  6
CONTINUOUS
 10
3.044360
 20
1.776280
  0
VERTEX
  8
0
  6
CONTINUOUS
 10
3.017080
 20
1.749440
  0
SEQEND
  8
0
  0
SOLID
  8
0
 62
    15
 10
3.044360
 20
1.776280
 11
3.044360
 21
2.522960
 12
3.061520
 22
1.786840
 13
3.061520
 23
2.533520
  0
POLYLINE
  8
0
  6
CONTINUOUS
 66
     1
 40
0.000000
 41
0.000000
  0
VERTEX
  8
0
  6
CONTINUOUS
 10
3.044360
 20
1.776280
  0
VERTEX
  8
0
  6
CONTINUOUS
 10
3.044360
 20
2.522960
  0
VERTEX
  8
0
  6
CONTINUOUS
 10
3.061520
 20
2.533520
  0
VERTEX
  8
0
  6
CONTINUOUS
 10
3.061520
 20
1.786840
  0
VERTEX
  8
0
  6
CONTINUOUS
 10
3.044360
 20
1.776280
  0
SEQEND
  8
0
  0
SOLID
  8
0
 62
    15
 10
3.061520
 20
1.786840
 11
3.061520
 21
2.533520
 12
3.081760
 22
1.795200
 13
3.081760
 23
2.541880
  0
POLYLINE
  8
0
  6
CONTINUOUS
 66
     1
 40
0.000000
 41
0.000000
  0
VERTEX
  8
0
  6
CONTINUOUS
 10
3.061520
 20
1.786840
  0
VERTEX
  8
0
  6
CONTINUOUS
 10
3.061520
 20
2.533520
  0
VERTEX
  8
0
  6
CONTINUOUS
 10
3.081760
 20
2.541880
  0
VERTEX
  8
0
  6
CONTINUOUS
 10
3.081760
 20
1.795200
  0
VERTEX
  8
0
  6
CONTINUOUS
 10
3.061520
 20
1.786840
  0
SEQEND
  8
0
  0
SOLID
  8
0
 62
    15
 10
3.081760
 20
1.795200
 11
3.081760
 21
2.541880
 12
3.104640
 22
1.800480
 13
3.104640
 23
2.547160
  0
POLYLINE
  8
0
  6
CONTINUOUS
 66
     1
 40
0.000000
 41
0.000000
  0
VERTEX
  8
0
  6
CONTINUOUS
 10
3.081760
 20
1.795200
  0
VERTEX
  8
0
  6
CONTINUOUS
 10
3.081760
 20
2.541880
  0
VERTEX
  8
0
  6
CONTINUOUS
 10
3.104640
 20
2.547160
  0
VERTEX
  8
0
  6
CONTINUOUS
 10
3.104640
 20
1.800480
  0
VERTEX
  8
0
  6
CONTINUOUS
 10
3.081760
 20
1.795200
  0
SEQEND
  8
0
  0
SOLID
  8
0
 62
    15
 10
3.104640
 20
1.800480
 11
3.104640
 21
2.547160
 12
3.130600
 22
1.802240
 13
3.130600
 23
2.548920
  0
POLYLINE
  8
0
  6
CONTINUOUS
 66
     1
 40
0.000000
 41
0.000000
  0
VERTEX
  8
0
  6
CONTINUOUS
 10
3.104640
 20
1.800480
  0
VERTEX
  8
0
  6
CONTINUOUS
 10
3.104640
 20
2.547160
  0
VERTEX
  8
0
  6
CONTINUOUS
 10
3.130600
 20
2.548920
  0
VERTEX
  8
0
  6
CONTINUOUS
 10
3.130600
 20
1.802240
  0
VERTEX
  8
0
  6
CONTINUOUS
 10
3.104640
 20
1.800480
  0
SEQEND
  8
0
  0
SOLID
  8
0
 62
    15
 10
3.130600
 20
1.802240
 11
3.130600
 21
2.548920
 12
4.213880
 22
1.802240
 13
4.213880
 23
2.548920
  0
POLYLINE
  8
0
  6
CONTINUOUS
 66
     1
 40
0.000000
 41
0.000000
  0
VERTEX
  8
0
  6
CONTINUOUS
 10
3.130600
 20
1.802240
  0
VERTEX
  8
0
  6
CONTINUOUS
 10
3.130600
 20
2.548920
  0
VERTEX
  8
0
  6
CONTINUOUS
 10
4.213880
 20
2.548920
  0
VERTEX
  8
0
  6
CONTINUOUS
 10
4.213880
 20
1.802240
  0
VERTEX
  8
0
  6
CONTINUOUS
 10
3.130600
 20
1.802240
  0
SEQEND
  8
0
  0
SOLID
  8
0
 62
    15
 10
2.367640
 20
1.635480
 11
2.367640
 21
2.382600
 12
2.976600
 22
1.635480
 13
2.976600
 23
2.382600
  0
POLYLINE
  8
0
  6
CONTINUOUS
 66
     1
 40
0.000000
 41
0.000000
  0
VERTEX
  8
0
  6
CONTINUOUS
 10
2.367640
 20
1.635480
  0
VERTEX
  8
0
  6
CONTINUOUS
 10
2.367640
 20
2.382600
  0
VERTEX
  8
0
  6
CONTINUOUS
 10
2.976600
 20
2.382600
  0
VERTEX
  8
0
  6
CONTINUOUS
 10
2.976600
 20
1.635480
  0
VERTEX
  8
0
  6
CONTINUOUS
 10
2.367640
 20
1.635480
  0
SEQEND
  8
0
  0
SOLID
  8
0
 62
    15
 10
1.797400
 20
1.802240
 11
1.797400
 21
2.548920
 12
1.823360
 22
1.800480
 13
1.823360
 23
2.547160
  0
POLYLINE
  8
0
  6
CONTINUOUS
 66
     1
 40
0.000000
 41
0.000000
  0
VERTEX
  8
0
  6
CONTINUOUS
 10
1.797400
 20
1.802240
  0
VERTEX
  8
0
  6
CONTINUOUS
 10
1.797400
 20
2.548920
  0
VERTEX
  8
0
  6
CONTINUOUS
 10
1.823360
 20
2.547160
  0
VERTEX
  8
0
  6
CONTINUOUS
 10
1.823360
 20
1.800480
  0
VERTEX
  8
0
  6
CONTINUOUS
 10
1.797400
 20
1.802240
  0
SEQEND
  8
0
  0
SOLID
  8
0
 62
    15
 10
1.823360
 20
1.800480
 11
1.823360
 21
2.547160
 12
1.846240
 22
1.795200
 13
1.846240
 23
2.541880
  0
POLYLINE
  8
0
  6
CONTINUOUS
 66
     1
 40
0.000000
 41
0.000000
  0
VERTEX
  8
0
  6
CONTINUOUS
 10
1.823360
 20
1.800480
  0
VERTEX
  8
0
  6
CONTINUOUS
 10
1.823360
 20
2.547160
  0
VERTEX
  8
0
  6
CONTINUOUS
 10
1.846240
 20
2.541880
  0
VERTEX
  8
0
  6
CONTINUOUS
 10
1.846240
 20
1.795200
  0
VERTEX
  8
0
  6
CONTINUOUS
 10
1.823360
 20
1.800480
  0
SEQEND
  8
0
  0
SOLID
  8
0
 62
    15
 10
1.846240
 20
1.795200
 11
1.846240
 21
2.541880
 12
1.866040
 22
1.786840
 13
1.866040
 23
2.533520
  0
POLYLINE
  8
0
  6
CONTINUOUS
 66
     1
 40
0.000000
 41
0.000000
  0
VERTEX
  8
0
  6
CONTINUOUS
 10
1.846240
 20
1.795200
  0
VERTEX
  8
0
  6
CONTINUOUS
 10
1.846240
 20
2.541880
  0
VERTEX
  8
0
  6
CONTINUOUS
 10
1.866040
 20
2.533520
  0
VERTEX
  8
0
  6
CONTINUOUS
 10
1.866040
 20
1.786840
  0
VERTEX
  8
0
  6
CONTINUOUS
 10
1.846240
 20
1.795200
  0
SEQEND
  8
0
  0
SOLID
  8
0
 62
    15
 10
1.866040
 20
1.786840
 11
1.866040
 21
2.533520
 12
1.883640
 22
1.776280
 13
1.883640
 23
2.522960
  0
POLYLINE
  8
0
  6
CONTINUOUS
 66
     1
 40
0.000000
 41
0.000000
  0
VERTEX
  8
0
  6
CONTINUOUS
 10
1.866040
 20
1.786840
  0
VERTEX
  8
0
  6
CONTINUOUS
 10
1.866040
 20
2.533520
  0
VERTEX
  8
0
  6
CONTINUOUS
 10
1.883640
 20
2.522960
  0
VERTEX
  8
0
  6
CONTINUOUS
 10
1.883640
 20
1.776280
  0
VERTEX
  8
0
  6
CONTINUOUS
 10
1.866040
 20
1.786840
  0
SEQEND
  8
0
  0
SOLID
  8
0
 62
    15
 10
1.883640
 20
1.776280
 11
1.883640
 21
2.522960
 12
1.910920
 22
1.749440
 13
1.910920
 23
2.496560
  0
POLYLINE
  8
0
  6
CONTINUOUS
 66
     1
 40
0.000000
 41
0.000000
  0
VERTEX
  8
0
  6
CONTINUOUS
 10
1.883640
 20
1.776280
  0
VERTEX
  8
0
  6
CONTINUOUS
 10
1.883640
 20
2.522960
  0
VERTEX
  8
0
  6
CONTINUOUS
 10
1.910920
 20
2.496560
  0
VERTEX
  8
0
  6
CONTINUOUS
 10
1.910920
 20
1.749440
  0
VERTEX
  8
0
  6
CONTINUOUS
 10
1.883640
 20
1.776280
  0
SEQEND
  8
0
  0
SOLID
  8
0
 62
    15
 10
1.910920
 20
1.749440
 11
1.910920
 21
2.496560
 12
1.929400
 22
1.719080
 13
1.929400
 23
2.465760
  0
POLYLINE
  8
0
  6
CONTINUOUS
 66
     1
 40
0.000000
 41
0.000000
  0
VERTEX
  8
0
  6
CONTINUOUS
 10
1.910920
 20
1.749440
  0
VERTEX
  8
0
  6
CONTINUOUS
 10
1.910920
 20
2.496560
  0
VERTEX
  8
0
  6
CONTINUOUS
 10
1.929400
 20
2.465760
  0
VERTEX
  8
0
  6
CONTINUOUS
 10
1.929400
 20
1.719080
  0
VERTEX
  8
0
  6
CONTINUOUS
 10
1.910920
 20
1.749440
  0
SEQEND
  8
0
  0
SOLID
  8
0
 62
    15
 10
1.929400
 20
1.719080
 11
1.929400
 21
2.465760
 12
1.941280
 22
1.688280
 13
1.941280
 23
2.435400
  0
POLYLINE
  8
0
  6
CONTINUOUS
 66
     1
 40
0.000000
 41
0.000000
  0
VERTEX
  8
0
  6
CONTINUOUS
 10
1.929400
 20
1.719080
  0
VERTEX
  8
0
  6
CONTINUOUS
 10
1.929400
 20
2.465760
  0
VERTEX
  8
0
  6
CONTINUOUS
 10
1.941280
 20
2.435400
  0
VERTEX
  8
0
  6
CONTINUOUS
 10
1.941280
 20
1.688280
  0
VERTEX
  8
0
  6
CONTINUOUS
 10
1.929400
 20
1.719080
  0
SEQEND
  8
0
  0
SOLID
  8
0
 62
    15
 10
1.941280
 20
1.688280
 11
1.941280
 21
2.435400
 12
1.947880
 22
1.661880
 13
1.947880
 23
2.408560
  0
POLYLINE
  8
0
  6
CONTINUOUS
 66
     1
 40
0.000000
 41
0.000000
  0
VERTEX
  8
0
  6
CONTINUOUS
 10
1.941280
 20
1.688280
  0
VERTEX
  8
0
  6
CONTINUOUS
 10
1.941280
 20
2.435400
  0
VERTEX
  8
0
  6
CONTINUOUS
 10
1.947880
 20
2.408560
  0
VERTEX
  8
0
  6
CONTINUOUS
 10
1.947880
 20
1.661880
  0
VERTEX
  8
0
  6
CONTINUOUS
 10
1.941280
 20
1.688280
  0
SEQEND
  8
0
  0
SOLID
  8
0
 62
    15
 10
1.947880
 20
1.661880
 11
1.947880
 21
2.408560
 12
1.950520
 22
1.642960
 13
1.950520
 23
2.389640
  0
POLYLINE
  8
0
  6
CONTINUOUS
 66
     1
 40
0.000000
 41
0.000000
  0
VERTEX
  8
0
  6
CONTINUOUS
 10
1.947880
 20
1.661880
  0
VERTEX
  8
0
  6
CONTINUOUS
 10
1.947880
 20
2.408560
  0
VERTEX
  8
0
  6
CONTINUOUS
 10
1.950520
 20
2.389640
  0
VERTEX
  8
0
  6
CONTINUOUS
 10
1.950520
 20
1.642960
  0
VERTEX
  8
0
  6
CONTINUOUS
 10
1.947880
 20
1.661880
  0
SEQEND
  8
0
  0
SOLID
  8
0
 62
    15
 10
1.950520
 20
1.642960
 11
1.950520
 21
2.389640
 12
1.950960
 22
1.635480
 13
1.950960
 23
2.382600
  0
POLYLINE
  8
0
  6
CONTINUOUS
 66
     1
 40
0.000000
 41
0.000000
  0
VERTEX
  8
0
  6
CONTINUOUS
 10
1.950520
 20
1.642960
  0
VERTEX
  8
0
  6
CONTINUOUS
 10
1.950520
 20
2.389640
  0
VERTEX
  8
0
  6
CONTINUOUS
 10
1.950960
 20
2.382600
  0
VERTEX
  8
0
  6
CONTINUOUS
 10
1.950960
 20
1.635480
  0
VERTEX
  8
0
  6
CONTINUOUS
 10
1.950520
 20
1.642960
  0
SEQEND
  8
0
  0
SOLID
  8
0
 62
    15
 10
1.950960
 20
1.635480
 11
1.950960
 21
2.382600
 12
2.374240
 22
1.635480
 13
2.374240
 23
2.382600
  0
POLYLINE
  8
0
  6
CONTINUOUS
 66
     1
 40
0.000000
 41
0.000000
  0
VERTEX
  8
0
  6
CONTINUOUS
 10
1.950960
 20
1.635480
  0
VERTEX
  8
0
  6
CONTINUOUS
 10
1.950960
 20
2.382600
  0
VERTEX
  8
0
  6
CONTINUOUS
 10
2.374240
 20
2.382600
  0
VERTEX
  8
0
  6
CONTINUOUS
 10
2.374240
 20
1.635480
  0
VERTEX
  8
0
  6
CONTINUOUS
 10
1.950960
 20
1.635480
  0
SEQEND
  8
0
  0
POLYLINE
  8
0
  6
CONTINUOUS
 66
     1
 40
0.000000
 41
0.000000
  0
VERTEX
  8
0
  6
CONTINUOUS
 10
2.367640
 20
1.635480
  0
VERTEX
  8
0
  6
CONTINUOUS
 10
2.976600
 20
1.635480
  0
VERTEX
  8
0
  6
CONTINUOUS
 10
2.977480
 20
1.642960
  0
VERTEX
  8
0
  6
CONTINUOUS
 10
2.980120
 20
1.661880
  0
VERTEX
  8
0
  6
CONTINUOUS
 10
2.986720
 20
1.688280
  0
VERTEX
  8
0
  6
CONTINUOUS
 10
2.998600
 20
1.719080
  0
VERTEX
  8
0
  6
CONTINUOUS
 10
3.017080
 20
1.749440
  0
VERTEX
  8
0
  6
CONTINUOUS
 10
3.044360
 20
1.776280
  0
VERTEX
  8
0
  6
CONTINUOUS
 10
3.061520
 20
1.786840
  0
VERTEX
  8
0
  6
CONTINUOUS
 10
3.081760
 20
1.795200
  0
VERTEX
  8
0
  6
CONTINUOUS
 10
3.104640
 20
1.800480
  0
VERTEX
  8
0
  6
CONTINUOUS
 10
3.130600
 20
1.802240
  0
VERTEX
  8
0
  6
CONTINUOUS
 10
4.213880
 20
1.802240
  0
VERTEX
  8
0
  6
CONTINUOUS
 10
4.213880
 20
1.052480
  0
VERTEX
  8
0
  6
CONTINUOUS
 10
0.713680
 20
1.052480
  0
VERTEX
  8
0
  6
CONTINUOUS
 10
0.713680
 20
1.802240
  0
VERTEX
  8
0
  6
CONTINUOUS
 10
1.797400
 20
1.802240
  0
VERTEX
  8
0
  6
CONTINUOUS
 10
1.823360
 20
1.800480
  0
VERTEX
  8
0
  6
CONTINUOUS
 10
1.846240
 20
1.795200
  0
VERTEX
  8
0
  6
CONTINUOUS
 10
1.866040
 20
1.786840
  0
VERTEX
  8
0
  6
CONTINUOUS
 10
1.883640
 20
1.776280
  0
VERTEX
  8
0
  6
CONTINUOUS
 10
1.910920
 20
1.749440
  0
VERTEX
  8
0
  6
CONTINUOUS
 10
1.929400
 20
1.719080
  0
VERTEX
  8
0
  6
CONTINUOUS
 10
1.941280
 20
1.688280
  0
VERTEX
  8
0
  6
CONTINUOUS
 10
1.947880
 20
1.661880
  0
VERTEX
  8
0
  6
CONTINUOUS
 10
1.950520
 20
1.642960
  0
VERTEX
  8
0
  6
CONTINUOUS
 10
1.950960
 20
1.635480
  0
VERTEX
  8
0
  6
CONTINUOUS
 10
2.374240
 20
1.635480
  0
VERTEX
  8
0
  6
CONTINUOUS
 10
2.367640
 20
1.635480
  0
SEQEND
  8
0
  0
TEXT
  8
0
 10
2.167440
 20
0.810040
 40
0.137951
  1
BA  935
 41
1.000000
  7
SN0
 71
     0
 72
     5
 11
2.757257
 21
0.810040
  0
TEXT
  8
0
 10
2.011680
 20
0.618200
 40
0.137951
  1
3/4" x 3-1/2"
 41
1.000000
  7
SN0
 71
     0
 72
     5
 11
2.911568
 21
0.618200
  0
ENDSEC
  0
EOF
