  0
SECTION
  2
HEADER
  9
$ACADVER
  1
AC1006
  9
$EXTMIN
 10
3.205400
 20
0.860200
  9
$EXTMAX
 10
6.783920
 20
2.681800
  9
$LTSCALE
 40
0.044000
  9
$PDMODE
 70
    35
  9
$PDSIZE
 40
0.035200
  0
ENDSEC
  0
SECTION
  2
TABLES
  0
TABLE
  2
LTYPE
 70
     9
  0
LTYPE
  2
CONTINUOUS
 70
    64
  3
Solid line
 72
    65
 73
     0
 40
0.000000
  0
LTYPE
  2
DASHED
 70
    64
  3
__ __ __ __ __ __ __ __ __ __ __ __ __ __ __
 72
    65
 73
     2
 40
0.000330
 49
0.000220
 49
-0.000110
  0
LTYPE
  2
HIDDEN
 70
    64
  3
 _ _ _ _ _ _ _ _ _ _ _ _ _ _ _ _ _ _ _ _ _ _
 72
    65
 73
     2
 40
0.000165
 49
0.000110
 49
-0.000055
  0
LTYPE
  2
CENTER
 70
    64
  3
____ _ ____ _ ____ _ ____ _ ____ _ ____ _ ____
 72
    65
 73
     4
 40
0.000880
 49
0.000550
 49
-0.000110
 49
0.000110
 49
-0.000110
  0
LTYPE
  2
PHANTOM
 70
    64
  3
_____ _ _ _____ _ _ _____ _ _ _____ _ _ ____
 72
    65
 73
     6
 40
0.001100
 49
0.000550
 49
-0.000110
 49
0.000110
 49
-0.000110
 49
0.000110
 49
-0.000110
  0
LTYPE
  2
DOT
 70
    64
  3
...............................................
 72
    65
 73
     2
 40
0.000110
 49
0.000000
 49
-0.000110
  0
LTYPE
  2
DASHDOT
 70
    64
  3
__ . __ . __ . __ . __ . __ . __ . __ . __ . __
 72
    65
 73
     4
 40
0.000440
 49
0.000220
 49
-0.000110
 49
0.000000
 49
-0.000110
  0
LTYPE
  2
BORDER
 70
    64
  3
__ __ . __ __ . __ __ . __ __ . __ __ . __ __
 72
    65
 73
     6
 40
0.000770
 49
0.000220
 49
-0.000110
 49
0.000220
 49
-0.000110
 49
0.000000
 49
-0.000110
  0
LTYPE
  2
DIVIDE
 70
    64
  3
__ . . __ . . __ . . __ . . __ . . __ . . __
 72
    65
 73
     6
 40
0.000550
 49
0.000220
 49
-0.000110
 49
0.000000
 49
-0.000110
 49
0.000000
 49
-0.000110
  0
LTYPE
  2
DOTDOT
 70
    64
  3
 . .  . .  . .  . .  . .  . . 
 72
    65
 73
     5
 40
0.000242
 49
-0.000110
 49
0.000000
 49
-0.000110
 49
0.000000
 49
-0.000110
  0
ENDTAB
  0
TABLE
  2
STYLE
 70
     2
  0
STYLE
 70
     0
  2
SN0
 40
0.000000
 41
0.000440
 50
0.000000
 71
     0
 42
0.000000
  3
ROMAND
  0
STYLE
 70
    68
  2
SV0
 40
0.000000
 41
0.000440
 50
0.000000
 71
     0
 42
0.000000
  3
ROMAND
  0
ENDTAB
  0
TABLE
  2
LAYER
 70
     3
  0
LAYER
  2
FOREGROUND
 70
    64
 62
     7
  6
CONTINUOUS
  0
LAYER
  2
BACKGROUND
 70
    65
 62
    -7
  6
CONTINUOUS
  0
LAYER
  2
0
 70
    64
 62
     7
  6
CONTINUOUS
  0
ENDTAB
  0
ENDSEC
  0
SECTION
  2
ENTITIES
  0
POLYLINE
  8
FOREGROUND
  6
CONTINUOUS
 66
     1
 40
0.000000
 41
0.000000
  0
VERTEX
  8
FOREGROUND
  6
CONTINUOUS
 10
0.000000
 20
3.542000
  0
VERTEX
  8
FOREGROUND
  6
CONTINUOUS
 10
8.499920
 20
3.542000
  0
VERTEX
  8
FOREGROUND
  6
CONTINUOUS
 10
8.499920
 20
-7.458000
  0
VERTEX
  8
FOREGROUND
  6
CONTINUOUS
 10
0.000000
 20
-7.458000
  0
VERTEX
  8
FOREGROUND
  6
CONTINUOUS
 10
0.000000
 20
3.542000
  0
SEQEND
  8
0
  0
POLYLINE
  8
FOREGROUND
  6
CONTINUOUS
 66
     1
 40
0.000000
 41
0.000000
  0
VERTEX
  8
FOREGROUND
  6
CONTINUOUS
 10
0.000000
 20
3.542000
  0
VERTEX
  8
FOREGROUND
  6
CONTINUOUS
 10
8.499920
 20
3.542000
  0
VERTEX
  8
FOREGROUND
  6
CONTINUOUS
 10
8.499920
 20
-7.458000
  0
VERTEX
  8
FOREGROUND
  6
CONTINUOUS
 10
0.000000
 20
-7.458000
  0
VERTEX
  8
FOREGROUND
  6
CONTINUOUS
 10
0.000000
 20
3.542000
  0
SEQEND
  8
0
  0
SOLID
  8
0
 62
    15
 10
3.940640
 20
1.412400
 11
4.583040
 21
1.782880
 12
3.940640
 22
1.307680
 13
4.583040
 23
1.678160
  0
POLYLINE
  8
0
  6
CONTINUOUS
 66
     1
 40
0.000000
 41
0.000000
  0
VERTEX
  8
0
  6
CONTINUOUS
 10
3.940640
 20
1.412400
  0
VERTEX
  8
0
  6
CONTINUOUS
 10
4.583040
 20
1.782880
  0
VERTEX
  8
0
  6
CONTINUOUS
 10
4.583040
 20
1.678160
  0
VERTEX
  8
0
  6
CONTINUOUS
 10
3.940640
 20
1.307680
  0
VERTEX
  8
0
  6
CONTINUOUS
 10
3.940640
 20
1.412400
  0
SEQEND
  8
0
  0
SOLID
  8
0
 62
    15
 10
4.281640
 20
1.530760
 11
4.924040
 21
1.900800
 12
4.269320
 22
1.506560
 13
4.912160
 23
1.877040
  0
POLYLINE
  8
0
  6
CONTINUOUS
 66
     1
 40
0.000000
 41
0.000000
  0
VERTEX
  8
0
  6
CONTINUOUS
 10
4.281640
 20
1.530760
  0
VERTEX
  8
0
  6
CONTINUOUS
 10
4.924040
 20
1.900800
  0
VERTEX
  8
0
  6
CONTINUOUS
 10
4.912160
 20
1.877040
  0
VERTEX
  8
0
  6
CONTINUOUS
 10
4.269320
 20
1.506560
  0
VERTEX
  8
0
  6
CONTINUOUS
 10
4.281640
 20
1.530760
  0
SEQEND
  8
0
  0
SOLID
  8
0
 62
    15
 10
4.269320
 20
1.506560
 11
4.912160
 21
1.877040
 12
4.265800
 22
1.499080
 13
4.908200
 23
1.869560
  0
POLYLINE
  8
0
  6
CONTINUOUS
 66
     1
 40
0.000000
 41
0.000000
  0
VERTEX
  8
0
  6
CONTINUOUS
 10
4.269320
 20
1.506560
  0
VERTEX
  8
0
  6
CONTINUOUS
 10
4.912160
 20
1.877040
  0
VERTEX
  8
0
  6
CONTINUOUS
 10
4.908200
 20
1.869560
  0
VERTEX
  8
0
  6
CONTINUOUS
 10
4.265800
 20
1.499080
  0
VERTEX
  8
0
  6
CONTINUOUS
 10
4.269320
 20
1.506560
  0
SEQEND
  8
0
  0
SOLID
  8
0
 62
    15
 10
4.265800
 20
1.499080
 11
4.908200
 21
1.869560
 12
4.250400
 22
1.473560
 13
4.892800
 23
1.844040
  0
POLYLINE
  8
0
  6
CONTINUOUS
 66
     1
 40
0.000000
 41
0.000000
  0
VERTEX
  8
0
  6
CONTINUOUS
 10
4.265800
 20
1.499080
  0
VERTEX
  8
0
  6
CONTINUOUS
 10
4.908200
 20
1.869560
  0
VERTEX
  8
0
  6
CONTINUOUS
 10
4.892800
 20
1.844040
  0
VERTEX
  8
0
  6
CONTINUOUS
 10
4.250400
 20
1.473560
  0
VERTEX
  8
0
  6
CONTINUOUS
 10
4.265800
 20
1.499080
  0
SEQEND
  8
0
  0
SOLID
  8
0
 62
    15
 10
4.231040
 20
1.452880
 11
4.873880
 21
1.823360
 12
4.204640
 22
1.437040
 13
4.847040
 23
1.807520
  0
POLYLINE
  8
0
  6
CONTINUOUS
 66
     1
 40
0.000000
 41
0.000000
  0
VERTEX
  8
0
  6
CONTINUOUS
 10
4.231040
 20
1.452880
  0
VERTEX
  8
0
  6
CONTINUOUS
 10
4.873880
 20
1.823360
  0
VERTEX
  8
0
  6
CONTINUOUS
 10
4.847040
 20
1.807520
  0
VERTEX
  8
0
  6
CONTINUOUS
 10
4.204640
 20
1.437040
  0
VERTEX
  8
0
  6
CONTINUOUS
 10
4.231040
 20
1.452880
  0
SEQEND
  8
0
  0
SOLID
  8
0
 62
    15
 10
4.250400
 20
1.473560
 11
4.892800
 21
1.844040
 12
4.231040
 22
1.452880
 13
4.873880
 23
1.823360
  0
POLYLINE
  8
0
  6
CONTINUOUS
 66
     1
 40
0.000000
 41
0.000000
  0
VERTEX
  8
0
  6
CONTINUOUS
 10
4.250400
 20
1.473560
  0
VERTEX
  8
0
  6
CONTINUOUS
 10
4.892800
 20
1.844040
  0
VERTEX
  8
0
  6
CONTINUOUS
 10
4.873880
 20
1.823360
  0
VERTEX
  8
0
  6
CONTINUOUS
 10
4.231040
 20
1.452880
  0
VERTEX
  8
0
  6
CONTINUOUS
 10
4.250400
 20
1.473560
  0
SEQEND
  8
0
  0
SOLID
  8
0
 62
    15
 10
4.478320
 20
2.310880
 11
5.120720
 21
2.681360
 12
4.281640
 22
1.530760
 13
4.924040
 23
1.900800
  0
POLYLINE
  8
0
  6
CONTINUOUS
 66
     1
 40
0.000000
 41
0.000000
  0
VERTEX
  8
0
  6
CONTINUOUS
 10
4.478320
 20
2.310880
  0
VERTEX
  8
0
  6
CONTINUOUS
 10
5.120720
 20
2.681360
  0
VERTEX
  8
0
  6
CONTINUOUS
 10
4.924040
 20
1.900800
  0
VERTEX
  8
0
  6
CONTINUOUS
 10
4.281640
 20
1.530760
  0
VERTEX
  8
0
  6
CONTINUOUS
 10
4.478320
 20
2.310880
  0
SEQEND
  8
0
  0
SOLID
  8
0
 62
    15
 10
3.206280
 20
2.310880
 11
3.848680
 21
2.681360
 12
4.478320
 22
2.310880
 13
5.120720
 23
2.681360
  0
POLYLINE
  8
0
  6
CONTINUOUS
 66
     1
 40
0.000000
 41
0.000000
  0
VERTEX
  8
0
  6
CONTINUOUS
 10
3.206280
 20
2.310880
  0
VERTEX
  8
0
  6
CONTINUOUS
 10
3.848680
 20
2.681360
  0
VERTEX
  8
0
  6
CONTINUOUS
 10
5.120720
 20
2.681360
  0
VERTEX
  8
0
  6
CONTINUOUS
 10
4.478320
 20
2.310880
  0
VERTEX
  8
0
  6
CONTINUOUS
 10
3.206280
 20
2.310880
  0
SEQEND
  8
0
  0
POLYLINE
  8
0
  6
CONTINUOUS
 66
     1
 40
0.000000
 41
0.000000
  0
VERTEX
  8
0
  6
CONTINUOUS
 10
3.206280
 20
1.307680
  0
VERTEX
  8
0
  6
CONTINUOUS
 10
3.206280
 20
2.310880
  0
VERTEX
  8
0
  6
CONTINUOUS
 10
4.478320
 20
2.310880
  0
VERTEX
  8
0
  6
CONTINUOUS
 10
4.281640
 20
1.530760
  0
VERTEX
  8
0
  6
CONTINUOUS
 10
4.269320
 20
1.506560
  0
VERTEX
  8
0
  6
CONTINUOUS
 10
4.265800
 20
1.499080
  0
VERTEX
  8
0
  6
CONTINUOUS
 10
4.250400
 20
1.473560
  0
VERTEX
  8
0
  6
CONTINUOUS
 10
4.231040
 20
1.452880
  0
VERTEX
  8
0
  6
CONTINUOUS
 10
4.204640
 20
1.437040
  0
VERTEX
  8
0
  6
CONTINUOUS
 10
4.165920
 20
1.425600
  0
VERTEX
  8
0
  6
CONTINUOUS
 10
4.111800
 20
1.418120
  0
VERTEX
  8
0
  6
CONTINUOUS
 10
4.077480
 20
1.415480
  0
VERTEX
  8
0
  6
CONTINUOUS
 10
4.037880
 20
1.413720
  0
VERTEX
  8
0
  6
CONTINUOUS
 10
3.992560
 20
1.412840
  0
VERTEX
  8
0
  6
CONTINUOUS
 10
3.940640
 20
1.412400
  0
VERTEX
  8
0
  6
CONTINUOUS
 10
3.940640
 20
1.307680
  0
VERTEX
  8
0
  6
CONTINUOUS
 10
3.206280
 20
1.307680
  0
SEQEND
  8
0
  0
TEXT
  8
0
 10
3.867600
 20
1.094720
 40
0.138106
  1
BA  934
 41
1.000000
  7
SN0
 71
     0
 72
     5
 11
4.457161
 21
1.094720
  0
TEXT
  8
0
 10
3.780920
 20
0.903320
 40
0.138106
  1
1" x 1-1/4"
 41
1.000000
  7
SN0
 71
     0
 72
     5
 11
4.542608
 21
0.903320
  0
POLYLINE
  8
0
  6
CONTINUOUS
 66
     1
 40
0.014080
 41
0.014080
  0
VERTEX
  8
0
  6
CONTINUOUS
 10
5.503080
 20
1.608640
  0
VERTEX
  8
0
  6
CONTINUOUS
 10
5.503080
 20
2.611840
  0
VERTEX
  8
0
  6
CONTINUOUS
 10
6.775120
 20
2.611840
  0
VERTEX
  8
0
  6
CONTINUOUS
 10
6.578440
 20
1.831720
  0
VERTEX
  8
0
  6
CONTINUOUS
 10
6.570080
 20
1.815440
  0
VERTEX
  8
0
  6
CONTINUOUS
 10
6.562600
 20
1.800040
  0
VERTEX
  8
0
  6
CONTINUOUS
 10
6.555120
 20
1.786840
  0
VERTEX
  8
0
  6
CONTINUOUS
 10
6.547200
 20
1.774520
  0
VERTEX
  8
0
  6
CONTINUOUS
 10
6.538400
 20
1.763520
  0
VERTEX
  8
0
  6
CONTINUOUS
 10
6.527840
 20
1.753840
  0
VERTEX
  8
0
  6
CONTINUOUS
 10
6.522120
 20
1.749440
  0
VERTEX
  8
0
  6
CONTINUOUS
 10
6.515960
 20
1.745480
  0
VERTEX
  8
0
  6
CONTINUOUS
 10
6.508920
 20
1.741960
  0
VERTEX
  8
0
  6
CONTINUOUS
 10
6.501000
 20
1.738440
  0
VERTEX
  8
0
  6
CONTINUOUS
 10
6.492640
 20
1.734920
  0
VERTEX
  8
0
  6
CONTINUOUS
 10
6.483840
 20
1.731840
  0
VERTEX
  8
0
  6
CONTINUOUS
 10
6.473720
 20
1.729200
  0
VERTEX
  8
0
  6
CONTINUOUS
 10
6.462720
 20
1.727000
  0
VERTEX
  8
0
  6
CONTINUOUS
 10
6.450840
 20
1.724800
  0
VERTEX
  8
0
  6
CONTINUOUS
 10
6.437640
 20
1.722600
  0
VERTEX
  8
0
  6
CONTINUOUS
 10
6.424000
 20
1.720840
  0
VERTEX
  8
0
  6
CONTINUOUS
 10
6.408600
 20
1.719080
  0
VERTEX
  8
0
  6
CONTINUOUS
 10
6.392320
 20
1.717760
  0
VERTEX
  8
0
  6
CONTINUOUS
 10
6.374280
 20
1.716880
  0
VERTEX
  8
0
  6
CONTINUOUS
 10
6.355360
 20
1.716000
  0
VERTEX
  8
0
  6
CONTINUOUS
 10
6.334680
 20
1.715120
  0
VERTEX
  8
0
  6
CONTINUOUS
 10
6.312680
 20
1.714680
  0
VERTEX
  8
0
  6
CONTINUOUS
 10
6.289360
 20
1.714240
  0
VERTEX
  8
0
  6
CONTINUOUS
 10
6.264280
 20
1.713800
  0
VERTEX
  8
0
  6
CONTINUOUS
 10
6.237440
 20
1.713800
  0
VERTEX
  8
0
  6
CONTINUOUS
 10
6.237440
 20
1.608640
  0
VERTEX
  8
0
  6
CONTINUOUS
 10
5.503080
 20
1.608640
  0
SEQEND
  8
0
  0
ENDSEC
  0
EOF
