  0
SECTION
  2
HEADER
  9
$ACADVER
  1
AC1006
  9
$EXTMIN
 10
4.023800
 20
0.503360
  9
$EXTMAX
 10
7.560520
 20
4.543440
  9
$LTSCALE
 40
0.044000
  9
$PDMODE
 70
    35
  9
$PDSIZE
 40
0.035200
  0
ENDSEC
  0
SECTION
  2
TABLES
  0
TABLE
  2
LTYPE
 70
     9
  0
LTYPE
  2
CONTINUOUS
 70
    64
  3
Solid line
 72
    65
 73
     0
 40
0.000000
  0
LTYPE
  2
DASHED
 70
    64
  3
__ __ __ __ __ __ __ __ __ __ __ __ __ __ __
 72
    65
 73
     2
 40
0.000330
 49
0.000220
 49
-0.000110
  0
LTYPE
  2
HIDDEN
 70
    64
  3
 _ _ _ _ _ _ _ _ _ _ _ _ _ _ _ _ _ _ _ _ _ _
 72
    65
 73
     2
 40
0.000165
 49
0.000110
 49
-0.000055
  0
LTYPE
  2
CENTER
 70
    64
  3
____ _ ____ _ ____ _ ____ _ ____ _ ____ _ ____
 72
    65
 73
     4
 40
0.000880
 49
0.000550
 49
-0.000110
 49
0.000110
 49
-0.000110
  0
LTYPE
  2
PHANTOM
 70
    64
  3
_____ _ _ _____ _ _ _____ _ _ _____ _ _ ____
 72
    65
 73
     6
 40
0.001100
 49
0.000550
 49
-0.000110
 49
0.000110
 49
-0.000110
 49
0.000110
 49
-0.000110
  0
LTYPE
  2
DOT
 70
    64
  3
...............................................
 72
    65
 73
     2
 40
0.000110
 49
0.000000
 49
-0.000110
  0
LTYPE
  2
DASHDOT
 70
    64
  3
__ . __ . __ . __ . __ . __ . __ . __ . __ . __
 72
    65
 73
     4
 40
0.000440
 49
0.000220
 49
-0.000110
 49
0.000000
 49
-0.000110
  0
LTYPE
  2
BORDER
 70
    64
  3
__ __ . __ __ . __ __ . __ __ . __ __ . __ __
 72
    65
 73
     6
 40
0.000770
 49
0.000220
 49
-0.000110
 49
0.000220
 49
-0.000110
 49
0.000000
 49
-0.000110
  0
LTYPE
  2
DIVIDE
 70
    64
  3
__ . . __ . . __ . . __ . . __ . . __ . . __
 72
    65
 73
     6
 40
0.000550
 49
0.000220
 49
-0.000110
 49
0.000000
 49
-0.000110
 49
0.000000
 49
-0.000110
  0
LTYPE
  2
DOTDOT
 70
    64
  3
 . .  . .  . .  . .  . .  . . 
 72
    65
 73
     5
 40
0.000242
 49
-0.000110
 49
0.000000
 49
-0.000110
 49
0.000000
 49
-0.000110
  0
ENDTAB
  0
TABLE
  2
STYLE
 70
     2
  0
STYLE
 70
     0
  2
SN0
 40
0.000000
 41
0.000440
 50
0.000000
 71
     0
 42
0.000000
  3
ROMAND
  0
STYLE
 70
    68
  2
SV0
 40
0.000000
 41
0.000440
 50
0.000000
 71
     0
 42
0.000000
  3
ROMAND
  0
ENDTAB
  0
TABLE
  2
LAYER
 70
     3
  0
LAYER
  2
FOREGROUND
 70
    64
 62
     7
  6
CONTINUOUS
  0
LAYER
  2
BACKGROUND
 70
    65
 62
    -7
  6
CONTINUOUS
  0
LAYER
  2
0
 70
    64
 62
     7
  6
CONTINUOUS
  0
ENDTAB
  0
ENDSEC
  0
SECTION
  2
ENTITIES
  0
POLYLINE
  8
FOREGROUND
  6
CONTINUOUS
 66
     1
 40
0.000000
 41
0.000000
  0
VERTEX
  8
FOREGROUND
  6
CONTINUOUS
 10
0.000000
 20
5.046800
  0
VERTEX
  8
FOREGROUND
  6
CONTINUOUS
 10
8.499920
 20
5.046800
  0
VERTEX
  8
FOREGROUND
  6
CONTINUOUS
 10
8.499920
 20
-5.953200
  0
VERTEX
  8
FOREGROUND
  6
CONTINUOUS
 10
0.000000
 20
-5.953200
  0
VERTEX
  8
FOREGROUND
  6
CONTINUOUS
 10
0.000000
 20
5.046800
  0
SEQEND
  8
0
  0
POLYLINE
  8
FOREGROUND
  6
CONTINUOUS
 66
     1
 40
0.000000
 41
0.000000
  0
VERTEX
  8
FOREGROUND
  6
CONTINUOUS
 10
0.000000
 20
5.046800
  0
VERTEX
  8
FOREGROUND
  6
CONTINUOUS
 10
8.499920
 20
5.046800
  0
VERTEX
  8
FOREGROUND
  6
CONTINUOUS
 10
8.499920
 20
-5.953200
  0
VERTEX
  8
FOREGROUND
  6
CONTINUOUS
 10
0.000000
 20
-5.953200
  0
VERTEX
  8
FOREGROUND
  6
CONTINUOUS
 10
0.000000
 20
5.046800
  0
SEQEND
  8
0
  0
POLYLINE
  8
0
  6
CONTINUOUS
 66
     1
 40
0.014080
 41
0.014080
  0
VERTEX
  8
0
  6
CONTINUOUS
 10
7.553480
 20
4.466440
  0
VERTEX
  8
0
  6
CONTINUOUS
 10
7.446120
 20
3.597880
  0
VERTEX
  8
0
  6
CONTINUOUS
 10
7.436000
 20
3.565320
  0
VERTEX
  8
0
  6
CONTINUOUS
 10
7.429400
 20
3.551240
  0
VERTEX
  8
0
  6
CONTINUOUS
 10
7.421480
 20
3.538480
  0
VERTEX
  8
0
  6
CONTINUOUS
 10
7.402120
 20
3.517360
  0
VERTEX
  8
0
  6
CONTINUOUS
 10
7.378800
 20
3.501520
  0
VERTEX
  8
0
  6
CONTINUOUS
 10
7.351520
 20
3.490080
  0
VERTEX
  8
0
  6
CONTINUOUS
 10
7.321160
 20
3.483040
  0
VERTEX
  8
0
  6
CONTINUOUS
 10
7.287720
 20
3.479520
  0
VERTEX
  8
0
  6
CONTINUOUS
 10
7.270120
 20
3.479080
  0
VERTEX
  8
0
  6
CONTINUOUS
 10
7.013600
 20
1.605560
  0
VERTEX
  8
0
  6
CONTINUOUS
 10
7.007440
 20
1.583120
  0
VERTEX
  8
0
  6
CONTINUOUS
 10
6.999960
 20
1.568600
  0
VERTEX
  8
0
  6
CONTINUOUS
 10
6.987200
 20
1.556280
  0
VERTEX
  8
0
  6
CONTINUOUS
 10
6.967840
 20
1.548360
  0
VERTEX
  8
0
  6
CONTINUOUS
 10
6.950680
 20
1.545720
  0
VERTEX
  8
0
  6
CONTINUOUS
 10
6.856080
 20
1.545280
  0
VERTEX
  8
0
  6
CONTINUOUS
 10
6.855640
 20
1.521080
  0
VERTEX
  8
0
  6
CONTINUOUS
 10
6.850360
 20
1.475320
  0
VERTEX
  8
0
  6
CONTINUOUS
 10
6.845080
 20
1.453320
  0
VERTEX
  8
0
  6
CONTINUOUS
 10
6.834080
 20
1.422520
  0
VERTEX
  8
0
  6
CONTINUOUS
 10
6.818240
 20
1.394360
  0
VERTEX
  8
0
  6
CONTINUOUS
 10
6.796680
 20
1.369720
  0
VERTEX
  8
0
  6
CONTINUOUS
 10
6.768960
 20
1.348160
  0
VERTEX
  8
0
  6
CONTINUOUS
 10
6.734640
 20
1.331000
  0
VERTEX
  8
0
  6
CONTINUOUS
 10
6.707800
 20
1.321760
  0
VERTEX
  8
0
  6
CONTINUOUS
 10
6.677440
 20
1.314720
  0
VERTEX
  8
0
  6
CONTINUOUS
 10
6.643120
 20
1.309880
  0
VERTEX
  8
0
  6
CONTINUOUS
 10
6.584600
 20
1.307240
  0
VERTEX
  8
0
  6
CONTINUOUS
 10
6.584600
 20
4.469960
  0
VERTEX
  8
0
  6
CONTINUOUS
 10
7.553480
 20
4.469960
  0
VERTEX
  8
0
  6
CONTINUOUS
 10
7.553480
 20
4.466440
  0
SEQEND
  8
0
  0
SOLID
  8
0
 62
    15
 10
4.414960
 20
1.623600
 11
5.061760
 21
1.249160
 12
4.399560
 22
1.619640
 13
5.046360
 23
1.245640
  0
POLYLINE
  8
0
  6
CONTINUOUS
 66
     1
 40
0.000000
 41
0.000000
  0
VERTEX
  8
0
  6
CONTINUOUS
 10
4.414960
 20
1.623600
  0
VERTEX
  8
0
  6
CONTINUOUS
 10
5.061760
 20
1.249160
  0
VERTEX
  8
0
  6
CONTINUOUS
 10
5.046360
 20
1.245640
  0
VERTEX
  8
0
  6
CONTINUOUS
 10
4.399560
 20
1.619640
  0
VERTEX
  8
0
  6
CONTINUOUS
 10
4.414960
 20
1.623600
  0
SEQEND
  8
0
  0
SOLID
  8
0
 62
    15
 10
4.888840
 20
3.689400
 11
5.535640
 21
3.315400
 12
4.881360
 22
3.653760
 13
5.528600
 23
3.279760
  0
POLYLINE
  8
0
  6
CONTINUOUS
 66
     1
 40
0.000000
 41
0.000000
  0
VERTEX
  8
0
  6
CONTINUOUS
 10
4.888840
 20
3.689400
  0
VERTEX
  8
0
  6
CONTINUOUS
 10
5.535640
 20
3.315400
  0
VERTEX
  8
0
  6
CONTINUOUS
 10
5.528600
 20
3.279760
  0
VERTEX
  8
0
  6
CONTINUOUS
 10
4.881360
 20
3.653760
  0
VERTEX
  8
0
  6
CONTINUOUS
 10
4.888840
 20
3.689400
  0
SEQEND
  8
0
  0
SOLID
  8
0
 62
    15
 10
4.881360
 20
3.653760
 11
5.528600
 21
3.279760
 12
4.869040
 22
3.624280
 13
5.515840
 23
3.249840
  0
POLYLINE
  8
0
  6
CONTINUOUS
 66
     1
 40
0.000000
 41
0.000000
  0
VERTEX
  8
0
  6
CONTINUOUS
 10
4.881360
 20
3.653760
  0
VERTEX
  8
0
  6
CONTINUOUS
 10
5.528600
 20
3.279760
  0
VERTEX
  8
0
  6
CONTINUOUS
 10
5.515840
 20
3.249840
  0
VERTEX
  8
0
  6
CONTINUOUS
 10
4.869040
 20
3.624280
  0
VERTEX
  8
0
  6
CONTINUOUS
 10
4.881360
 20
3.653760
  0
SEQEND
  8
0
  0
SOLID
  8
0
 62
    15
 10
4.869040
 20
3.624280
 11
5.515840
 21
3.249840
 12
4.851880
 22
3.600520
 13
5.499120
 23
3.226080
  0
POLYLINE
  8
0
  6
CONTINUOUS
 66
     1
 40
0.000000
 41
0.000000
  0
VERTEX
  8
0
  6
CONTINUOUS
 10
4.869040
 20
3.624280
  0
VERTEX
  8
0
  6
CONTINUOUS
 10
5.515840
 20
3.249840
  0
VERTEX
  8
0
  6
CONTINUOUS
 10
5.499120
 20
3.226080
  0
VERTEX
  8
0
  6
CONTINUOUS
 10
4.851880
 20
3.600520
  0
VERTEX
  8
0
  6
CONTINUOUS
 10
4.869040
 20
3.624280
  0
SEQEND
  8
0
  0
SOLID
  8
0
 62
    15
 10
4.851880
 20
3.600520
 11
5.499120
 21
3.226080
 12
4.830760
 22
3.581600
 13
5.477560
 23
3.207600
  0
POLYLINE
  8
0
  6
CONTINUOUS
 66
     1
 40
0.000000
 41
0.000000
  0
VERTEX
  8
0
  6
CONTINUOUS
 10
4.851880
 20
3.600520
  0
VERTEX
  8
0
  6
CONTINUOUS
 10
5.499120
 20
3.226080
  0
VERTEX
  8
0
  6
CONTINUOUS
 10
5.477560
 20
3.207600
  0
VERTEX
  8
0
  6
CONTINUOUS
 10
4.830760
 20
3.581600
  0
VERTEX
  8
0
  6
CONTINUOUS
 10
4.851880
 20
3.600520
  0
SEQEND
  8
0
  0
SOLID
  8
0
 62
    15
 10
4.830760
 20
3.581600
 11
5.477560
 21
3.207600
 12
4.805240
 22
3.567960
 13
5.452040
 23
3.193960
  0
POLYLINE
  8
0
  6
CONTINUOUS
 66
     1
 40
0.000000
 41
0.000000
  0
VERTEX
  8
0
  6
CONTINUOUS
 10
4.830760
 20
3.581600
  0
VERTEX
  8
0
  6
CONTINUOUS
 10
5.477560
 20
3.207600
  0
VERTEX
  8
0
  6
CONTINUOUS
 10
5.452040
 20
3.193960
  0
VERTEX
  8
0
  6
CONTINUOUS
 10
4.805240
 20
3.567960
  0
VERTEX
  8
0
  6
CONTINUOUS
 10
4.830760
 20
3.581600
  0
SEQEND
  8
0
  0
SOLID
  8
0
 62
    15
 10
4.805240
 20
3.567960
 11
5.452040
 21
3.193960
 12
4.776200
 22
3.559160
 13
5.423440
 23
3.184720
  0
POLYLINE
  8
0
  6
CONTINUOUS
 66
     1
 40
0.000000
 41
0.000000
  0
VERTEX
  8
0
  6
CONTINUOUS
 10
4.805240
 20
3.567960
  0
VERTEX
  8
0
  6
CONTINUOUS
 10
5.452040
 20
3.193960
  0
VERTEX
  8
0
  6
CONTINUOUS
 10
5.423440
 20
3.184720
  0
VERTEX
  8
0
  6
CONTINUOUS
 10
4.776200
 20
3.559160
  0
VERTEX
  8
0
  6
CONTINUOUS
 10
4.805240
 20
3.567960
  0
SEQEND
  8
0
  0
SOLID
  8
0
 62
    15
 10
4.776200
 20
3.559160
 11
5.423440
 21
3.184720
 12
4.709760
 22
3.552120
 13
5.356560
 23
3.178120
  0
POLYLINE
  8
0
  6
CONTINUOUS
 66
     1
 40
0.000000
 41
0.000000
  0
VERTEX
  8
0
  6
CONTINUOUS
 10
4.776200
 20
3.559160
  0
VERTEX
  8
0
  6
CONTINUOUS
 10
5.423440
 20
3.184720
  0
VERTEX
  8
0
  6
CONTINUOUS
 10
5.356560
 20
3.178120
  0
VERTEX
  8
0
  6
CONTINUOUS
 10
4.709760
 20
3.552120
  0
VERTEX
  8
0
  6
CONTINUOUS
 10
4.776200
 20
3.559160
  0
SEQEND
  8
0
  0
SOLID
  8
0
 62
    15
 10
4.709760
 20
3.552120
 11
5.356560
 21
3.178120
 12
4.453240
 22
1.678600
 13
5.100040
 23
1.304160
  0
POLYLINE
  8
0
  6
CONTINUOUS
 66
     1
 40
0.000000
 41
0.000000
  0
VERTEX
  8
0
  6
CONTINUOUS
 10
4.709760
 20
3.552120
  0
VERTEX
  8
0
  6
CONTINUOUS
 10
5.356560
 20
3.178120
  0
VERTEX
  8
0
  6
CONTINUOUS
 10
5.100040
 20
1.304160
  0
VERTEX
  8
0
  6
CONTINUOUS
 10
4.453240
 20
1.678600
  0
VERTEX
  8
0
  6
CONTINUOUS
 10
4.709760
 20
3.552120
  0
SEQEND
  8
0
  0
SOLID
  8
0
 62
    15
 10
4.453240
 20
1.678600
 11
5.100040
 21
1.304160
 12
4.447080
 22
1.656160
 13
5.094320
 23
1.282160
  0
POLYLINE
  8
0
  6
CONTINUOUS
 66
     1
 40
0.000000
 41
0.000000
  0
VERTEX
  8
0
  6
CONTINUOUS
 10
4.453240
 20
1.678600
  0
VERTEX
  8
0
  6
CONTINUOUS
 10
5.100040
 20
1.304160
  0
VERTEX
  8
0
  6
CONTINUOUS
 10
5.094320
 20
1.282160
  0
VERTEX
  8
0
  6
CONTINUOUS
 10
4.447080
 20
1.656160
  0
VERTEX
  8
0
  6
CONTINUOUS
 10
4.453240
 20
1.678600
  0
SEQEND
  8
0
  0
SOLID
  8
0
 62
    15
 10
4.447080
 20
1.656160
 11
5.094320
 21
1.282160
 12
4.436080
 22
1.636800
 13
5.082880
 23
1.262800
  0
POLYLINE
  8
0
  6
CONTINUOUS
 66
     1
 40
0.000000
 41
0.000000
  0
VERTEX
  8
0
  6
CONTINUOUS
 10
4.447080
 20
1.656160
  0
VERTEX
  8
0
  6
CONTINUOUS
 10
5.094320
 20
1.282160
  0
VERTEX
  8
0
  6
CONTINUOUS
 10
5.082880
 20
1.262800
  0
VERTEX
  8
0
  6
CONTINUOUS
 10
4.436080
 20
1.636800
  0
VERTEX
  8
0
  6
CONTINUOUS
 10
4.447080
 20
1.656160
  0
SEQEND
  8
0
  0
SOLID
  8
0
 62
    15
 10
4.436080
 20
1.636800
 11
5.082880
 21
1.262800
 12
4.414960
 22
1.623600
 13
5.061760
 23
1.249160
  0
POLYLINE
  8
0
  6
CONTINUOUS
 66
     1
 40
0.000000
 41
0.000000
  0
VERTEX
  8
0
  6
CONTINUOUS
 10
4.436080
 20
1.636800
  0
VERTEX
  8
0
  6
CONTINUOUS
 10
5.082880
 20
1.262800
  0
VERTEX
  8
0
  6
CONTINUOUS
 10
5.061760
 20
1.249160
  0
VERTEX
  8
0
  6
CONTINUOUS
 10
4.414960
 20
1.623600
  0
VERTEX
  8
0
  6
CONTINUOUS
 10
4.436080
 20
1.636800
  0
SEQEND
  8
0
  0
SOLID
  8
0
 62
    15
 10
4.993120
 20
4.539040
 11
5.639920
 21
4.165040
 12
4.888840
 22
3.689400
 13
5.535640
 23
3.315400
  0
POLYLINE
  8
0
  6
CONTINUOUS
 66
     1
 40
0.000000
 41
0.000000
  0
VERTEX
  8
0
  6
CONTINUOUS
 10
4.993120
 20
4.539040
  0
VERTEX
  8
0
  6
CONTINUOUS
 10
5.639920
 20
4.165040
  0
VERTEX
  8
0
  6
CONTINUOUS
 10
5.535640
 20
3.315400
  0
VERTEX
  8
0
  6
CONTINUOUS
 10
4.888840
 20
3.689400
  0
VERTEX
  8
0
  6
CONTINUOUS
 10
4.993120
 20
4.539040
  0
SEQEND
  8
0
  0
SOLID
  8
0
 62
    15
 10
4.399560
 20
1.619640
 11
5.046360
 21
1.245640
 12
4.380200
 22
1.618320
 13
5.027440
 23
1.244320
  0
POLYLINE
  8
0
  6
CONTINUOUS
 66
     1
 40
0.000000
 41
0.000000
  0
VERTEX
  8
0
  6
CONTINUOUS
 10
4.399560
 20
1.619640
  0
VERTEX
  8
0
  6
CONTINUOUS
 10
5.046360
 20
1.245640
  0
VERTEX
  8
0
  6
CONTINUOUS
 10
5.027440
 20
1.244320
  0
VERTEX
  8
0
  6
CONTINUOUS
 10
4.380200
 20
1.618320
  0
VERTEX
  8
0
  6
CONTINUOUS
 10
4.399560
 20
1.619640
  0
SEQEND
  8
0
  0
SOLID
  8
0
 62
    15
 10
4.380200
 20
1.618320
 11
5.027440
 21
1.244320
 12
4.295720
 22
1.618320
 13
4.942520
 23
1.244320
  0
POLYLINE
  8
0
  6
CONTINUOUS
 66
     1
 40
0.000000
 41
0.000000
  0
VERTEX
  8
0
  6
CONTINUOUS
 10
4.380200
 20
1.618320
  0
VERTEX
  8
0
  6
CONTINUOUS
 10
5.027440
 20
1.244320
  0
VERTEX
  8
0
  6
CONTINUOUS
 10
4.942520
 20
1.244320
  0
VERTEX
  8
0
  6
CONTINUOUS
 10
4.295720
 20
1.618320
  0
VERTEX
  8
0
  6
CONTINUOUS
 10
4.380200
 20
1.618320
  0
SEQEND
  8
0
  0
SOLID
  8
0
 62
    15
 10
4.295720
 20
1.618320
 11
4.942520
 21
1.244320
 12
4.293080
 22
1.570800
 13
4.940320
 23
1.196800
  0
POLYLINE
  8
0
  6
CONTINUOUS
 66
     1
 40
0.000000
 41
0.000000
  0
VERTEX
  8
0
  6
CONTINUOUS
 10
4.295720
 20
1.618320
  0
VERTEX
  8
0
  6
CONTINUOUS
 10
4.942520
 20
1.244320
  0
VERTEX
  8
0
  6
CONTINUOUS
 10
4.940320
 20
1.196800
  0
VERTEX
  8
0
  6
CONTINUOUS
 10
4.293080
 20
1.570800
  0
VERTEX
  8
0
  6
CONTINUOUS
 10
4.295720
 20
1.618320
  0
SEQEND
  8
0
  0
SOLID
  8
0
 62
    15
 10
4.293080
 20
1.570800
 11
4.940320
 21
1.196800
 12
4.284720
 22
1.526360
 13
4.931960
 23
1.152360
  0
POLYLINE
  8
0
  6
CONTINUOUS
 66
     1
 40
0.000000
 41
0.000000
  0
VERTEX
  8
0
  6
CONTINUOUS
 10
4.293080
 20
1.570800
  0
VERTEX
  8
0
  6
CONTINUOUS
 10
4.940320
 20
1.196800
  0
VERTEX
  8
0
  6
CONTINUOUS
 10
4.931960
 20
1.152360
  0
VERTEX
  8
0
  6
CONTINUOUS
 10
4.284720
 20
1.526360
  0
VERTEX
  8
0
  6
CONTINUOUS
 10
4.293080
 20
1.570800
  0
SEQEND
  8
0
  0
SOLID
  8
0
 62
    15
 10
4.284720
 20
1.526360
 11
4.931960
 21
1.152360
 12
4.268880
 22
1.485880
 13
4.916120
 23
1.111880
  0
POLYLINE
  8
0
  6
CONTINUOUS
 66
     1
 40
0.000000
 41
0.000000
  0
VERTEX
  8
0
  6
CONTINUOUS
 10
4.284720
 20
1.526360
  0
VERTEX
  8
0
  6
CONTINUOUS
 10
4.931960
 20
1.152360
  0
VERTEX
  8
0
  6
CONTINUOUS
 10
4.916120
 20
1.111880
  0
VERTEX
  8
0
  6
CONTINUOUS
 10
4.268880
 20
1.485880
  0
VERTEX
  8
0
  6
CONTINUOUS
 10
4.284720
 20
1.526360
  0
SEQEND
  8
0
  0
SOLID
  8
0
 62
    15
 10
4.268880
 20
1.485880
 11
4.916120
 21
1.111880
 12
4.244240
 22
1.450680
 13
4.891040
 23
1.076680
  0
POLYLINE
  8
0
  6
CONTINUOUS
 66
     1
 40
0.000000
 41
0.000000
  0
VERTEX
  8
0
  6
CONTINUOUS
 10
4.268880
 20
1.485880
  0
VERTEX
  8
0
  6
CONTINUOUS
 10
4.916120
 20
1.111880
  0
VERTEX
  8
0
  6
CONTINUOUS
 10
4.891040
 20
1.076680
  0
VERTEX
  8
0
  6
CONTINUOUS
 10
4.244240
 20
1.450680
  0
VERTEX
  8
0
  6
CONTINUOUS
 10
4.268880
 20
1.485880
  0
SEQEND
  8
0
  0
SOLID
  8
0
 62
    15
 10
4.244240
 20
1.450680
 11
4.891040
 21
1.076680
 12
4.208600
 22
1.421640
 13
4.855840
 23
1.047200
  0
POLYLINE
  8
0
  6
CONTINUOUS
 66
     1
 40
0.000000
 41
0.000000
  0
VERTEX
  8
0
  6
CONTINUOUS
 10
4.244240
 20
1.450680
  0
VERTEX
  8
0
  6
CONTINUOUS
 10
4.891040
 20
1.076680
  0
VERTEX
  8
0
  6
CONTINUOUS
 10
4.855840
 20
1.047200
  0
VERTEX
  8
0
  6
CONTINUOUS
 10
4.208600
 20
1.421640
  0
VERTEX
  8
0
  6
CONTINUOUS
 10
4.244240
 20
1.450680
  0
SEQEND
  8
0
  0
SOLID
  8
0
 62
    15
 10
4.208600
 20
1.421640
 11
4.855840
 21
1.047200
 12
4.161080
 22
1.399200
 13
4.808320
 23
1.025200
  0
POLYLINE
  8
0
  6
CONTINUOUS
 66
     1
 40
0.000000
 41
0.000000
  0
VERTEX
  8
0
  6
CONTINUOUS
 10
4.208600
 20
1.421640
  0
VERTEX
  8
0
  6
CONTINUOUS
 10
4.855840
 20
1.047200
  0
VERTEX
  8
0
  6
CONTINUOUS
 10
4.808320
 20
1.025200
  0
VERTEX
  8
0
  6
CONTINUOUS
 10
4.161080
 20
1.399200
  0
VERTEX
  8
0
  6
CONTINUOUS
 10
4.208600
 20
1.421640
  0
SEQEND
  8
0
  0
SOLID
  8
0
 62
    15
 10
4.161080
 20
1.399200
 11
4.808320
 21
1.025200
 12
4.100360
 22
1.385120
 13
4.747160
 23
1.011120
  0
POLYLINE
  8
0
  6
CONTINUOUS
 66
     1
 40
0.000000
 41
0.000000
  0
VERTEX
  8
0
  6
CONTINUOUS
 10
4.161080
 20
1.399200
  0
VERTEX
  8
0
  6
CONTINUOUS
 10
4.808320
 20
1.025200
  0
VERTEX
  8
0
  6
CONTINUOUS
 10
4.747160
 20
1.011120
  0
VERTEX
  8
0
  6
CONTINUOUS
 10
4.100360
 20
1.385120
  0
VERTEX
  8
0
  6
CONTINUOUS
 10
4.161080
 20
1.399200
  0
SEQEND
  8
0
  0
SOLID
  8
0
 62
    15
 10
4.100360
 20
1.385120
 11
4.747160
 21
1.011120
 12
4.064280
 22
1.381600
 13
4.711080
 23
1.007160
  0
POLYLINE
  8
0
  6
CONTINUOUS
 66
     1
 40
0.000000
 41
0.000000
  0
VERTEX
  8
0
  6
CONTINUOUS
 10
4.100360
 20
1.385120
  0
VERTEX
  8
0
  6
CONTINUOUS
 10
4.747160
 20
1.011120
  0
VERTEX
  8
0
  6
CONTINUOUS
 10
4.711080
 20
1.007160
  0
VERTEX
  8
0
  6
CONTINUOUS
 10
4.064280
 20
1.381600
  0
VERTEX
  8
0
  6
CONTINUOUS
 10
4.100360
 20
1.385120
  0
SEQEND
  8
0
  0
SOLID
  8
0
 62
    15
 10
4.064280
 20
1.381600
 11
4.711080
 21
1.007160
 12
4.024240
 22
1.380280
 13
4.671040
 23
1.006280
  0
POLYLINE
  8
0
  6
CONTINUOUS
 66
     1
 40
0.000000
 41
0.000000
  0
VERTEX
  8
0
  6
CONTINUOUS
 10
4.064280
 20
1.381600
  0
VERTEX
  8
0
  6
CONTINUOUS
 10
4.711080
 20
1.007160
  0
VERTEX
  8
0
  6
CONTINUOUS
 10
4.671040
 20
1.006280
  0
VERTEX
  8
0
  6
CONTINUOUS
 10
4.024240
 20
1.380280
  0
VERTEX
  8
0
  6
CONTINUOUS
 10
4.064280
 20
1.381600
  0
SEQEND
  8
0
  0
SOLID
  8
0
 62
    15
 10
4.993120
 20
4.543000
 11
5.639920
 21
4.168560
 12
4.993120
 22
4.539040
 13
5.639920
 23
4.165040
  0
POLYLINE
  8
0
  6
CONTINUOUS
 66
     1
 40
0.000000
 41
0.000000
  0
VERTEX
  8
0
  6
CONTINUOUS
 10
4.993120
 20
4.543000
  0
VERTEX
  8
0
  6
CONTINUOUS
 10
5.639920
 20
4.168560
  0
VERTEX
  8
0
  6
CONTINUOUS
 10
5.639920
 20
4.165040
  0
VERTEX
  8
0
  6
CONTINUOUS
 10
4.993120
 20
4.539040
  0
VERTEX
  8
0
  6
CONTINUOUS
 10
4.993120
 20
4.543000
  0
SEQEND
  8
0
  0
POLYLINE
  8
0
  6
CONTINUOUS
 66
     1
 40
0.000000
 41
0.000000
  0
VERTEX
  8
0
  6
CONTINUOUS
 10
4.993120
 20
4.539040
  0
VERTEX
  8
0
  6
CONTINUOUS
 10
4.888840
 20
3.689400
  0
VERTEX
  8
0
  6
CONTINUOUS
 10
4.881360
 20
3.653760
  0
VERTEX
  8
0
  6
CONTINUOUS
 10
4.869040
 20
3.624280
  0
VERTEX
  8
0
  6
CONTINUOUS
 10
4.851880
 20
3.600520
  0
VERTEX
  8
0
  6
CONTINUOUS
 10
4.830760
 20
3.581600
  0
VERTEX
  8
0
  6
CONTINUOUS
 10
4.805240
 20
3.567960
  0
VERTEX
  8
0
  6
CONTINUOUS
 10
4.776200
 20
3.559160
  0
VERTEX
  8
0
  6
CONTINUOUS
 10
4.709760
 20
3.552120
  0
VERTEX
  8
0
  6
CONTINUOUS
 10
4.453240
 20
1.678600
  0
VERTEX
  8
0
  6
CONTINUOUS
 10
4.447080
 20
1.656160
  0
VERTEX
  8
0
  6
CONTINUOUS
 10
4.436080
 20
1.636800
  0
VERTEX
  8
0
  6
CONTINUOUS
 10
4.414960
 20
1.623600
  0
VERTEX
  8
0
  6
CONTINUOUS
 10
4.399560
 20
1.619640
  0
VERTEX
  8
0
  6
CONTINUOUS
 10
4.380200
 20
1.618320
  0
VERTEX
  8
0
  6
CONTINUOUS
 10
4.295720
 20
1.618320
  0
VERTEX
  8
0
  6
CONTINUOUS
 10
4.293080
 20
1.570800
  0
VERTEX
  8
0
  6
CONTINUOUS
 10
4.284720
 20
1.526360
  0
VERTEX
  8
0
  6
CONTINUOUS
 10
4.268880
 20
1.485880
  0
VERTEX
  8
0
  6
CONTINUOUS
 10
4.244240
 20
1.450680
  0
VERTEX
  8
0
  6
CONTINUOUS
 10
4.208600
 20
1.421640
  0
VERTEX
  8
0
  6
CONTINUOUS
 10
4.161080
 20
1.399200
  0
VERTEX
  8
0
  6
CONTINUOUS
 10
4.100360
 20
1.385120
  0
VERTEX
  8
0
  6
CONTINUOUS
 10
4.064280
 20
1.381600
  0
VERTEX
  8
0
  6
CONTINUOUS
 10
4.024240
 20
1.380280
  0
VERTEX
  8
0
  6
CONTINUOUS
 10
4.024240
 20
4.543000
  0
VERTEX
  8
0
  6
CONTINUOUS
 10
4.993120
 20
4.543000
  0
VERTEX
  8
0
  6
CONTINUOUS
 10
4.993120
 20
4.539040
  0
SEQEND
  8
0
  0
TEXT
  8
0
 10
4.536840
 20
0.739200
 40
0.138142
  1
BA  933
 41
1.000000
  7
SN0
 71
     0
 72
     5
 11
5.126692
 21
0.739200
  0
TEXT
  8
0
 10
4.403960
 20
0.547360
 40
0.138142
  1
1" x 3-3/16"
 41
1.000000
  7
SN0
 71
     0
 72
     5
 11
5.257831
 21
0.547360
  0
ENDSEC
  0
EOF
