  0
SECTION
  2
HEADER
  9
$ACADVER
  1
AC1006
  9
$EXTMIN
 10
1.654840
 20
0.454080
  9
$EXTMAX
 10
7.502880
 20
2.477640
  9
$LTSCALE
 40
0.044000
  9
$PDMODE
 70
    35
  9
$PDSIZE
 40
0.035200
  0
ENDSEC
  0
SECTION
  2
TABLES
  0
TABLE
  2
LTYPE
 70
     9
  0
LTYPE
  2
CONTINUOUS
 70
    64
  3
Solid line
 72
    65
 73
     0
 40
0.000000
  0
LTYPE
  2
DASHED
 70
    64
  3
__ __ __ __ __ __ __ __ __ __ __ __ __ __ __
 72
    65
 73
     2
 40
0.000330
 49
0.000220
 49
-0.000110
  0
LTYPE
  2
HIDDEN
 70
    64
  3
 _ _ _ _ _ _ _ _ _ _ _ _ _ _ _ _ _ _ _ _ _ _
 72
    65
 73
     2
 40
0.000165
 49
0.000110
 49
-0.000055
  0
LTYPE
  2
CENTER
 70
    64
  3
____ _ ____ _ ____ _ ____ _ ____ _ ____ _ ____
 72
    65
 73
     4
 40
0.000880
 49
0.000550
 49
-0.000110
 49
0.000110
 49
-0.000110
  0
LTYPE
  2
PHANTOM
 70
    64
  3
_____ _ _ _____ _ _ _____ _ _ _____ _ _ ____
 72
    65
 73
     6
 40
0.001100
 49
0.000550
 49
-0.000110
 49
0.000110
 49
-0.000110
 49
0.000110
 49
-0.000110
  0
LTYPE
  2
DOT
 70
    64
  3
...............................................
 72
    65
 73
     2
 40
0.000110
 49
0.000000
 49
-0.000110
  0
LTYPE
  2
DASHDOT
 70
    64
  3
__ . __ . __ . __ . __ . __ . __ . __ . __ . __
 72
    65
 73
     4
 40
0.000440
 49
0.000220
 49
-0.000110
 49
0.000000
 49
-0.000110
  0
LTYPE
  2
BORDER
 70
    64
  3
__ __ . __ __ . __ __ . __ __ . __ __ . __ __
 72
    65
 73
     6
 40
0.000770
 49
0.000220
 49
-0.000110
 49
0.000220
 49
-0.000110
 49
0.000000
 49
-0.000110
  0
LTYPE
  2
DIVIDE
 70
    64
  3
__ . . __ . . __ . . __ . . __ . . __ . . __
 72
    65
 73
     6
 40
0.000550
 49
0.000220
 49
-0.000110
 49
0.000000
 49
-0.000110
 49
0.000000
 49
-0.000110
  0
LTYPE
  2
DOTDOT
 70
    64
  3
 . .  . .  . .  . .  . .  . . 
 72
    65
 73
     5
 40
0.000242
 49
-0.000110
 49
0.000000
 49
-0.000110
 49
0.000000
 49
-0.000110
  0
ENDTAB
  0
TABLE
  2
STYLE
 70
     2
  0
STYLE
 70
     0
  2
SN0
 40
0.000000
 41
0.000440
 50
0.000000
 71
     0
 42
0.000000
  3
ROMAND
  0
STYLE
 70
    68
  2
SV0
 40
0.000000
 41
0.000440
 50
0.000000
 71
     0
 42
0.000000
  3
ROMAND
  0
ENDTAB
  0
TABLE
  2
LAYER
 70
     3
  0
LAYER
  2
FOREGROUND
 70
    64
 62
     7
  6
CONTINUOUS
  0
LAYER
  2
BACKGROUND
 70
    65
 62
    -7
  6
CONTINUOUS
  0
LAYER
  2
0
 70
    64
 62
     7
  6
CONTINUOUS
  0
ENDTAB
  0
ENDSEC
  0
SECTION
  2
ENTITIES
  0
POLYLINE
  8
FOREGROUND
  6
CONTINUOUS
 66
     1
 40
0.000000
 41
0.000000
  0
VERTEX
  8
FOREGROUND
  6
CONTINUOUS
 10
0.000000
 20
2.931720
  0
VERTEX
  8
FOREGROUND
  6
CONTINUOUS
 10
8.499920
 20
2.931720
  0
VERTEX
  8
FOREGROUND
  6
CONTINUOUS
 10
8.499920
 20
-8.068280
  0
VERTEX
  8
FOREGROUND
  6
CONTINUOUS
 10
0.000000
 20
-8.068280
  0
VERTEX
  8
FOREGROUND
  6
CONTINUOUS
 10
0.000000
 20
2.931720
  0
SEQEND
  8
0
  0
POLYLINE
  8
FOREGROUND
  6
CONTINUOUS
 66
     1
 40
0.000000
 41
0.000000
  0
VERTEX
  8
FOREGROUND
  6
CONTINUOUS
 10
0.000000
 20
2.931720
  0
VERTEX
  8
FOREGROUND
  6
CONTINUOUS
 10
8.499920
 20
2.931720
  0
VERTEX
  8
FOREGROUND
  6
CONTINUOUS
 10
8.499920
 20
-8.068280
  0
VERTEX
  8
FOREGROUND
  6
CONTINUOUS
 10
0.000000
 20
-8.068280
  0
VERTEX
  8
FOREGROUND
  6
CONTINUOUS
 10
0.000000
 20
2.931720
  0
SEQEND
  8
0
  0
SOLID
  8
0
 62
    15
 10
4.088040
 20
1.272480
 11
4.090240
 21
2.024880
 12
4.099920
 22
1.272480
 13
4.102120
 23
2.024880
  0
POLYLINE
  8
0
  6
CONTINUOUS
 66
     1
 40
0.000000
 41
0.000000
  0
VERTEX
  8
0
  6
CONTINUOUS
 10
4.088040
 20
1.272480
  0
VERTEX
  8
0
  6
CONTINUOUS
 10
4.090240
 20
2.024880
  0
VERTEX
  8
0
  6
CONTINUOUS
 10
4.102120
 20
2.024880
  0
VERTEX
  8
0
  6
CONTINUOUS
 10
4.099920
 20
1.272480
  0
VERTEX
  8
0
  6
CONTINUOUS
 10
4.088040
 20
1.272480
  0
SEQEND
  8
0
  0
SOLID
  8
0
 62
    15
 10
2.158200
 20
1.665400
 11
2.160400
 21
2.417800
 12
2.192960
 22
1.684320
 13
2.195160
 23
2.436720
  0
POLYLINE
  8
0
  6
CONTINUOUS
 66
     1
 40
0.000000
 41
0.000000
  0
VERTEX
  8
0
  6
CONTINUOUS
 10
2.158200
 20
1.665400
  0
VERTEX
  8
0
  6
CONTINUOUS
 10
2.160400
 20
2.417800
  0
VERTEX
  8
0
  6
CONTINUOUS
 10
2.195160
 20
2.436720
  0
VERTEX
  8
0
  6
CONTINUOUS
 10
2.192960
 20
1.684320
  0
VERTEX
  8
0
  6
CONTINUOUS
 10
2.158200
 20
1.665400
  0
SEQEND
  8
0
  0
SOLID
  8
0
 62
    15
 10
2.192960
 20
1.684320
 11
2.195160
 21
2.436720
 12
2.236080
 22
1.694880
 13
2.238280
 23
2.447280
  0
POLYLINE
  8
0
  6
CONTINUOUS
 66
     1
 40
0.000000
 41
0.000000
  0
VERTEX
  8
0
  6
CONTINUOUS
 10
2.192960
 20
1.684320
  0
VERTEX
  8
0
  6
CONTINUOUS
 10
2.195160
 20
2.436720
  0
VERTEX
  8
0
  6
CONTINUOUS
 10
2.238280
 20
2.447280
  0
VERTEX
  8
0
  6
CONTINUOUS
 10
2.236080
 20
1.694880
  0
VERTEX
  8
0
  6
CONTINUOUS
 10
2.192960
 20
1.684320
  0
SEQEND
  8
0
  0
SOLID
  8
0
 62
    15
 10
2.236080
 20
1.694880
 11
2.238280
 21
2.447280
 12
2.284920
 22
1.697080
 13
2.287120
 23
2.449480
  0
POLYLINE
  8
0
  6
CONTINUOUS
 66
     1
 40
0.000000
 41
0.000000
  0
VERTEX
  8
0
  6
CONTINUOUS
 10
2.236080
 20
1.694880
  0
VERTEX
  8
0
  6
CONTINUOUS
 10
2.238280
 20
2.447280
  0
VERTEX
  8
0
  6
CONTINUOUS
 10
2.287120
 20
2.449480
  0
VERTEX
  8
0
  6
CONTINUOUS
 10
2.284920
 20
1.697080
  0
VERTEX
  8
0
  6
CONTINUOUS
 10
2.236080
 20
1.694880
  0
SEQEND
  8
0
  0
SOLID
  8
0
 62
    15
 10
2.284920
 20
1.697080
 11
2.287120
 21
2.449480
 12
2.337280
 22
1.691360
 13
2.339480
 23
2.443760
  0
POLYLINE
  8
0
  6
CONTINUOUS
 66
     1
 40
0.000000
 41
0.000000
  0
VERTEX
  8
0
  6
CONTINUOUS
 10
2.284920
 20
1.697080
  0
VERTEX
  8
0
  6
CONTINUOUS
 10
2.287120
 20
2.449480
  0
VERTEX
  8
0
  6
CONTINUOUS
 10
2.339480
 20
2.443760
  0
VERTEX
  8
0
  6
CONTINUOUS
 10
2.337280
 20
1.691360
  0
VERTEX
  8
0
  6
CONTINUOUS
 10
2.284920
 20
1.697080
  0
SEQEND
  8
0
  0
SOLID
  8
0
 62
    15
 10
2.337280
 20
1.691360
 11
2.339480
 21
2.443760
 12
2.390520
 22
1.677280
 13
2.392720
 23
2.429680
  0
POLYLINE
  8
0
  6
CONTINUOUS
 66
     1
 40
0.000000
 41
0.000000
  0
VERTEX
  8
0
  6
CONTINUOUS
 10
2.337280
 20
1.691360
  0
VERTEX
  8
0
  6
CONTINUOUS
 10
2.339480
 20
2.443760
  0
VERTEX
  8
0
  6
CONTINUOUS
 10
2.392720
 20
2.429680
  0
VERTEX
  8
0
  6
CONTINUOUS
 10
2.390520
 20
1.677280
  0
VERTEX
  8
0
  6
CONTINUOUS
 10
2.337280
 20
1.691360
  0
SEQEND
  8
0
  0
SOLID
  8
0
 62
    15
 10
2.390520
 20
1.677280
 11
2.392720
 21
2.429680
 12
2.442880
 22
1.655280
 13
2.445080
 23
2.407680
  0
POLYLINE
  8
0
  6
CONTINUOUS
 66
     1
 40
0.000000
 41
0.000000
  0
VERTEX
  8
0
  6
CONTINUOUS
 10
2.390520
 20
1.677280
  0
VERTEX
  8
0
  6
CONTINUOUS
 10
2.392720
 20
2.429680
  0
VERTEX
  8
0
  6
CONTINUOUS
 10
2.445080
 20
2.407680
  0
VERTEX
  8
0
  6
CONTINUOUS
 10
2.442880
 20
1.655280
  0
VERTEX
  8
0
  6
CONTINUOUS
 10
2.390520
 20
1.677280
  0
SEQEND
  8
0
  0
SOLID
  8
0
 62
    15
 10
2.442880
 20
1.655280
 11
2.445080
 21
2.407680
 12
2.491280
 22
1.625360
 13
2.493480
 23
2.377760
  0
POLYLINE
  8
0
  6
CONTINUOUS
 66
     1
 40
0.000000
 41
0.000000
  0
VERTEX
  8
0
  6
CONTINUOUS
 10
2.442880
 20
1.655280
  0
VERTEX
  8
0
  6
CONTINUOUS
 10
2.445080
 20
2.407680
  0
VERTEX
  8
0
  6
CONTINUOUS
 10
2.493480
 20
2.377760
  0
VERTEX
  8
0
  6
CONTINUOUS
 10
2.491280
 20
1.625360
  0
VERTEX
  8
0
  6
CONTINUOUS
 10
2.442880
 20
1.655280
  0
SEQEND
  8
0
  0
SOLID
  8
0
 62
    15
 10
2.491280
 20
1.625360
 11
2.493480
 21
2.377760
 12
2.533520
 22
1.594560
 13
2.535720
 23
2.346960
  0
POLYLINE
  8
0
  6
CONTINUOUS
 66
     1
 40
0.000000
 41
0.000000
  0
VERTEX
  8
0
  6
CONTINUOUS
 10
2.491280
 20
1.625360
  0
VERTEX
  8
0
  6
CONTINUOUS
 10
2.493480
 20
2.377760
  0
VERTEX
  8
0
  6
CONTINUOUS
 10
2.535720
 20
2.346960
  0
VERTEX
  8
0
  6
CONTINUOUS
 10
2.533520
 20
1.594560
  0
VERTEX
  8
0
  6
CONTINUOUS
 10
2.491280
 20
1.625360
  0
SEQEND
  8
0
  0
SOLID
  8
0
 62
    15
 10
2.533520
 20
1.594560
 11
2.535720
 21
2.346960
 12
2.569160
 22
1.569920
 13
2.571360
 23
2.322320
  0
POLYLINE
  8
0
  6
CONTINUOUS
 66
     1
 40
0.000000
 41
0.000000
  0
VERTEX
  8
0
  6
CONTINUOUS
 10
2.533520
 20
1.594560
  0
VERTEX
  8
0
  6
CONTINUOUS
 10
2.535720
 20
2.346960
  0
VERTEX
  8
0
  6
CONTINUOUS
 10
2.571360
 20
2.322320
  0
VERTEX
  8
0
  6
CONTINUOUS
 10
2.569160
 20
1.569920
  0
VERTEX
  8
0
  6
CONTINUOUS
 10
2.533520
 20
1.594560
  0
SEQEND
  8
0
  0
SOLID
  8
0
 62
    15
 10
2.569160
 20
1.569920
 11
2.571360
 21
2.322320
 12
2.598200
 22
1.550560
 13
2.600400
 23
2.302960
  0
POLYLINE
  8
0
  6
CONTINUOUS
 66
     1
 40
0.000000
 41
0.000000
  0
VERTEX
  8
0
  6
CONTINUOUS
 10
2.569160
 20
1.569920
  0
VERTEX
  8
0
  6
CONTINUOUS
 10
2.571360
 20
2.322320
  0
VERTEX
  8
0
  6
CONTINUOUS
 10
2.600400
 20
2.302960
  0
VERTEX
  8
0
  6
CONTINUOUS
 10
2.598200
 20
1.550560
  0
VERTEX
  8
0
  6
CONTINUOUS
 10
2.569160
 20
1.569920
  0
SEQEND
  8
0
  0
SOLID
  8
0
 62
    15
 10
2.598200
 20
1.550560
 11
2.600400
 21
2.302960
 12
2.621520
 22
1.536040
 13
2.624160
 23
2.288440
  0
POLYLINE
  8
0
  6
CONTINUOUS
 66
     1
 40
0.000000
 41
0.000000
  0
VERTEX
  8
0
  6
CONTINUOUS
 10
2.598200
 20
1.550560
  0
VERTEX
  8
0
  6
CONTINUOUS
 10
2.600400
 20
2.302960
  0
VERTEX
  8
0
  6
CONTINUOUS
 10
2.624160
 20
2.288440
  0
VERTEX
  8
0
  6
CONTINUOUS
 10
2.621520
 20
1.536040
  0
VERTEX
  8
0
  6
CONTINUOUS
 10
2.598200
 20
1.550560
  0
SEQEND
  8
0
  0
SOLID
  8
0
 62
    15
 10
2.621520
 20
1.536040
 11
2.624160
 21
2.288440
 12
2.640000
 22
1.525920
 13
2.642200
 23
2.278320
  0
POLYLINE
  8
0
  6
CONTINUOUS
 66
     1
 40
0.000000
 41
0.000000
  0
VERTEX
  8
0
  6
CONTINUOUS
 10
2.621520
 20
1.536040
  0
VERTEX
  8
0
  6
CONTINUOUS
 10
2.624160
 20
2.288440
  0
VERTEX
  8
0
  6
CONTINUOUS
 10
2.642200
 20
2.278320
  0
VERTEX
  8
0
  6
CONTINUOUS
 10
2.640000
 20
1.525920
  0
VERTEX
  8
0
  6
CONTINUOUS
 10
2.621520
 20
1.536040
  0
SEQEND
  8
0
  0
SOLID
  8
0
 62
    15
 10
2.640000
 20
1.525920
 11
2.642200
 21
2.278320
 12
2.653640
 22
1.519320
 13
2.656280
 23
2.271720
  0
POLYLINE
  8
0
  6
CONTINUOUS
 66
     1
 40
0.000000
 41
0.000000
  0
VERTEX
  8
0
  6
CONTINUOUS
 10
2.640000
 20
1.525920
  0
VERTEX
  8
0
  6
CONTINUOUS
 10
2.642200
 20
2.278320
  0
VERTEX
  8
0
  6
CONTINUOUS
 10
2.656280
 20
2.271720
  0
VERTEX
  8
0
  6
CONTINUOUS
 10
2.653640
 20
1.519320
  0
VERTEX
  8
0
  6
CONTINUOUS
 10
2.640000
 20
1.525920
  0
SEQEND
  8
0
  0
SOLID
  8
0
 62
    15
 10
2.653640
 20
1.519320
 11
2.656280
 21
2.271720
 12
2.663760
 22
1.515800
 13
2.665960
 23
2.268200
  0
POLYLINE
  8
0
  6
CONTINUOUS
 66
     1
 40
0.000000
 41
0.000000
  0
VERTEX
  8
0
  6
CONTINUOUS
 10
2.653640
 20
1.519320
  0
VERTEX
  8
0
  6
CONTINUOUS
 10
2.656280
 20
2.271720
  0
VERTEX
  8
0
  6
CONTINUOUS
 10
2.665960
 20
2.268200
  0
VERTEX
  8
0
  6
CONTINUOUS
 10
2.663760
 20
1.515800
  0
VERTEX
  8
0
  6
CONTINUOUS
 10
2.653640
 20
1.519320
  0
SEQEND
  8
0
  0
SOLID
  8
0
 62
    15
 10
2.663760
 20
1.515800
 11
2.665960
 21
2.268200
 12
2.669920
 22
1.514040
 13
2.672560
 23
2.266440
  0
POLYLINE
  8
0
  6
CONTINUOUS
 66
     1
 40
0.000000
 41
0.000000
  0
VERTEX
  8
0
  6
CONTINUOUS
 10
2.663760
 20
1.515800
  0
VERTEX
  8
0
  6
CONTINUOUS
 10
2.665960
 20
2.268200
  0
VERTEX
  8
0
  6
CONTINUOUS
 10
2.672560
 20
2.266440
  0
VERTEX
  8
0
  6
CONTINUOUS
 10
2.669920
 20
1.514040
  0
VERTEX
  8
0
  6
CONTINUOUS
 10
2.663760
 20
1.515800
  0
SEQEND
  8
0
  0
SOLID
  8
0
 62
    15
 10
2.669920
 20
1.514040
 11
2.672560
 21
2.266440
 12
2.682240
 22
1.510960
 13
2.684440
 23
2.263800
  0
POLYLINE
  8
0
  6
CONTINUOUS
 66
     1
 40
0.000000
 41
0.000000
  0
VERTEX
  8
0
  6
CONTINUOUS
 10
2.669920
 20
1.514040
  0
VERTEX
  8
0
  6
CONTINUOUS
 10
2.672560
 20
2.266440
  0
VERTEX
  8
0
  6
CONTINUOUS
 10
2.684440
 20
2.263800
  0
VERTEX
  8
0
  6
CONTINUOUS
 10
2.682240
 20
1.510960
  0
VERTEX
  8
0
  6
CONTINUOUS
 10
2.669920
 20
1.514040
  0
SEQEND
  8
0
  0
SOLID
  8
0
 62
    15
 10
2.682240
 20
1.510960
 11
2.684440
 21
2.263800
 12
2.696320
 22
1.501720
 13
2.698960
 23
2.254120
  0
POLYLINE
  8
0
  6
CONTINUOUS
 66
     1
 40
0.000000
 41
0.000000
  0
VERTEX
  8
0
  6
CONTINUOUS
 10
2.682240
 20
1.510960
  0
VERTEX
  8
0
  6
CONTINUOUS
 10
2.684440
 20
2.263800
  0
VERTEX
  8
0
  6
CONTINUOUS
 10
2.698960
 20
2.254120
  0
VERTEX
  8
0
  6
CONTINUOUS
 10
2.696320
 20
1.501720
  0
VERTEX
  8
0
  6
CONTINUOUS
 10
2.682240
 20
1.510960
  0
SEQEND
  8
0
  0
SOLID
  8
0
 62
    15
 10
2.696320
 20
1.501720
 11
2.698960
 21
2.254120
 12
2.708200
 22
1.482360
 13
2.710840
 23
2.234760
  0
POLYLINE
  8
0
  6
CONTINUOUS
 66
     1
 40
0.000000
 41
0.000000
  0
VERTEX
  8
0
  6
CONTINUOUS
 10
2.696320
 20
1.501720
  0
VERTEX
  8
0
  6
CONTINUOUS
 10
2.698960
 20
2.254120
  0
VERTEX
  8
0
  6
CONTINUOUS
 10
2.710840
 20
2.234760
  0
VERTEX
  8
0
  6
CONTINUOUS
 10
2.708200
 20
1.482360
  0
VERTEX
  8
0
  6
CONTINUOUS
 10
2.696320
 20
1.501720
  0
SEQEND
  8
0
  0
SOLID
  8
0
 62
    15
 10
2.708200
 20
1.482360
 11
2.710840
 21
2.234760
 12
2.711720
 22
1.467840
 13
2.714360
 23
2.220240
  0
POLYLINE
  8
0
  6
CONTINUOUS
 66
     1
 40
0.000000
 41
0.000000
  0
VERTEX
  8
0
  6
CONTINUOUS
 10
2.708200
 20
1.482360
  0
VERTEX
  8
0
  6
CONTINUOUS
 10
2.710840
 20
2.234760
  0
VERTEX
  8
0
  6
CONTINUOUS
 10
2.714360
 20
2.220240
  0
VERTEX
  8
0
  6
CONTINUOUS
 10
2.711720
 20
1.467840
  0
VERTEX
  8
0
  6
CONTINUOUS
 10
2.708200
 20
1.482360
  0
SEQEND
  8
0
  0
SOLID
  8
0
 62
    15
 10
2.711720
 20
1.467840
 11
2.714360
 21
2.220240
 12
2.713480
 22
1.449360
 13
2.715680
 23
2.201760
  0
POLYLINE
  8
0
  6
CONTINUOUS
 66
     1
 40
0.000000
 41
0.000000
  0
VERTEX
  8
0
  6
CONTINUOUS
 10
2.711720
 20
1.467840
  0
VERTEX
  8
0
  6
CONTINUOUS
 10
2.714360
 20
2.220240
  0
VERTEX
  8
0
  6
CONTINUOUS
 10
2.715680
 20
2.201760
  0
VERTEX
  8
0
  6
CONTINUOUS
 10
2.713480
 20
1.449360
  0
VERTEX
  8
0
  6
CONTINUOUS
 10
2.711720
 20
1.467840
  0
SEQEND
  8
0
  0
SOLID
  8
0
 62
    15
 10
2.713480
 20
1.449360
 11
2.715680
 21
2.201760
 12
2.713480
 22
1.396120
 13
2.715680
 23
2.148520
  0
POLYLINE
  8
0
  6
CONTINUOUS
 66
     1
 40
0.000000
 41
0.000000
  0
VERTEX
  8
0
  6
CONTINUOUS
 10
2.713480
 20
1.449360
  0
VERTEX
  8
0
  6
CONTINUOUS
 10
2.715680
 20
2.201760
  0
VERTEX
  8
0
  6
CONTINUOUS
 10
2.715680
 20
2.148520
  0
VERTEX
  8
0
  6
CONTINUOUS
 10
2.713480
 20
1.396120
  0
VERTEX
  8
0
  6
CONTINUOUS
 10
2.713480
 20
1.449360
  0
SEQEND
  8
0
  0
SOLID
  8
0
 62
    15
 10
2.133560
 20
1.638120
 11
2.136200
 21
2.390520
 12
2.158200
 22
1.665400
 13
2.160400
 23
2.417800
  0
POLYLINE
  8
0
  6
CONTINUOUS
 66
     1
 40
0.000000
 41
0.000000
  0
VERTEX
  8
0
  6
CONTINUOUS
 10
2.133560
 20
1.638120
  0
VERTEX
  8
0
  6
CONTINUOUS
 10
2.136200
 20
2.390520
  0
VERTEX
  8
0
  6
CONTINUOUS
 10
2.160400
 20
2.417800
  0
VERTEX
  8
0
  6
CONTINUOUS
 10
2.158200
 20
1.665400
  0
VERTEX
  8
0
  6
CONTINUOUS
 10
2.133560
 20
1.638120
  0
SEQEND
  8
0
  0
SOLID
  8
0
 62
    15
 10
4.076600
 20
1.396120
 11
4.078800
 21
2.148520
 12
4.088040
 22
1.272480
 13
4.090240
 23
2.024880
  0
POLYLINE
  8
0
  6
CONTINUOUS
 66
     1
 40
0.000000
 41
0.000000
  0
VERTEX
  8
0
  6
CONTINUOUS
 10
4.076600
 20
1.396120
  0
VERTEX
  8
0
  6
CONTINUOUS
 10
4.078800
 20
2.148520
  0
VERTEX
  8
0
  6
CONTINUOUS
 10
4.090240
 20
2.024880
  0
VERTEX
  8
0
  6
CONTINUOUS
 10
4.088040
 20
1.272480
  0
VERTEX
  8
0
  6
CONTINUOUS
 10
4.076600
 20
1.396120
  0
SEQEND
  8
0
  0
SOLID
  8
0
 62
    15
 10
2.713480
 20
1.396120
 11
2.715680
 21
2.148520
 12
4.076600
 22
1.396120
 13
4.078800
 23
2.148520
  0
POLYLINE
  8
0
  6
CONTINUOUS
 66
     1
 40
0.000000
 41
0.000000
  0
VERTEX
  8
0
  6
CONTINUOUS
 10
2.713480
 20
1.396120
  0
VERTEX
  8
0
  6
CONTINUOUS
 10
2.715680
 20
2.148520
  0
VERTEX
  8
0
  6
CONTINUOUS
 10
4.078800
 20
2.148520
  0
VERTEX
  8
0
  6
CONTINUOUS
 10
4.076600
 20
1.396120
  0
VERTEX
  8
0
  6
CONTINUOUS
 10
2.713480
 20
1.396120
  0
SEQEND
  8
0
  0
SOLID
  8
0
 62
    15
 10
4.099920
 20
1.272480
 11
4.102120
 21
2.024880
 12
4.108280
 22
1.297120
 13
4.110480
 23
2.049520
  0
POLYLINE
  8
0
  6
CONTINUOUS
 66
     1
 40
0.000000
 41
0.000000
  0
VERTEX
  8
0
  6
CONTINUOUS
 10
4.099920
 20
1.272480
  0
VERTEX
  8
0
  6
CONTINUOUS
 10
4.102120
 20
2.024880
  0
VERTEX
  8
0
  6
CONTINUOUS
 10
4.110480
 20
2.049520
  0
VERTEX
  8
0
  6
CONTINUOUS
 10
4.108280
 20
1.297120
  0
VERTEX
  8
0
  6
CONTINUOUS
 10
4.099920
 20
1.272480
  0
SEQEND
  8
0
  0
SOLID
  8
0
 62
    15
 10
4.108280
 20
1.297120
 11
4.110480
 21
2.049520
 12
4.121920
 22
1.319120
 13
4.124120
 23
2.071520
  0
POLYLINE
  8
0
  6
CONTINUOUS
 66
     1
 40
0.000000
 41
0.000000
  0
VERTEX
  8
0
  6
CONTINUOUS
 10
4.108280
 20
1.297120
  0
VERTEX
  8
0
  6
CONTINUOUS
 10
4.110480
 20
2.049520
  0
VERTEX
  8
0
  6
CONTINUOUS
 10
4.124120
 20
2.071520
  0
VERTEX
  8
0
  6
CONTINUOUS
 10
4.121920
 20
1.319120
  0
VERTEX
  8
0
  6
CONTINUOUS
 10
4.108280
 20
1.297120
  0
SEQEND
  8
0
  0
SOLID
  8
0
 62
    15
 10
4.121920
 20
1.319120
 11
4.124120
 21
2.071520
 12
4.140400
 22
1.338480
 13
4.143040
 23
2.090880
  0
POLYLINE
  8
0
  6
CONTINUOUS
 66
     1
 40
0.000000
 41
0.000000
  0
VERTEX
  8
0
  6
CONTINUOUS
 10
4.121920
 20
1.319120
  0
VERTEX
  8
0
  6
CONTINUOUS
 10
4.124120
 20
2.071520
  0
VERTEX
  8
0
  6
CONTINUOUS
 10
4.143040
 20
2.090880
  0
VERTEX
  8
0
  6
CONTINUOUS
 10
4.140400
 20
1.338480
  0
VERTEX
  8
0
  6
CONTINUOUS
 10
4.121920
 20
1.319120
  0
SEQEND
  8
0
  0
SOLID
  8
0
 62
    15
 10
4.140400
 20
1.338480
 11
4.143040
 21
2.090880
 12
4.162840
 22
1.354320
 13
4.165480
 23
2.106720
  0
POLYLINE
  8
0
  6
CONTINUOUS
 66
     1
 40
0.000000
 41
0.000000
  0
VERTEX
  8
0
  6
CONTINUOUS
 10
4.140400
 20
1.338480
  0
VERTEX
  8
0
  6
CONTINUOUS
 10
4.143040
 20
2.090880
  0
VERTEX
  8
0
  6
CONTINUOUS
 10
4.165480
 20
2.106720
  0
VERTEX
  8
0
  6
CONTINUOUS
 10
4.162840
 20
1.354320
  0
VERTEX
  8
0
  6
CONTINUOUS
 10
4.140400
 20
1.338480
  0
SEQEND
  8
0
  0
SOLID
  8
0
 62
    15
 10
4.162840
 20
1.354320
 11
4.165480
 21
2.106720
 12
4.188360
 22
1.367080
 13
4.190560
 23
2.119480
  0
POLYLINE
  8
0
  6
CONTINUOUS
 66
     1
 40
0.000000
 41
0.000000
  0
VERTEX
  8
0
  6
CONTINUOUS
 10
4.162840
 20
1.354320
  0
VERTEX
  8
0
  6
CONTINUOUS
 10
4.165480
 20
2.106720
  0
VERTEX
  8
0
  6
CONTINUOUS
 10
4.190560
 20
2.119480
  0
VERTEX
  8
0
  6
CONTINUOUS
 10
4.188360
 20
1.367080
  0
VERTEX
  8
0
  6
CONTINUOUS
 10
4.162840
 20
1.354320
  0
SEQEND
  8
0
  0
SOLID
  8
0
 62
    15
 10
4.188360
 20
1.367080
 11
4.190560
 21
2.119480
 12
4.216080
 22
1.375880
 13
4.218280
 23
2.128720
  0
POLYLINE
  8
0
  6
CONTINUOUS
 66
     1
 40
0.000000
 41
0.000000
  0
VERTEX
  8
0
  6
CONTINUOUS
 10
4.188360
 20
1.367080
  0
VERTEX
  8
0
  6
CONTINUOUS
 10
4.190560
 20
2.119480
  0
VERTEX
  8
0
  6
CONTINUOUS
 10
4.218280
 20
2.128720
  0
VERTEX
  8
0
  6
CONTINUOUS
 10
4.216080
 20
1.375880
  0
VERTEX
  8
0
  6
CONTINUOUS
 10
4.188360
 20
1.367080
  0
SEQEND
  8
0
  0
SOLID
  8
0
 62
    15
 10
4.216080
 20
1.375880
 11
4.218280
 21
2.128720
 12
4.244680
 22
1.381600
 13
4.247320
 23
2.134000
  0
POLYLINE
  8
0
  6
CONTINUOUS
 66
     1
 40
0.000000
 41
0.000000
  0
VERTEX
  8
0
  6
CONTINUOUS
 10
4.216080
 20
1.375880
  0
VERTEX
  8
0
  6
CONTINUOUS
 10
4.218280
 20
2.128720
  0
VERTEX
  8
0
  6
CONTINUOUS
 10
4.247320
 20
2.134000
  0
VERTEX
  8
0
  6
CONTINUOUS
 10
4.244680
 20
1.381600
  0
VERTEX
  8
0
  6
CONTINUOUS
 10
4.216080
 20
1.375880
  0
SEQEND
  8
0
  0
SOLID
  8
0
 62
    15
 10
4.244680
 20
1.381600
 11
4.247320
 21
2.134000
 12
4.274160
 22
1.382920
 13
4.276360
 23
2.135320
  0
POLYLINE
  8
0
  6
CONTINUOUS
 66
     1
 40
0.000000
 41
0.000000
  0
VERTEX
  8
0
  6
CONTINUOUS
 10
4.244680
 20
1.381600
  0
VERTEX
  8
0
  6
CONTINUOUS
 10
4.247320
 20
2.134000
  0
VERTEX
  8
0
  6
CONTINUOUS
 10
4.276360
 20
2.135320
  0
VERTEX
  8
0
  6
CONTINUOUS
 10
4.274160
 20
1.382920
  0
VERTEX
  8
0
  6
CONTINUOUS
 10
4.244680
 20
1.381600
  0
SEQEND
  8
0
  0
SOLID
  8
0
 62
    15
 10
4.274160
 20
1.382920
 11
4.276360
 21
2.135320
 12
4.303200
 22
1.380720
 13
4.305400
 23
2.133120
  0
POLYLINE
  8
0
  6
CONTINUOUS
 66
     1
 40
0.000000
 41
0.000000
  0
VERTEX
  8
0
  6
CONTINUOUS
 10
4.274160
 20
1.382920
  0
VERTEX
  8
0
  6
CONTINUOUS
 10
4.276360
 20
2.135320
  0
VERTEX
  8
0
  6
CONTINUOUS
 10
4.305400
 20
2.133120
  0
VERTEX
  8
0
  6
CONTINUOUS
 10
4.303200
 20
1.380720
  0
VERTEX
  8
0
  6
CONTINUOUS
 10
4.274160
 20
1.382920
  0
SEQEND
  8
0
  0
SOLID
  8
0
 62
    15
 10
4.303200
 20
1.380720
 11
4.305400
 21
2.133120
 12
4.331360
 22
1.373680
 13
4.333560
 23
2.126080
  0
POLYLINE
  8
0
  6
CONTINUOUS
 66
     1
 40
0.000000
 41
0.000000
  0
VERTEX
  8
0
  6
CONTINUOUS
 10
4.303200
 20
1.380720
  0
VERTEX
  8
0
  6
CONTINUOUS
 10
4.305400
 20
2.133120
  0
VERTEX
  8
0
  6
CONTINUOUS
 10
4.333560
 20
2.126080
  0
VERTEX
  8
0
  6
CONTINUOUS
 10
4.331360
 20
1.373680
  0
VERTEX
  8
0
  6
CONTINUOUS
 10
4.303200
 20
1.380720
  0
SEQEND
  8
0
  0
SOLID
  8
0
 62
    15
 10
4.331360
 20
1.373680
 11
4.333560
 21
2.126080
 12
4.356880
 22
1.362240
 13
4.359520
 23
2.114640
  0
POLYLINE
  8
0
  6
CONTINUOUS
 66
     1
 40
0.000000
 41
0.000000
  0
VERTEX
  8
0
  6
CONTINUOUS
 10
4.331360
 20
1.373680
  0
VERTEX
  8
0
  6
CONTINUOUS
 10
4.333560
 20
2.126080
  0
VERTEX
  8
0
  6
CONTINUOUS
 10
4.359520
 20
2.114640
  0
VERTEX
  8
0
  6
CONTINUOUS
 10
4.356880
 20
1.362240
  0
VERTEX
  8
0
  6
CONTINUOUS
 10
4.331360
 20
1.373680
  0
SEQEND
  8
0
  0
SOLID
  8
0
 62
    15
 10
4.356880
 20
1.362240
 11
4.359520
 21
2.114640
 12
4.380200
 22
1.345960
 13
4.382400
 23
2.098360
  0
POLYLINE
  8
0
  6
CONTINUOUS
 66
     1
 40
0.000000
 41
0.000000
  0
VERTEX
  8
0
  6
CONTINUOUS
 10
4.356880
 20
1.362240
  0
VERTEX
  8
0
  6
CONTINUOUS
 10
4.359520
 20
2.114640
  0
VERTEX
  8
0
  6
CONTINUOUS
 10
4.382400
 20
2.098360
  0
VERTEX
  8
0
  6
CONTINUOUS
 10
4.380200
 20
1.345960
  0
VERTEX
  8
0
  6
CONTINUOUS
 10
4.356880
 20
1.362240
  0
SEQEND
  8
0
  0
SOLID
  8
0
 62
    15
 10
4.380200
 20
1.345960
 11
4.382400
 21
2.098360
 12
4.399560
 22
1.325280
 13
4.401760
 23
2.077680
  0
POLYLINE
  8
0
  6
CONTINUOUS
 66
     1
 40
0.000000
 41
0.000000
  0
VERTEX
  8
0
  6
CONTINUOUS
 10
4.380200
 20
1.345960
  0
VERTEX
  8
0
  6
CONTINUOUS
 10
4.382400
 20
2.098360
  0
VERTEX
  8
0
  6
CONTINUOUS
 10
4.401760
 20
2.077680
  0
VERTEX
  8
0
  6
CONTINUOUS
 10
4.399560
 20
1.325280
  0
VERTEX
  8
0
  6
CONTINUOUS
 10
4.380200
 20
1.345960
  0
SEQEND
  8
0
  0
SOLID
  8
0
 62
    15
 10
4.399560
 20
1.325280
 11
4.401760
 21
2.077680
 12
4.414520
 22
1.298880
 13
4.416720
 23
2.051280
  0
POLYLINE
  8
0
  6
CONTINUOUS
 66
     1
 40
0.000000
 41
0.000000
  0
VERTEX
  8
0
  6
CONTINUOUS
 10
4.399560
 20
1.325280
  0
VERTEX
  8
0
  6
CONTINUOUS
 10
4.401760
 20
2.077680
  0
VERTEX
  8
0
  6
CONTINUOUS
 10
4.416720
 20
2.051280
  0
VERTEX
  8
0
  6
CONTINUOUS
 10
4.414520
 20
1.298880
  0
VERTEX
  8
0
  6
CONTINUOUS
 10
4.399560
 20
1.325280
  0
SEQEND
  8
0
  0
SOLID
  8
0
 62
    15
 10
4.423760
 20
1.267200
 11
4.426400
 21
2.020040
 12
4.427280
 22
1.230240
 13
4.429480
 23
1.982640
  0
POLYLINE
  8
0
  6
CONTINUOUS
 66
     1
 40
0.000000
 41
0.000000
  0
VERTEX
  8
0
  6
CONTINUOUS
 10
4.423760
 20
1.267200
  0
VERTEX
  8
0
  6
CONTINUOUS
 10
4.426400
 20
2.020040
  0
VERTEX
  8
0
  6
CONTINUOUS
 10
4.429480
 20
1.982640
  0
VERTEX
  8
0
  6
CONTINUOUS
 10
4.427280
 20
1.230240
  0
VERTEX
  8
0
  6
CONTINUOUS
 10
4.423760
 20
1.267200
  0
SEQEND
  8
0
  0
SOLID
  8
0
 62
    15
 10
4.414520
 20
1.298880
 11
4.416720
 21
2.051280
 12
4.423760
 22
1.267200
 13
4.426400
 23
2.020040
  0
POLYLINE
  8
0
  6
CONTINUOUS
 66
     1
 40
0.000000
 41
0.000000
  0
VERTEX
  8
0
  6
CONTINUOUS
 10
4.414520
 20
1.298880
  0
VERTEX
  8
0
  6
CONTINUOUS
 10
4.416720
 20
2.051280
  0
VERTEX
  8
0
  6
CONTINUOUS
 10
4.426400
 20
2.020040
  0
VERTEX
  8
0
  6
CONTINUOUS
 10
4.423760
 20
1.267200
  0
VERTEX
  8
0
  6
CONTINUOUS
 10
4.414520
 20
1.298880
  0
SEQEND
  8
0
  0
SOLID
  8
0
 62
    15
 10
4.427280
 20
1.230240
 11
4.429480
 21
1.982640
 12
4.427280
 22
0.907720
 13
4.429480
 23
1.660120
  0
POLYLINE
  8
0
  6
CONTINUOUS
 66
     1
 40
0.000000
 41
0.000000
  0
VERTEX
  8
0
  6
CONTINUOUS
 10
4.427280
 20
1.230240
  0
VERTEX
  8
0
  6
CONTINUOUS
 10
4.429480
 20
1.982640
  0
VERTEX
  8
0
  6
CONTINUOUS
 10
4.429480
 20
1.660120
  0
VERTEX
  8
0
  6
CONTINUOUS
 10
4.427280
 20
0.907720
  0
VERTEX
  8
0
  6
CONTINUOUS
 10
4.427280
 20
1.230240
  0
SEQEND
  8
0
  0
SOLID
  8
0
 62
    15
 10
1.655280
 20
1.724360
 11
1.657480
 21
2.476760
 12
2.119920
 22
1.724360
 13
2.122120
 23
2.476760
  0
POLYLINE
  8
0
  6
CONTINUOUS
 66
     1
 40
0.000000
 41
0.000000
  0
VERTEX
  8
0
  6
CONTINUOUS
 10
1.655280
 20
1.724360
  0
VERTEX
  8
0
  6
CONTINUOUS
 10
1.657480
 20
2.476760
  0
VERTEX
  8
0
  6
CONTINUOUS
 10
2.122120
 20
2.476760
  0
VERTEX
  8
0
  6
CONTINUOUS
 10
2.119920
 20
1.724360
  0
VERTEX
  8
0
  6
CONTINUOUS
 10
1.655280
 20
1.724360
  0
SEQEND
  8
0
  0
SOLID
  8
0
 62
    15
 10
2.119920
 20
1.724360
 11
2.122120
 21
2.476760
 12
2.122120
 22
1.638120
 13
2.124320
 23
2.390520
  0
POLYLINE
  8
0
  6
CONTINUOUS
 66
     1
 40
0.000000
 41
0.000000
  0
VERTEX
  8
0
  6
CONTINUOUS
 10
2.119920
 20
1.724360
  0
VERTEX
  8
0
  6
CONTINUOUS
 10
2.122120
 20
2.476760
  0
VERTEX
  8
0
  6
CONTINUOUS
 10
2.124320
 20
2.390520
  0
VERTEX
  8
0
  6
CONTINUOUS
 10
2.122120
 20
1.638120
  0
VERTEX
  8
0
  6
CONTINUOUS
 10
2.119920
 20
1.724360
  0
SEQEND
  8
0
  0
SOLID
  8
0
 62
    15
 10
2.122120
 20
1.638120
 11
2.124320
 21
2.390520
 12
2.133560
 22
1.638120
 13
2.136200
 23
2.390520
  0
POLYLINE
  8
0
  6
CONTINUOUS
 66
     1
 40
0.000000
 41
0.000000
  0
VERTEX
  8
0
  6
CONTINUOUS
 10
2.122120
 20
1.638120
  0
VERTEX
  8
0
  6
CONTINUOUS
 10
2.124320
 20
2.390520
  0
VERTEX
  8
0
  6
CONTINUOUS
 10
2.136200
 20
2.390520
  0
VERTEX
  8
0
  6
CONTINUOUS
 10
2.133560
 20
1.638120
  0
VERTEX
  8
0
  6
CONTINUOUS
 10
2.122120
 20
1.638120
  0
SEQEND
  8
0
  0
POLYLINE
  8
0
  6
CONTINUOUS
 66
     1
 40
0.000000
 41
0.000000
  0
VERTEX
  8
0
  6
CONTINUOUS
 10
2.133560
 20
1.638120
  0
VERTEX
  8
0
  6
CONTINUOUS
 10
2.158200
 20
1.665400
  0
VERTEX
  8
0
  6
CONTINUOUS
 10
2.192960
 20
1.684320
  0
VERTEX
  8
0
  6
CONTINUOUS
 10
2.236080
 20
1.694880
  0
VERTEX
  8
0
  6
CONTINUOUS
 10
2.284920
 20
1.697080
  0
VERTEX
  8
0
  6
CONTINUOUS
 10
2.337280
 20
1.691360
  0
VERTEX
  8
0
  6
CONTINUOUS
 10
2.390520
 20
1.677280
  0
VERTEX
  8
0
  6
CONTINUOUS
 10
2.442880
 20
1.655280
  0
VERTEX
  8
0
  6
CONTINUOUS
 10
2.491280
 20
1.625360
  0
VERTEX
  8
0
  6
CONTINUOUS
 10
2.533520
 20
1.594560
  0
VERTEX
  8
0
  6
CONTINUOUS
 10
2.569160
 20
1.569920
  0
VERTEX
  8
0
  6
CONTINUOUS
 10
2.598200
 20
1.550560
  0
VERTEX
  8
0
  6
CONTINUOUS
 10
2.621520
 20
1.536040
  0
VERTEX
  8
0
  6
CONTINUOUS
 10
2.640000
 20
1.525920
  0
VERTEX
  8
0
  6
CONTINUOUS
 10
2.653640
 20
1.519320
  0
VERTEX
  8
0
  6
CONTINUOUS
 10
2.663760
 20
1.515800
  0
VERTEX
  8
0
  6
CONTINUOUS
 10
2.669920
 20
1.514040
  0
VERTEX
  8
0
  6
CONTINUOUS
 10
2.682240
 20
1.510960
  0
VERTEX
  8
0
  6
CONTINUOUS
 10
2.696320
 20
1.501720
  0
VERTEX
  8
0
  6
CONTINUOUS
 10
2.708200
 20
1.482360
  0
VERTEX
  8
0
  6
CONTINUOUS
 10
2.711720
 20
1.467840
  0
VERTEX
  8
0
  6
CONTINUOUS
 10
2.713480
 20
1.449360
  0
VERTEX
  8
0
  6
CONTINUOUS
 10
2.713480
 20
1.396120
  0
VERTEX
  8
0
  6
CONTINUOUS
 10
4.076600
 20
1.396120
  0
VERTEX
  8
0
  6
CONTINUOUS
 10
4.088040
 20
1.272480
  0
VERTEX
  8
0
  6
CONTINUOUS
 10
4.099920
 20
1.272480
  0
VERTEX
  8
0
  6
CONTINUOUS
 10
4.108280
 20
1.297120
  0
VERTEX
  8
0
  6
CONTINUOUS
 10
4.121920
 20
1.319120
  0
VERTEX
  8
0
  6
CONTINUOUS
 10
4.140400
 20
1.338480
  0
VERTEX
  8
0
  6
CONTINUOUS
 10
4.162840
 20
1.354320
  0
VERTEX
  8
0
  6
CONTINUOUS
 10
4.188360
 20
1.367080
  0
VERTEX
  8
0
  6
CONTINUOUS
 10
4.216080
 20
1.375880
  0
VERTEX
  8
0
  6
CONTINUOUS
 10
4.244680
 20
1.381600
  0
VERTEX
  8
0
  6
CONTINUOUS
 10
4.274160
 20
1.382920
  0
VERTEX
  8
0
  6
CONTINUOUS
 10
4.303200
 20
1.380720
  0
VERTEX
  8
0
  6
CONTINUOUS
 10
4.331360
 20
1.373680
  0
VERTEX
  8
0
  6
CONTINUOUS
 10
4.356880
 20
1.362240
  0
VERTEX
  8
0
  6
CONTINUOUS
 10
4.380200
 20
1.345960
  0
VERTEX
  8
0
  6
CONTINUOUS
 10
4.399560
 20
1.325280
  0
VERTEX
  8
0
  6
CONTINUOUS
 10
4.414520
 20
1.298880
  0
VERTEX
  8
0
  6
CONTINUOUS
 10
4.423760
 20
1.267200
  0
VERTEX
  8
0
  6
CONTINUOUS
 10
4.427280
 20
1.230240
  0
VERTEX
  8
0
  6
CONTINUOUS
 10
4.427280
 20
0.907720
  0
VERTEX
  8
0
  6
CONTINUOUS
 10
1.655280
 20
0.907720
  0
VERTEX
  8
0
  6
CONTINUOUS
 10
1.655280
 20
1.724360
  0
VERTEX
  8
0
  6
CONTINUOUS
 10
2.119920
 20
1.724360
  0
VERTEX
  8
0
  6
CONTINUOUS
 10
2.122120
 20
1.638120
  0
VERTEX
  8
0
  6
CONTINUOUS
 10
2.133560
 20
1.638120
  0
SEQEND
  8
0
  0
TEXT
  8
0
 10
2.747360
 20
0.688600
 40
0.138043
  1
BA  932
 41
1.000000
  7
SN0
 71
     0
 72
     5
 11
3.337427
 21
0.688600
  0
TEXT
  8
0
 10
2.499200
 20
0.497200
 40
0.138043
  1
13/16" x 2-3/4"
 41
1.000000
  7
SN0
 71
     0
 72
     5
 11
3.583427
 21
0.497200
  0
POLYLINE
  8
0
  6
CONTINUOUS
 66
     1
 40
0.014080
 41
0.014080
  0
VERTEX
  8
0
  6
CONTINUOUS
 10
5.202120
 20
2.287120
  0
VERTEX
  8
0
  6
CONTINUOUS
 10
5.213120
 20
2.301640
  0
VERTEX
  8
0
  6
CONTINUOUS
 10
5.226760
 20
2.314400
  0
VERTEX
  8
0
  6
CONTINUOUS
 10
5.251840
 20
2.329360
  0
VERTEX
  8
0
  6
CONTINUOUS
 10
5.282200
 20
2.339480
  0
VERTEX
  8
0
  6
CONTINUOUS
 10
5.304640
 20
2.343880
  0
VERTEX
  8
0
  6
CONTINUOUS
 10
5.328400
 20
2.346080
  0
VERTEX
  8
0
  6
CONTINUOUS
 10
5.353480
 20
2.346080
  0
VERTEX
  8
0
  6
CONTINUOUS
 10
5.379440
 20
2.344320
  0
VERTEX
  8
0
  6
CONTINUOUS
 10
5.405840
 20
2.340360
  0
VERTEX
  8
0
  6
CONTINUOUS
 10
5.459080
 20
2.326280
  0
VERTEX
  8
0
  6
CONTINUOUS
 10
5.485480
 20
2.316160
  0
VERTEX
  8
0
  6
CONTINUOUS
 10
5.511440
 20
2.304280
  0
VERTEX
  8
0
  6
CONTINUOUS
 10
5.536080
 20
2.290200
  0
VERTEX
  8
0
  6
CONTINUOUS
 10
5.653120
 20
2.208360
  0
VERTEX
  8
0
  6
CONTINUOUS
 10
5.708560
 20
2.174920
  0
VERTEX
  8
0
  6
CONTINUOUS
 10
5.735840
 20
2.163480
  0
VERTEX
  8
0
  6
CONTINUOUS
 10
5.750800
 20
2.159960
  0
VERTEX
  8
0
  6
CONTINUOUS
 10
5.758280
 20
2.156440
  0
VERTEX
  8
0
  6
CONTINUOUS
 10
5.768400
 20
2.146760
  0
VERTEX
  8
0
  6
CONTINUOUS
 10
5.777200
 20
2.131360
  0
VERTEX
  8
0
  6
CONTINUOUS
 10
5.781600
 20
2.108040
  0
VERTEX
  8
0
  6
CONTINUOUS
 10
5.782040
 20
2.044680
  0
VERTEX
  8
0
  6
CONTINUOUS
 10
7.145160
 20
2.044680
  0
VERTEX
  8
0
  6
CONTINUOUS
 10
7.156600
 20
1.921480
  0
VERTEX
  8
0
  6
CONTINUOUS
 10
7.168480
 20
1.921480
  0
VERTEX
  8
0
  6
CONTINUOUS
 10
7.176840
 20
1.946120
  0
VERTEX
  8
0
  6
CONTINUOUS
 10
7.183000
 20
1.957560
  0
VERTEX
  8
0
  6
CONTINUOUS
 10
7.199720
 20
1.977800
  0
VERTEX
  8
0
  6
CONTINUOUS
 10
7.219960
 20
1.995400
  0
VERTEX
  8
0
  6
CONTINUOUS
 10
7.244160
 20
2.009920
  0
VERTEX
  8
0
  6
CONTINUOUS
 10
7.270560
 20
2.020920
  0
VERTEX
  8
0
  6
CONTINUOUS
 10
7.299160
 20
2.027960
  0
VERTEX
  8
0
  6
CONTINUOUS
 10
7.328200
 20
2.031480
  0
VERTEX
  8
0
  6
CONTINUOUS
 10
7.342720
 20
2.031920
  0
VERTEX
  8
0
  6
CONTINUOUS
 10
7.371760
 20
2.029280
  0
VERTEX
  8
0
  6
CONTINUOUS
 10
7.399920
 20
2.022240
  0
VERTEX
  8
0
  6
CONTINUOUS
 10
7.425880
 20
2.011240
  0
VERTEX
  8
0
  6
CONTINUOUS
 10
7.448760
 20
1.994960
  0
VERTEX
  8
0
  6
CONTINUOUS
 10
7.468120
 20
1.973840
  0
VERTEX
  8
0
  6
CONTINUOUS
 10
7.483080
 20
1.947880
  0
VERTEX
  8
0
  6
CONTINUOUS
 10
7.492320
 20
1.916200
  0
VERTEX
  8
0
  6
CONTINUOUS
 10
7.494960
 20
1.898600
  0
VERTEX
  8
0
  6
CONTINUOUS
 10
7.495840
 20
1.879240
  0
VERTEX
  8
0
  6
CONTINUOUS
 10
7.495840
 20
1.556720
  0
VERTEX
  8
0
  6
CONTINUOUS
 10
4.723840
 20
1.556720
  0
VERTEX
  8
0
  6
CONTINUOUS
 10
4.723840
 20
2.373360
  0
VERTEX
  8
0
  6
CONTINUOUS
 10
5.188480
 20
2.373360
  0
VERTEX
  8
0
  6
CONTINUOUS
 10
5.190680
 20
2.287120
  0
VERTEX
  8
0
  6
CONTINUOUS
 10
5.202120
 20
2.287120
  0
SEQEND
  8
0
  0
ENDSEC
  0
EOF
