  0
SECTION
  2
HEADER
  9
$ACADVER
  1
AC1006
  9
$EXTMIN
 10
4.337520
 20
0.645480
  9
$EXTMAX
 10
7.388480
 20
2.510200
  9
$LTSCALE
 40
0.044000
  9
$PDMODE
 70
    35
  9
$PDSIZE
 40
0.035200
  0
ENDSEC
  0
SECTION
  2
TABLES
  0
TABLE
  2
LTYPE
 70
     9
  0
LTYPE
  2
CONTINUOUS
 70
    64
  3
Solid line
 72
    65
 73
     0
 40
0.000000
  0
LTYPE
  2
DASHED
 70
    64
  3
__ __ __ __ __ __ __ __ __ __ __ __ __ __ __
 72
    65
 73
     2
 40
0.000330
 49
0.000220
 49
-0.000110
  0
LTYPE
  2
HIDDEN
 70
    64
  3
 _ _ _ _ _ _ _ _ _ _ _ _ _ _ _ _ _ _ _ _ _ _
 72
    65
 73
     2
 40
0.000165
 49
0.000110
 49
-0.000055
  0
LTYPE
  2
CENTER
 70
    64
  3
____ _ ____ _ ____ _ ____ _ ____ _ ____ _ ____
 72
    65
 73
     4
 40
0.000880
 49
0.000550
 49
-0.000110
 49
0.000110
 49
-0.000110
  0
LTYPE
  2
PHANTOM
 70
    64
  3
_____ _ _ _____ _ _ _____ _ _ _____ _ _ ____
 72
    65
 73
     6
 40
0.001100
 49
0.000550
 49
-0.000110
 49
0.000110
 49
-0.000110
 49
0.000110
 49
-0.000110
  0
LTYPE
  2
DOT
 70
    64
  3
...............................................
 72
    65
 73
     2
 40
0.000110
 49
0.000000
 49
-0.000110
  0
LTYPE
  2
DASHDOT
 70
    64
  3
__ . __ . __ . __ . __ . __ . __ . __ . __ . __
 72
    65
 73
     4
 40
0.000440
 49
0.000220
 49
-0.000110
 49
0.000000
 49
-0.000110
  0
LTYPE
  2
BORDER
 70
    64
  3
__ __ . __ __ . __ __ . __ __ . __ __ . __ __
 72
    65
 73
     6
 40
0.000770
 49
0.000220
 49
-0.000110
 49
0.000220
 49
-0.000110
 49
0.000000
 49
-0.000110
  0
LTYPE
  2
DIVIDE
 70
    64
  3
__ . . __ . . __ . . __ . . __ . . __ . . __
 72
    65
 73
     6
 40
0.000550
 49
0.000220
 49
-0.000110
 49
0.000000
 49
-0.000110
 49
0.000000
 49
-0.000110
  0
LTYPE
  2
DOTDOT
 70
    64
  3
 . .  . .  . .  . .  . .  . . 
 72
    65
 73
     5
 40
0.000242
 49
-0.000110
 49
0.000000
 49
-0.000110
 49
0.000000
 49
-0.000110
  0
ENDTAB
  0
TABLE
  2
STYLE
 70
     2
  0
STYLE
 70
     0
  2
SN0
 40
0.000000
 41
0.000440
 50
0.000000
 71
     0
 42
0.000000
  3
ROMAND
  0
STYLE
 70
    68
  2
SV0
 40
0.000000
 41
0.000440
 50
0.000000
 71
     0
 42
0.000000
  3
ROMAND
  0
ENDTAB
  0
TABLE
  2
LAYER
 70
     3
  0
LAYER
  2
FOREGROUND
 70
    64
 62
     7
  6
CONTINUOUS
  0
LAYER
  2
BACKGROUND
 70
    65
 62
    -7
  6
CONTINUOUS
  0
LAYER
  2
0
 70
    64
 62
     7
  6
CONTINUOUS
  0
ENDTAB
  0
ENDSEC
  0
SECTION
  2
ENTITIES
  0
POLYLINE
  8
FOREGROUND
  6
CONTINUOUS
 66
     1
 40
0.000000
 41
0.000000
  0
VERTEX
  8
FOREGROUND
  6
CONTINUOUS
 10
0.000000
 20
3.155680
  0
VERTEX
  8
FOREGROUND
  6
CONTINUOUS
 10
8.499920
 20
3.155680
  0
VERTEX
  8
FOREGROUND
  6
CONTINUOUS
 10
8.499920
 20
-7.844320
  0
VERTEX
  8
FOREGROUND
  6
CONTINUOUS
 10
0.000000
 20
-7.844320
  0
VERTEX
  8
FOREGROUND
  6
CONTINUOUS
 10
0.000000
 20
3.155680
  0
SEQEND
  8
0
  0
POLYLINE
  8
FOREGROUND
  6
CONTINUOUS
 66
     1
 40
0.000000
 41
0.000000
  0
VERTEX
  8
FOREGROUND
  6
CONTINUOUS
 10
0.000000
 20
3.155680
  0
VERTEX
  8
FOREGROUND
  6
CONTINUOUS
 10
8.499920
 20
3.155680
  0
VERTEX
  8
FOREGROUND
  6
CONTINUOUS
 10
8.499920
 20
-7.844320
  0
VERTEX
  8
FOREGROUND
  6
CONTINUOUS
 10
0.000000
 20
-7.844320
  0
VERTEX
  8
FOREGROUND
  6
CONTINUOUS
 10
0.000000
 20
3.155680
  0
SEQEND
  8
0
  0
POLYLINE
  8
0
  6
CONTINUOUS
 66
     1
 40
0.000000
 41
0.000000
  0
VERTEX
  8
0
  6
CONTINUOUS
 10
7.386720
 20
1.859440
  0
VERTEX
  8
0
  6
CONTINUOUS
 10
7.386720
 20
2.087800
  0
VERTEX
  8
0
  6
CONTINUOUS
 10
7.261760
 20
2.121240
  0
VERTEX
  8
0
  6
CONTINUOUS
 10
7.261760
 20
2.144560
  0
VERTEX
  8
0
  6
CONTINUOUS
 10
7.274520
 20
2.145000
  0
VERTEX
  8
0
  6
CONTINUOUS
 10
7.299600
 20
2.150280
  0
VERTEX
  8
0
  6
CONTINUOUS
 10
7.322040
 20
2.159960
  0
VERTEX
  8
0
  6
CONTINUOUS
 10
7.342280
 20
2.173600
  0
VERTEX
  8
0
  6
CONTINUOUS
 10
7.359440
 20
2.190760
  0
VERTEX
  8
0
  6
CONTINUOUS
 10
7.372640
 20
2.210560
  0
VERTEX
  8
0
  6
CONTINUOUS
 10
7.378360
 20
2.221560
  0
VERTEX
  8
0
  6
CONTINUOUS
 10
7.385400
 20
2.245320
  0
VERTEX
  8
0
  6
CONTINUOUS
 10
7.387600
 20
2.258080
  0
VERTEX
  8
0
  6
CONTINUOUS
 10
7.387600
 20
2.283600
  0
VERTEX
  8
0
  6
CONTINUOUS
 10
7.382320
 20
2.308680
  0
VERTEX
  8
0
  6
CONTINUOUS
 10
7.378360
 20
2.320120
  0
VERTEX
  8
0
  6
CONTINUOUS
 10
7.366480
 20
2.341680
  0
VERTEX
  8
0
  6
CONTINUOUS
 10
7.351080
 20
2.360600
  0
VERTEX
  8
0
  6
CONTINUOUS
 10
7.332600
 20
2.376000
  0
VERTEX
  8
0
  6
CONTINUOUS
 10
7.311040
 20
2.387440
  0
VERTEX
  8
0
  6
CONTINUOUS
 10
7.287280
 20
2.394920
  0
VERTEX
  8
0
  6
CONTINUOUS
 10
7.274520
 20
2.397120
  0
VERTEX
  8
0
  6
CONTINUOUS
 10
6.343040
 20
2.397560
  0
VERTEX
  8
0
  6
CONTINUOUS
 10
6.343040
 20
1.399200
  0
VERTEX
  8
0
  6
CONTINUOUS
 10
7.274520
 20
1.399640
  0
VERTEX
  8
0
  6
CONTINUOUS
 10
7.299160
 20
1.404920
  0
VERTEX
  8
0
  6
CONTINUOUS
 10
7.322040
 20
1.414600
  0
VERTEX
  8
0
  6
CONTINUOUS
 10
7.341840
 20
1.428240
  0
VERTEX
  8
0
  6
CONTINUOUS
 10
7.359000
 20
1.445400
  0
VERTEX
  8
0
  6
CONTINUOUS
 10
7.372640
 20
1.465640
  0
VERTEX
  8
0
  6
CONTINUOUS
 10
7.382320
 20
1.488080
  0
VERTEX
  8
0
  6
CONTINUOUS
 10
7.387600
 20
1.513160
  0
VERTEX
  8
0
  6
CONTINUOUS
 10
7.387600
 20
1.538680
  0
VERTEX
  8
0
  6
CONTINUOUS
 10
7.382320
 20
1.563320
  0
VERTEX
  8
0
  6
CONTINUOUS
 10
7.372640
 20
1.586200
  0
VERTEX
  8
0
  6
CONTINUOUS
 10
7.359000
 20
1.606000
  0
VERTEX
  8
0
  6
CONTINUOUS
 10
7.341840
 20
1.623160
  0
VERTEX
  8
0
  6
CONTINUOUS
 10
7.322040
 20
1.636800
  0
VERTEX
  8
0
  6
CONTINUOUS
 10
7.299160
 20
1.646480
  0
VERTEX
  8
0
  6
CONTINUOUS
 10
7.274520
 20
1.651760
  0
VERTEX
  8
0
  6
CONTINUOUS
 10
7.261760
 20
1.652200
  0
VERTEX
  8
0
  6
CONTINUOUS
 10
7.261760
 20
1.675520
  0
VERTEX
  8
0
  6
CONTINUOUS
 10
7.386720
 20
1.708960
  0
VERTEX
  8
0
  6
CONTINUOUS
 10
7.386720
 20
1.937320
  0
VERTEX
  8
0
  6
CONTINUOUS
 10
7.386720
 20
1.859440
  0
SEQEND
  8
0
  0
SOLID
  8
0
 62
    15
 10
5.282640
 20
2.131360
 11
5.929000
 21
2.507120
 12
5.306400
 22
2.123880
 13
5.952760
 23
2.499640
  0
POLYLINE
  8
0
  6
CONTINUOUS
 66
     1
 40
0.000000
 41
0.000000
  0
VERTEX
  8
0
  6
CONTINUOUS
 10
5.282640
 20
2.131360
  0
VERTEX
  8
0
  6
CONTINUOUS
 10
5.929000
 20
2.507120
  0
VERTEX
  8
0
  6
CONTINUOUS
 10
5.952760
 20
2.499640
  0
VERTEX
  8
0
  6
CONTINUOUS
 10
5.306400
 20
2.123880
  0
VERTEX
  8
0
  6
CONTINUOUS
 10
5.282640
 20
2.131360
  0
SEQEND
  8
0
  0
SOLID
  8
0
 62
    15
 10
5.257120
 20
1.388640
 11
5.903480
 21
1.764400
 12
5.282640
 22
1.386000
 13
5.928560
 23
1.761760
  0
POLYLINE
  8
0
  6
CONTINUOUS
 66
     1
 40
0.000000
 41
0.000000
  0
VERTEX
  8
0
  6
CONTINUOUS
 10
5.257120
 20
1.388640
  0
VERTEX
  8
0
  6
CONTINUOUS
 10
5.903480
 20
1.764400
  0
VERTEX
  8
0
  6
CONTINUOUS
 10
5.928560
 20
1.761760
  0
VERTEX
  8
0
  6
CONTINUOUS
 10
5.282640
 20
1.386000
  0
VERTEX
  8
0
  6
CONTINUOUS
 10
5.257120
 20
1.388640
  0
SEQEND
  8
0
  0
SOLID
  8
0
 62
    15
 10
5.282640
 20
1.386000
 11
5.928560
 21
1.761760
 12
5.306400
 22
1.378520
 13
5.952320
 23
1.754720
  0
POLYLINE
  8
0
  6
CONTINUOUS
 66
     1
 40
0.000000
 41
0.000000
  0
VERTEX
  8
0
  6
CONTINUOUS
 10
5.282640
 20
1.386000
  0
VERTEX
  8
0
  6
CONTINUOUS
 10
5.928560
 20
1.761760
  0
VERTEX
  8
0
  6
CONTINUOUS
 10
5.952320
 20
1.754720
  0
VERTEX
  8
0
  6
CONTINUOUS
 10
5.306400
 20
1.378520
  0
VERTEX
  8
0
  6
CONTINUOUS
 10
5.282640
 20
1.386000
  0
SEQEND
  8
0
  0
SOLID
  8
0
 62
     7
 10
5.306400
 20
1.378520
 11
5.952320
 21
1.754720
 12
5.327520
 22
1.367080
 13
5.973880
 23
1.742840
  0
POLYLINE
  8
0
  6
CONTINUOUS
 66
     1
 40
0.000000
 41
0.000000
  0
VERTEX
  8
0
  6
CONTINUOUS
 10
5.306400
 20
1.378520
  0
VERTEX
  8
0
  6
CONTINUOUS
 10
5.952320
 20
1.754720
  0
VERTEX
  8
0
  6
CONTINUOUS
 10
5.973880
 20
1.742840
  0
VERTEX
  8
0
  6
CONTINUOUS
 10
5.327520
 20
1.367080
  0
VERTEX
  8
0
  6
CONTINUOUS
 10
5.306400
 20
1.378520
  0
SEQEND
  8
0
  0
SOLID
  8
0
 62
     7
 10
5.327520
 20
1.367080
 11
5.973880
 21
1.742840
 12
5.346440
 22
1.351680
 13
5.992800
 23
1.727440
  0
POLYLINE
  8
0
  6
CONTINUOUS
 66
     1
 40
0.000000
 41
0.000000
  0
VERTEX
  8
0
  6
CONTINUOUS
 10
5.327520
 20
1.367080
  0
VERTEX
  8
0
  6
CONTINUOUS
 10
5.973880
 20
1.742840
  0
VERTEX
  8
0
  6
CONTINUOUS
 10
5.992800
 20
1.727440
  0
VERTEX
  8
0
  6
CONTINUOUS
 10
5.346440
 20
1.351680
  0
VERTEX
  8
0
  6
CONTINUOUS
 10
5.327520
 20
1.367080
  0
SEQEND
  8
0
  0
SOLID
  8
0
 62
     7
 10
5.346440
 20
1.351680
 11
5.992800
 21
1.727440
 12
5.361840
 22
1.332760
 13
6.008200
 23
1.708960
  0
POLYLINE
  8
0
  6
CONTINUOUS
 66
     1
 40
0.000000
 41
0.000000
  0
VERTEX
  8
0
  6
CONTINUOUS
 10
5.346440
 20
1.351680
  0
VERTEX
  8
0
  6
CONTINUOUS
 10
5.992800
 20
1.727440
  0
VERTEX
  8
0
  6
CONTINUOUS
 10
6.008200
 20
1.708960
  0
VERTEX
  8
0
  6
CONTINUOUS
 10
5.361840
 20
1.332760
  0
VERTEX
  8
0
  6
CONTINUOUS
 10
5.346440
 20
1.351680
  0
SEQEND
  8
0
  0
SOLID
  8
0
 62
     7
 10
5.361840
 20
1.332760
 11
6.008200
 21
1.708960
 12
5.373720
 22
1.311200
 13
6.019640
 23
1.687400
  0
POLYLINE
  8
0
  6
CONTINUOUS
 66
     1
 40
0.000000
 41
0.000000
  0
VERTEX
  8
0
  6
CONTINUOUS
 10
5.361840
 20
1.332760
  0
VERTEX
  8
0
  6
CONTINUOUS
 10
6.008200
 20
1.708960
  0
VERTEX
  8
0
  6
CONTINUOUS
 10
6.019640
 20
1.687400
  0
VERTEX
  8
0
  6
CONTINUOUS
 10
5.373720
 20
1.311200
  0
VERTEX
  8
0
  6
CONTINUOUS
 10
5.361840
 20
1.332760
  0
SEQEND
  8
0
  0
SOLID
  8
0
 62
     7
 10
5.373720
 20
1.311200
 11
6.019640
 21
1.687400
 12
5.380760
 22
1.287440
 13
6.027120
 23
1.663640
  0
POLYLINE
  8
0
  6
CONTINUOUS
 66
     1
 40
0.000000
 41
0.000000
  0
VERTEX
  8
0
  6
CONTINUOUS
 10
5.373720
 20
1.311200
  0
VERTEX
  8
0
  6
CONTINUOUS
 10
6.019640
 20
1.687400
  0
VERTEX
  8
0
  6
CONTINUOUS
 10
6.027120
 20
1.663640
  0
VERTEX
  8
0
  6
CONTINUOUS
 10
5.380760
 20
1.287440
  0
VERTEX
  8
0
  6
CONTINUOUS
 10
5.373720
 20
1.311200
  0
SEQEND
  8
0
  0
SOLID
  8
0
 62
     7
 10
5.380760
 20
1.287440
 11
6.027120
 21
1.663640
 12
5.383400
 22
1.261920
 13
6.029760
 23
1.638120
  0
POLYLINE
  8
0
  6
CONTINUOUS
 66
     1
 40
0.000000
 41
0.000000
  0
VERTEX
  8
0
  6
CONTINUOUS
 10
5.380760
 20
1.287440
  0
VERTEX
  8
0
  6
CONTINUOUS
 10
6.027120
 20
1.663640
  0
VERTEX
  8
0
  6
CONTINUOUS
 10
6.029760
 20
1.638120
  0
VERTEX
  8
0
  6
CONTINUOUS
 10
5.383400
 20
1.261920
  0
VERTEX
  8
0
  6
CONTINUOUS
 10
5.380760
 20
1.287440
  0
SEQEND
  8
0
  0
SOLID
  8
0
 62
     7
 10
5.383400
 20
1.261920
 11
6.029760
 21
1.638120
 12
5.380760
 22
1.236840
 13
6.027120
 23
1.612600
  0
POLYLINE
  8
0
  6
CONTINUOUS
 66
     1
 40
0.000000
 41
0.000000
  0
VERTEX
  8
0
  6
CONTINUOUS
 10
5.383400
 20
1.261920
  0
VERTEX
  8
0
  6
CONTINUOUS
 10
6.029760
 20
1.638120
  0
VERTEX
  8
0
  6
CONTINUOUS
 10
6.027120
 20
1.612600
  0
VERTEX
  8
0
  6
CONTINUOUS
 10
5.380760
 20
1.236840
  0
VERTEX
  8
0
  6
CONTINUOUS
 10
5.383400
 20
1.261920
  0
SEQEND
  8
0
  0
SOLID
  8
0
 62
    15
 10
5.380760
 20
1.236840
 11
6.027120
 21
1.612600
 12
5.373720
 22
1.213080
 13
6.019640
 23
1.588840
  0
POLYLINE
  8
0
  6
CONTINUOUS
 66
     1
 40
0.000000
 41
0.000000
  0
VERTEX
  8
0
  6
CONTINUOUS
 10
5.380760
 20
1.236840
  0
VERTEX
  8
0
  6
CONTINUOUS
 10
6.027120
 20
1.612600
  0
VERTEX
  8
0
  6
CONTINUOUS
 10
6.019640
 20
1.588840
  0
VERTEX
  8
0
  6
CONTINUOUS
 10
5.373720
 20
1.213080
  0
VERTEX
  8
0
  6
CONTINUOUS
 10
5.380760
 20
1.236840
  0
SEQEND
  8
0
  0
SOLID
  8
0
 62
    15
 10
5.373720
 20
1.213080
 11
6.019640
 21
1.588840
 12
5.361840
 22
1.191520
 13
6.008200
 23
1.567280
  0
POLYLINE
  8
0
  6
CONTINUOUS
 66
     1
 40
0.000000
 41
0.000000
  0
VERTEX
  8
0
  6
CONTINUOUS
 10
5.373720
 20
1.213080
  0
VERTEX
  8
0
  6
CONTINUOUS
 10
6.019640
 20
1.588840
  0
VERTEX
  8
0
  6
CONTINUOUS
 10
6.008200
 20
1.567280
  0
VERTEX
  8
0
  6
CONTINUOUS
 10
5.361840
 20
1.191520
  0
VERTEX
  8
0
  6
CONTINUOUS
 10
5.373720
 20
1.213080
  0
SEQEND
  8
0
  0
SOLID
  8
0
 62
    15
 10
5.361840
 20
1.191520
 11
6.008200
 21
1.567280
 12
5.346440
 22
1.172600
 13
5.992800
 23
1.548800
  0
POLYLINE
  8
0
  6
CONTINUOUS
 66
     1
 40
0.000000
 41
0.000000
  0
VERTEX
  8
0
  6
CONTINUOUS
 10
5.361840
 20
1.191520
  0
VERTEX
  8
0
  6
CONTINUOUS
 10
6.008200
 20
1.567280
  0
VERTEX
  8
0
  6
CONTINUOUS
 10
5.992800
 20
1.548800
  0
VERTEX
  8
0
  6
CONTINUOUS
 10
5.346440
 20
1.172600
  0
VERTEX
  8
0
  6
CONTINUOUS
 10
5.361840
 20
1.191520
  0
SEQEND
  8
0
  0
SOLID
  8
0
 62
    15
 10
5.346440
 20
1.172600
 11
5.992800
 21
1.548800
 12
5.327520
 22
1.157200
 13
5.973880
 23
1.533400
  0
POLYLINE
  8
0
  6
CONTINUOUS
 66
     1
 40
0.000000
 41
0.000000
  0
VERTEX
  8
0
  6
CONTINUOUS
 10
5.346440
 20
1.172600
  0
VERTEX
  8
0
  6
CONTINUOUS
 10
5.992800
 20
1.548800
  0
VERTEX
  8
0
  6
CONTINUOUS
 10
5.973880
 20
1.533400
  0
VERTEX
  8
0
  6
CONTINUOUS
 10
5.327520
 20
1.157200
  0
VERTEX
  8
0
  6
CONTINUOUS
 10
5.346440
 20
1.172600
  0
SEQEND
  8
0
  0
SOLID
  8
0
 62
    15
 10
4.338400
 20
2.134000
 11
4.984320
 21
2.509760
 12
5.257120
 22
2.134000
 13
5.903480
 23
2.509760
  0
POLYLINE
  8
0
  6
CONTINUOUS
 66
     1
 40
0.000000
 41
0.000000
  0
VERTEX
  8
0
  6
CONTINUOUS
 10
4.338400
 20
2.134000
  0
VERTEX
  8
0
  6
CONTINUOUS
 10
4.984320
 20
2.509760
  0
VERTEX
  8
0
  6
CONTINUOUS
 10
5.903480
 20
2.509760
  0
VERTEX
  8
0
  6
CONTINUOUS
 10
5.257120
 20
2.134000
  0
VERTEX
  8
0
  6
CONTINUOUS
 10
4.338400
 20
2.134000
  0
SEQEND
  8
0
  0
SOLID
  8
0
 62
    15
 10
5.257120
 20
2.134000
 11
5.903480
 21
2.509760
 12
5.282640
 22
2.131360
 13
5.929000
 23
2.507120
  0
POLYLINE
  8
0
  6
CONTINUOUS
 66
     1
 40
0.000000
 41
0.000000
  0
VERTEX
  8
0
  6
CONTINUOUS
 10
5.257120
 20
2.134000
  0
VERTEX
  8
0
  6
CONTINUOUS
 10
5.903480
 20
2.509760
  0
VERTEX
  8
0
  6
CONTINUOUS
 10
5.929000
 20
2.507120
  0
VERTEX
  8
0
  6
CONTINUOUS
 10
5.282640
 20
2.131360
  0
VERTEX
  8
0
  6
CONTINUOUS
 10
5.257120
 20
2.134000
  0
SEQEND
  8
0
  0
SOLID
  8
0
 62
     7
 10
5.257120
 20
1.411960
 11
5.903480
 21
1.787720
 12
5.257120
 22
1.388640
 13
5.903480
 23
1.764400
  0
POLYLINE
  8
0
  6
CONTINUOUS
 66
     1
 40
0.000000
 41
0.000000
  0
VERTEX
  8
0
  6
CONTINUOUS
 10
5.257120
 20
1.411960
  0
VERTEX
  8
0
  6
CONTINUOUS
 10
5.903480
 20
1.787720
  0
VERTEX
  8
0
  6
CONTINUOUS
 10
5.903480
 20
1.764400
  0
VERTEX
  8
0
  6
CONTINUOUS
 10
5.257120
 20
1.388640
  0
VERTEX
  8
0
  6
CONTINUOUS
 10
5.257120
 20
1.411960
  0
SEQEND
  8
0
  0
SOLID
  8
0
 62
    15
 10
5.306400
 20
2.123880
 11
5.952760
 21
2.499640
 12
5.327960
 22
2.112000
 13
5.973880
 23
2.488200
  0
POLYLINE
  8
0
  6
CONTINUOUS
 66
     1
 40
0.000000
 41
0.000000
  0
VERTEX
  8
0
  6
CONTINUOUS
 10
5.306400
 20
2.123880
  0
VERTEX
  8
0
  6
CONTINUOUS
 10
5.952760
 20
2.499640
  0
VERTEX
  8
0
  6
CONTINUOUS
 10
5.973880
 20
2.488200
  0
VERTEX
  8
0
  6
CONTINUOUS
 10
5.327960
 20
2.112000
  0
VERTEX
  8
0
  6
CONTINUOUS
 10
5.306400
 20
2.123880
  0
SEQEND
  8
0
  0
SOLID
  8
0
 62
     7
 10
5.327960
 20
2.112000
 11
5.973880
 21
2.488200
 12
5.346440
 22
2.096600
 13
5.992800
 23
2.472800
  0
POLYLINE
  8
0
  6
CONTINUOUS
 66
     1
 40
0.000000
 41
0.000000
  0
VERTEX
  8
0
  6
CONTINUOUS
 10
5.327960
 20
2.112000
  0
VERTEX
  8
0
  6
CONTINUOUS
 10
5.973880
 20
2.488200
  0
VERTEX
  8
0
  6
CONTINUOUS
 10
5.992800
 20
2.472800
  0
VERTEX
  8
0
  6
CONTINUOUS
 10
5.346440
 20
2.096600
  0
VERTEX
  8
0
  6
CONTINUOUS
 10
5.327960
 20
2.112000
  0
SEQEND
  8
0
  0
SOLID
  8
0
 62
     7
 10
5.346440
 20
2.096600
 11
5.992800
 21
2.472800
 12
5.361840
 22
2.078120
 13
6.008200
 23
2.453880
  0
POLYLINE
  8
0
  6
CONTINUOUS
 66
     1
 40
0.000000
 41
0.000000
  0
VERTEX
  8
0
  6
CONTINUOUS
 10
5.346440
 20
2.096600
  0
VERTEX
  8
0
  6
CONTINUOUS
 10
5.992800
 20
2.472800
  0
VERTEX
  8
0
  6
CONTINUOUS
 10
6.008200
 20
2.453880
  0
VERTEX
  8
0
  6
CONTINUOUS
 10
5.361840
 20
2.078120
  0
VERTEX
  8
0
  6
CONTINUOUS
 10
5.346440
 20
2.096600
  0
SEQEND
  8
0
  0
SOLID
  8
0
 62
     7
 10
5.361840
 20
2.078120
 11
6.008200
 21
2.453880
 12
5.373720
 22
2.056560
 13
6.020080
 23
2.432320
  0
POLYLINE
  8
0
  6
CONTINUOUS
 66
     1
 40
0.000000
 41
0.000000
  0
VERTEX
  8
0
  6
CONTINUOUS
 10
5.361840
 20
2.078120
  0
VERTEX
  8
0
  6
CONTINUOUS
 10
6.008200
 20
2.453880
  0
VERTEX
  8
0
  6
CONTINUOUS
 10
6.020080
 20
2.432320
  0
VERTEX
  8
0
  6
CONTINUOUS
 10
5.373720
 20
2.056560
  0
VERTEX
  8
0
  6
CONTINUOUS
 10
5.361840
 20
2.078120
  0
SEQEND
  8
0
  0
SOLID
  8
0
 62
     7
 10
5.373720
 20
2.056560
 11
6.020080
 21
2.432320
 12
5.381200
 22
2.032800
 13
6.027120
 23
2.408560
  0
POLYLINE
  8
0
  6
CONTINUOUS
 66
     1
 40
0.000000
 41
0.000000
  0
VERTEX
  8
0
  6
CONTINUOUS
 10
5.373720
 20
2.056560
  0
VERTEX
  8
0
  6
CONTINUOUS
 10
6.020080
 20
2.432320
  0
VERTEX
  8
0
  6
CONTINUOUS
 10
6.027120
 20
2.408560
  0
VERTEX
  8
0
  6
CONTINUOUS
 10
5.381200
 20
2.032800
  0
VERTEX
  8
0
  6
CONTINUOUS
 10
5.373720
 20
2.056560
  0
SEQEND
  8
0
  0
SOLID
  8
0
 62
     7
 10
5.381200
 20
2.032800
 11
6.027120
 21
2.408560
 12
5.383400
 22
2.007280
 13
6.029760
 23
2.383480
  0
POLYLINE
  8
0
  6
CONTINUOUS
 66
     1
 40
0.000000
 41
0.000000
  0
VERTEX
  8
0
  6
CONTINUOUS
 10
5.381200
 20
2.032800
  0
VERTEX
  8
0
  6
CONTINUOUS
 10
6.027120
 20
2.408560
  0
VERTEX
  8
0
  6
CONTINUOUS
 10
6.029760
 20
2.383480
  0
VERTEX
  8
0
  6
CONTINUOUS
 10
5.383400
 20
2.007280
  0
VERTEX
  8
0
  6
CONTINUOUS
 10
5.381200
 20
2.032800
  0
SEQEND
  8
0
  0
SOLID
  8
0
 62
     7
 10
5.383400
 20
2.007280
 11
6.029760
 21
2.383480
 12
5.381200
 22
1.981760
 13
6.027120
 23
2.357960
  0
POLYLINE
  8
0
  6
CONTINUOUS
 66
     1
 40
0.000000
 41
0.000000
  0
VERTEX
  8
0
  6
CONTINUOUS
 10
5.383400
 20
2.007280
  0
VERTEX
  8
0
  6
CONTINUOUS
 10
6.029760
 20
2.383480
  0
VERTEX
  8
0
  6
CONTINUOUS
 10
6.027120
 20
2.357960
  0
VERTEX
  8
0
  6
CONTINUOUS
 10
5.381200
 20
1.981760
  0
VERTEX
  8
0
  6
CONTINUOUS
 10
5.383400
 20
2.007280
  0
SEQEND
  8
0
  0
SOLID
  8
0
 62
    15
 10
5.381200
 20
1.981760
 11
6.027120
 21
2.357960
 12
5.373720
 22
1.958000
 13
6.020080
 23
2.334200
  0
POLYLINE
  8
0
  6
CONTINUOUS
 66
     1
 40
0.000000
 41
0.000000
  0
VERTEX
  8
0
  6
CONTINUOUS
 10
5.381200
 20
1.981760
  0
VERTEX
  8
0
  6
CONTINUOUS
 10
6.027120
 20
2.357960
  0
VERTEX
  8
0
  6
CONTINUOUS
 10
6.020080
 20
2.334200
  0
VERTEX
  8
0
  6
CONTINUOUS
 10
5.373720
 20
1.958000
  0
VERTEX
  8
0
  6
CONTINUOUS
 10
5.381200
 20
1.981760
  0
SEQEND
  8
0
  0
SOLID
  8
0
 62
     7
 10
5.257120
 20
1.881000
 11
5.903480
 21
2.256760
 12
5.257120
 22
1.857680
 13
5.903480
 23
2.233440
  0
POLYLINE
  8
0
  6
CONTINUOUS
 66
     1
 40
0.000000
 41
0.000000
  0
VERTEX
  8
0
  6
CONTINUOUS
 10
5.257120
 20
1.881000
  0
VERTEX
  8
0
  6
CONTINUOUS
 10
5.903480
 20
2.256760
  0
VERTEX
  8
0
  6
CONTINUOUS
 10
5.903480
 20
2.233440
  0
VERTEX
  8
0
  6
CONTINUOUS
 10
5.257120
 20
1.857680
  0
VERTEX
  8
0
  6
CONTINUOUS
 10
5.257120
 20
1.881000
  0
SEQEND
  8
0
  0
SOLID
  8
0
 62
    15
 10
5.361840
 20
1.936880
 11
6.008200
 21
2.312640
 12
5.346440
 22
1.917960
 13
5.992800
 23
2.293720
  0
POLYLINE
  8
0
  6
CONTINUOUS
 66
     1
 40
0.000000
 41
0.000000
  0
VERTEX
  8
0
  6
CONTINUOUS
 10
5.361840
 20
1.936880
  0
VERTEX
  8
0
  6
CONTINUOUS
 10
6.008200
 20
2.312640
  0
VERTEX
  8
0
  6
CONTINUOUS
 10
5.992800
 20
2.293720
  0
VERTEX
  8
0
  6
CONTINUOUS
 10
5.346440
 20
1.917960
  0
VERTEX
  8
0
  6
CONTINUOUS
 10
5.361840
 20
1.936880
  0
SEQEND
  8
0
  0
SOLID
  8
0
 62
    15
 10
5.346440
 20
1.917960
 11
5.992800
 21
2.293720
 12
5.327960
 22
1.902560
 13
5.973880
 23
2.278320
  0
POLYLINE
  8
0
  6
CONTINUOUS
 66
     1
 40
0.000000
 41
0.000000
  0
VERTEX
  8
0
  6
CONTINUOUS
 10
5.346440
 20
1.917960
  0
VERTEX
  8
0
  6
CONTINUOUS
 10
5.992800
 20
2.293720
  0
VERTEX
  8
0
  6
CONTINUOUS
 10
5.973880
 20
2.278320
  0
VERTEX
  8
0
  6
CONTINUOUS
 10
5.327960
 20
1.902560
  0
VERTEX
  8
0
  6
CONTINUOUS
 10
5.346440
 20
1.917960
  0
SEQEND
  8
0
  0
SOLID
  8
0
 62
    15
 10
5.373720
 20
1.958000
 11
6.020080
 21
2.334200
 12
5.361840
 22
1.936880
 13
6.008200
 23
2.312640
  0
POLYLINE
  8
0
  6
CONTINUOUS
 66
     1
 40
0.000000
 41
0.000000
  0
VERTEX
  8
0
  6
CONTINUOUS
 10
5.373720
 20
1.958000
  0
VERTEX
  8
0
  6
CONTINUOUS
 10
6.020080
 20
2.334200
  0
VERTEX
  8
0
  6
CONTINUOUS
 10
6.008200
 20
2.312640
  0
VERTEX
  8
0
  6
CONTINUOUS
 10
5.361840
 20
1.936880
  0
VERTEX
  8
0
  6
CONTINUOUS
 10
5.373720
 20
1.958000
  0
SEQEND
  8
0
  0
SOLID
  8
0
 62
    15
 10
5.257120
 20
1.857680
 11
5.903480
 21
2.233440
 12
5.382080
 22
1.824240
 13
6.028440
 23
2.200000
  0
POLYLINE
  8
0
  6
CONTINUOUS
 66
     1
 40
0.000000
 41
0.000000
  0
VERTEX
  8
0
  6
CONTINUOUS
 10
5.257120
 20
1.857680
  0
VERTEX
  8
0
  6
CONTINUOUS
 10
5.903480
 20
2.233440
  0
VERTEX
  8
0
  6
CONTINUOUS
 10
6.028440
 20
2.200000
  0
VERTEX
  8
0
  6
CONTINUOUS
 10
5.382080
 20
1.824240
  0
VERTEX
  8
0
  6
CONTINUOUS
 10
5.257120
 20
1.857680
  0
SEQEND
  8
0
  0
SOLID
  8
0
 62
     7
 10
5.382080
 20
1.824240
 11
6.028440
 21
2.200000
 12
5.382080
 22
1.448040
 13
6.028440
 23
1.823800
  0
POLYLINE
  8
0
  6
CONTINUOUS
 66
     1
 40
0.000000
 41
0.000000
  0
VERTEX
  8
0
  6
CONTINUOUS
 10
5.382080
 20
1.824240
  0
VERTEX
  8
0
  6
CONTINUOUS
 10
6.028440
 20
2.200000
  0
VERTEX
  8
0
  6
CONTINUOUS
 10
6.028440
 20
1.823800
  0
VERTEX
  8
0
  6
CONTINUOUS
 10
5.382080
 20
1.448040
  0
VERTEX
  8
0
  6
CONTINUOUS
 10
5.382080
 20
1.824240
  0
SEQEND
  8
0
  0
SOLID
  8
0
 62
     7
 10
5.382080
 20
1.448040
 11
6.028440
 21
1.823800
 12
5.382080
 22
1.445400
 13
6.028440
 23
1.821160
  0
POLYLINE
  8
0
  6
CONTINUOUS
 66
     1
 40
0.000000
 41
0.000000
  0
VERTEX
  8
0
  6
CONTINUOUS
 10
5.382080
 20
1.448040
  0
VERTEX
  8
0
  6
CONTINUOUS
 10
6.028440
 20
1.823800
  0
VERTEX
  8
0
  6
CONTINUOUS
 10
6.028440
 20
1.821160
  0
VERTEX
  8
0
  6
CONTINUOUS
 10
5.382080
 20
1.445400
  0
VERTEX
  8
0
  6
CONTINUOUS
 10
5.382080
 20
1.448040
  0
SEQEND
  8
0
  0
POLYLINE
  8
0
  6
CONTINUOUS
 66
     1
 40
0.000000
 41
0.000000
  0
VERTEX
  8
0
  6
CONTINUOUS
 10
5.382080
 20
1.445400
  0
VERTEX
  8
0
  6
CONTINUOUS
 10
5.257120
 20
1.411960
  0
VERTEX
  8
0
  6
CONTINUOUS
 10
5.257120
 20
1.388640
  0
VERTEX
  8
0
  6
CONTINUOUS
 10
5.282640
 20
1.386000
  0
VERTEX
  8
0
  6
CONTINUOUS
 10
5.306400
 20
1.378520
  0
VERTEX
  8
0
  6
CONTINUOUS
 10
5.327520
 20
1.367080
  0
VERTEX
  8
0
  6
CONTINUOUS
 10
5.346440
 20
1.351680
  0
VERTEX
  8
0
  6
CONTINUOUS
 10
5.361840
 20
1.332760
  0
VERTEX
  8
0
  6
CONTINUOUS
 10
5.373720
 20
1.311200
  0
VERTEX
  8
0
  6
CONTINUOUS
 10
5.380760
 20
1.287440
  0
VERTEX
  8
0
  6
CONTINUOUS
 10
5.383400
 20
1.261920
  0
VERTEX
  8
0
  6
CONTINUOUS
 10
5.380760
 20
1.236840
  0
VERTEX
  8
0
  6
CONTINUOUS
 10
5.373720
 20
1.213080
  0
VERTEX
  8
0
  6
CONTINUOUS
 10
5.361840
 20
1.191520
  0
VERTEX
  8
0
  6
CONTINUOUS
 10
5.346440
 20
1.172600
  0
VERTEX
  8
0
  6
CONTINUOUS
 10
5.327520
 20
1.157200
  0
VERTEX
  8
0
  6
CONTINUOUS
 10
5.306400
 20
1.145760
  0
VERTEX
  8
0
  6
CONTINUOUS
 10
5.282640
 20
1.138280
  0
VERTEX
  8
0
  6
CONTINUOUS
 10
5.257120
 20
1.135640
  0
VERTEX
  8
0
  6
CONTINUOUS
 10
4.338400
 20
1.135640
  0
VERTEX
  8
0
  6
CONTINUOUS
 10
4.338400
 20
2.134000
  0
VERTEX
  8
0
  6
CONTINUOUS
 10
5.257120
 20
2.134000
  0
VERTEX
  8
0
  6
CONTINUOUS
 10
5.282640
 20
2.131360
  0
VERTEX
  8
0
  6
CONTINUOUS
 10
5.306400
 20
2.123880
  0
VERTEX
  8
0
  6
CONTINUOUS
 10
5.327960
 20
2.112000
  0
VERTEX
  8
0
  6
CONTINUOUS
 10
5.346440
 20
2.096600
  0
VERTEX
  8
0
  6
CONTINUOUS
 10
5.361840
 20
2.078120
  0
VERTEX
  8
0
  6
CONTINUOUS
 10
5.373720
 20
2.056560
  0
VERTEX
  8
0
  6
CONTINUOUS
 10
5.381200
 20
2.032800
  0
VERTEX
  8
0
  6
CONTINUOUS
 10
5.383400
 20
2.007280
  0
VERTEX
  8
0
  6
CONTINUOUS
 10
5.381200
 20
1.981760
  0
VERTEX
  8
0
  6
CONTINUOUS
 10
5.373720
 20
1.958000
  0
VERTEX
  8
0
  6
CONTINUOUS
 10
5.361840
 20
1.936880
  0
VERTEX
  8
0
  6
CONTINUOUS
 10
5.346440
 20
1.917960
  0
VERTEX
  8
0
  6
CONTINUOUS
 10
5.327960
 20
1.902560
  0
VERTEX
  8
0
  6
CONTINUOUS
 10
5.306400
 20
1.890680
  0
VERTEX
  8
0
  6
CONTINUOUS
 10
5.282640
 20
1.883640
  0
VERTEX
  8
0
  6
CONTINUOUS
 10
5.257120
 20
1.881000
  0
VERTEX
  8
0
  6
CONTINUOUS
 10
5.257120
 20
1.857680
  0
VERTEX
  8
0
  6
CONTINUOUS
 10
5.382080
 20
1.824240
  0
VERTEX
  8
0
  6
CONTINUOUS
 10
5.382080
 20
1.448040
  0
VERTEX
  8
0
  6
CONTINUOUS
 10
5.382080
 20
1.445400
  0
SEQEND
  8
0
  0
TEXT
  8
0
 10
4.888840
 20
0.880000
 40
0.138163
  1
BA  931
 41
1.000000
  7
SN0
 71
     0
 72
     5
 11
5.479353
 21
0.880000
  0
TEXT
  8
0
 10
4.945600
 20
0.688600
 40
0.138163
  1
1" x 1"
 41
1.000000
  7
SN0
 71
     0
 72
     5
 11
5.422770
 21
0.688600
  0
ENDSEC
  0
EOF
