  0
SECTION
  2
HEADER
  9
$ACADVER
  1
AC1006
  9
$EXTMIN
 10
3.509440
 20
1.575200
  9
$EXTMAX
 10
6.034160
 20
3.165800
  9
$LTSCALE
 40
0.044000
  9
$PDMODE
 70
    35
  9
$PDSIZE
 40
0.035200
  0
ENDSEC
  0
SECTION
  2
TABLES
  0
TABLE
  2
LTYPE
 70
     9
  0
LTYPE
  2
CONTINUOUS
 70
    64
  3
Solid line
 72
    65
 73
     0
 40
0.000000
  0
LTYPE
  2
DASHED
 70
    64
  3
__ __ __ __ __ __ __ __ __ __ __ __ __ __ __
 72
    65
 73
     2
 40
0.000330
 49
0.000220
 49
-0.000110
  0
LTYPE
  2
HIDDEN
 70
    64
  3
 _ _ _ _ _ _ _ _ _ _ _ _ _ _ _ _ _ _ _ _ _ _
 72
    65
 73
     2
 40
0.000165
 49
0.000110
 49
-0.000055
  0
LTYPE
  2
CENTER
 70
    64
  3
____ _ ____ _ ____ _ ____ _ ____ _ ____ _ ____
 72
    65
 73
     4
 40
0.000880
 49
0.000550
 49
-0.000110
 49
0.000110
 49
-0.000110
  0
LTYPE
  2
PHANTOM
 70
    64
  3
_____ _ _ _____ _ _ _____ _ _ _____ _ _ ____
 72
    65
 73
     6
 40
0.001100
 49
0.000550
 49
-0.000110
 49
0.000110
 49
-0.000110
 49
0.000110
 49
-0.000110
  0
LTYPE
  2
DOT
 70
    64
  3
...............................................
 72
    65
 73
     2
 40
0.000110
 49
0.000000
 49
-0.000110
  0
LTYPE
  2
DASHDOT
 70
    64
  3
__ . __ . __ . __ . __ . __ . __ . __ . __ . __
 72
    65
 73
     4
 40
0.000440
 49
0.000220
 49
-0.000110
 49
0.000000
 49
-0.000110
  0
LTYPE
  2
BORDER
 70
    64
  3
__ __ . __ __ . __ __ . __ __ . __ __ . __ __
 72
    65
 73
     6
 40
0.000770
 49
0.000220
 49
-0.000110
 49
0.000220
 49
-0.000110
 49
0.000000
 49
-0.000110
  0
LTYPE
  2
DIVIDE
 70
    64
  3
__ . . __ . . __ . . __ . . __ . . __ . . __
 72
    65
 73
     6
 40
0.000550
 49
0.000220
 49
-0.000110
 49
0.000000
 49
-0.000110
 49
0.000000
 49
-0.000110
  0
LTYPE
  2
DOTDOT
 70
    64
  3
 . .  . .  . .  . .  . .  . . 
 72
    65
 73
     5
 40
0.000242
 49
-0.000110
 49
0.000000
 49
-0.000110
 49
0.000000
 49
-0.000110
  0
ENDTAB
  0
TABLE
  2
STYLE
 70
     2
  0
STYLE
 70
     0
  2
SN0
 40
0.000000
 41
0.000440
 50
0.000000
 71
     0
 42
0.000000
  3
ROMAND
  0
STYLE
 70
    68
  2
SV0
 40
0.000000
 41
0.000440
 50
0.000000
 71
     0
 42
0.000000
  3
ROMAND
  0
ENDTAB
  0
TABLE
  2
LAYER
 70
     3
  0
LAYER
  2
FOREGROUND
 70
    64
 62
     7
  6
CONTINUOUS
  0
LAYER
  2
BACKGROUND
 70
    65
 62
    -7
  6
CONTINUOUS
  0
LAYER
  2
0
 70
    64
 62
     7
  6
CONTINUOUS
  0
ENDTAB
  0
ENDSEC
  0
SECTION
  2
ENTITIES
  0
POLYLINE
  8
FOREGROUND
  6
CONTINUOUS
 66
     1
 40
0.000000
 41
0.000000
  0
VERTEX
  8
FOREGROUND
  6
CONTINUOUS
 10
0.000000
 20
4.741000
  0
VERTEX
  8
FOREGROUND
  6
CONTINUOUS
 10
8.499920
 20
4.741000
  0
VERTEX
  8
FOREGROUND
  6
CONTINUOUS
 10
8.499920
 20
-6.259000
  0
VERTEX
  8
FOREGROUND
  6
CONTINUOUS
 10
0.000000
 20
-6.259000
  0
VERTEX
  8
FOREGROUND
  6
CONTINUOUS
 10
0.000000
 20
4.741000
  0
SEQEND
  8
0
  0
POLYLINE
  8
FOREGROUND
  6
CONTINUOUS
 66
     1
 40
0.000000
 41
0.000000
  0
VERTEX
  8
FOREGROUND
  6
CONTINUOUS
 10
0.000000
 20
4.741000
  0
VERTEX
  8
FOREGROUND
  6
CONTINUOUS
 10
8.499920
 20
4.741000
  0
VERTEX
  8
FOREGROUND
  6
CONTINUOUS
 10
8.499920
 20
-6.259000
  0
VERTEX
  8
FOREGROUND
  6
CONTINUOUS
 10
0.000000
 20
-6.259000
  0
VERTEX
  8
FOREGROUND
  6
CONTINUOUS
 10
0.000000
 20
4.741000
  0
SEQEND
  8
0
  0
SOLID
  8
0
 62
    15
 10
3.842520
 20
2.313960
 11
4.481400
 21
2.694560
 12
3.817440
 22
2.272600
 13
4.456320
 23
2.653200
  0
POLYLINE
  8
0
  6
CONTINUOUS
 66
     1
 40
0.000000
 41
0.000000
  0
VERTEX
  8
0
  6
CONTINUOUS
 10
3.842520
 20
2.313960
  0
VERTEX
  8
0
  6
CONTINUOUS
 10
4.481400
 20
2.694560
  0
VERTEX
  8
0
  6
CONTINUOUS
 10
4.456320
 20
2.653200
  0
VERTEX
  8
0
  6
CONTINUOUS
 10
3.817440
 20
2.272600
  0
VERTEX
  8
0
  6
CONTINUOUS
 10
3.842520
 20
2.313960
  0
SEQEND
  8
0
  0
SOLID
  8
0
 62
    15
 10
4.018960
 20
2.473680
 11
4.657840
 21
2.854280
 12
3.977600
 22
2.449040
 13
4.616480
 23
2.829200
  0
POLYLINE
  8
0
  6
CONTINUOUS
 66
     1
 40
0.000000
 41
0.000000
  0
VERTEX
  8
0
  6
CONTINUOUS
 10
4.018960
 20
2.473680
  0
VERTEX
  8
0
  6
CONTINUOUS
 10
4.657840
 20
2.854280
  0
VERTEX
  8
0
  6
CONTINUOUS
 10
4.616480
 20
2.829200
  0
VERTEX
  8
0
  6
CONTINUOUS
 10
3.977600
 20
2.449040
  0
VERTEX
  8
0
  6
CONTINUOUS
 10
4.018960
 20
2.473680
  0
SEQEND
  8
0
  0
SOLID
  8
0
 62
    15
 10
3.977600
 20
2.449040
 11
4.616480
 21
2.829200
 12
3.939320
 22
2.420000
 13
4.578200
 23
2.800600
  0
POLYLINE
  8
0
  6
CONTINUOUS
 66
     1
 40
0.000000
 41
0.000000
  0
VERTEX
  8
0
  6
CONTINUOUS
 10
3.977600
 20
2.449040
  0
VERTEX
  8
0
  6
CONTINUOUS
 10
4.616480
 20
2.829200
  0
VERTEX
  8
0
  6
CONTINUOUS
 10
4.578200
 20
2.800600
  0
VERTEX
  8
0
  6
CONTINUOUS
 10
3.939320
 20
2.420000
  0
VERTEX
  8
0
  6
CONTINUOUS
 10
3.977600
 20
2.449040
  0
SEQEND
  8
0
  0
SOLID
  8
0
 62
    15
 10
3.939320
 20
2.420000
 11
4.578200
 21
2.800600
 12
3.903680
 22
2.387880
 13
4.542560
 23
2.768480
  0
POLYLINE
  8
0
  6
CONTINUOUS
 66
     1
 40
0.000000
 41
0.000000
  0
VERTEX
  8
0
  6
CONTINUOUS
 10
3.939320
 20
2.420000
  0
VERTEX
  8
0
  6
CONTINUOUS
 10
4.578200
 20
2.800600
  0
VERTEX
  8
0
  6
CONTINUOUS
 10
4.542560
 20
2.768480
  0
VERTEX
  8
0
  6
CONTINUOUS
 10
3.903680
 20
2.387880
  0
VERTEX
  8
0
  6
CONTINUOUS
 10
3.939320
 20
2.420000
  0
SEQEND
  8
0
  0
SOLID
  8
0
 62
    15
 10
3.903680
 20
2.387880
 11
4.542560
 21
2.768480
 12
3.871560
 22
2.352240
 13
4.510440
 23
2.732840
  0
POLYLINE
  8
0
  6
CONTINUOUS
 66
     1
 40
0.000000
 41
0.000000
  0
VERTEX
  8
0
  6
CONTINUOUS
 10
3.903680
 20
2.387880
  0
VERTEX
  8
0
  6
CONTINUOUS
 10
4.542560
 20
2.768480
  0
VERTEX
  8
0
  6
CONTINUOUS
 10
4.510440
 20
2.732840
  0
VERTEX
  8
0
  6
CONTINUOUS
 10
3.871560
 20
2.352240
  0
VERTEX
  8
0
  6
CONTINUOUS
 10
3.903680
 20
2.387880
  0
SEQEND
  8
0
  0
SOLID
  8
0
 62
    15
 10
3.871560
 20
2.352240
 11
4.510440
 21
2.732840
 12
3.842520
 22
2.313960
 13
4.481400
 23
2.694560
  0
POLYLINE
  8
0
  6
CONTINUOUS
 66
     1
 40
0.000000
 41
0.000000
  0
VERTEX
  8
0
  6
CONTINUOUS
 10
3.871560
 20
2.352240
  0
VERTEX
  8
0
  6
CONTINUOUS
 10
4.510440
 20
2.732840
  0
VERTEX
  8
0
  6
CONTINUOUS
 10
4.481400
 20
2.694560
  0
VERTEX
  8
0
  6
CONTINUOUS
 10
3.842520
 20
2.313960
  0
VERTEX
  8
0
  6
CONTINUOUS
 10
3.871560
 20
2.352240
  0
SEQEND
  8
0
  0
SOLID
  8
0
 62
    15
 10
3.817440
 20
2.272600
 11
4.456320
 21
2.653200
 12
3.796320
 22
2.229040
 13
4.435640
 23
2.609640
  0
POLYLINE
  8
0
  6
CONTINUOUS
 66
     1
 40
0.000000
 41
0.000000
  0
VERTEX
  8
0
  6
CONTINUOUS
 10
3.817440
 20
2.272600
  0
VERTEX
  8
0
  6
CONTINUOUS
 10
4.456320
 20
2.653200
  0
VERTEX
  8
0
  6
CONTINUOUS
 10
4.435640
 20
2.609640
  0
VERTEX
  8
0
  6
CONTINUOUS
 10
3.796320
 20
2.229040
  0
VERTEX
  8
0
  6
CONTINUOUS
 10
3.817440
 20
2.272600
  0
SEQEND
  8
0
  0
SOLID
  8
0
 62
    15
 10
3.509880
 20
2.779920
 11
4.148760
 21
3.160520
 12
4.257000
 22
2.779920
 13
4.895880
 23
3.160520
  0
POLYLINE
  8
0
  6
CONTINUOUS
 66
     1
 40
0.000000
 41
0.000000
  0
VERTEX
  8
0
  6
CONTINUOUS
 10
3.509880
 20
2.779920
  0
VERTEX
  8
0
  6
CONTINUOUS
 10
4.148760
 20
3.160520
  0
VERTEX
  8
0
  6
CONTINUOUS
 10
4.895880
 20
3.160520
  0
VERTEX
  8
0
  6
CONTINUOUS
 10
4.257000
 20
2.779920
  0
VERTEX
  8
0
  6
CONTINUOUS
 10
3.509880
 20
2.779920
  0
SEQEND
  8
0
  0
SOLID
  8
0
 62
    15
 10
4.257000
 20
2.779920
 11
4.895880
 21
3.160520
 12
4.257000
 22
2.534400
 13
4.895880
 23
2.914560
  0
POLYLINE
  8
0
  6
CONTINUOUS
 66
     1
 40
0.000000
 41
0.000000
  0
VERTEX
  8
0
  6
CONTINUOUS
 10
4.257000
 20
2.779920
  0
VERTEX
  8
0
  6
CONTINUOUS
 10
4.895880
 20
3.160520
  0
VERTEX
  8
0
  6
CONTINUOUS
 10
4.895880
 20
2.914560
  0
VERTEX
  8
0
  6
CONTINUOUS
 10
4.257000
 20
2.534400
  0
VERTEX
  8
0
  6
CONTINUOUS
 10
4.257000
 20
2.779920
  0
SEQEND
  8
0
  0
SOLID
  8
0
 62
    15
 10
3.796320
 20
2.229040
 11
4.435640
 21
2.609640
 12
3.779600
 22
2.182840
 13
4.418480
 23
2.563440
  0
POLYLINE
  8
0
  6
CONTINUOUS
 66
     1
 40
0.000000
 41
0.000000
  0
VERTEX
  8
0
  6
CONTINUOUS
 10
3.796320
 20
2.229040
  0
VERTEX
  8
0
  6
CONTINUOUS
 10
4.435640
 20
2.609640
  0
VERTEX
  8
0
  6
CONTINUOUS
 10
4.418480
 20
2.563440
  0
VERTEX
  8
0
  6
CONTINUOUS
 10
3.779600
 20
2.182840
  0
VERTEX
  8
0
  6
CONTINUOUS
 10
3.796320
 20
2.229040
  0
SEQEND
  8
0
  0
SOLID
  8
0
 62
    15
 10
3.779600
 20
2.182840
 11
4.418480
 21
2.563440
 12
3.767280
 22
2.134880
 13
4.406160
 23
2.515480
  0
POLYLINE
  8
0
  6
CONTINUOUS
 66
     1
 40
0.000000
 41
0.000000
  0
VERTEX
  8
0
  6
CONTINUOUS
 10
3.779600
 20
2.182840
  0
VERTEX
  8
0
  6
CONTINUOUS
 10
4.418480
 20
2.563440
  0
VERTEX
  8
0
  6
CONTINUOUS
 10
4.406160
 20
2.515480
  0
VERTEX
  8
0
  6
CONTINUOUS
 10
3.767280
 20
2.134880
  0
VERTEX
  8
0
  6
CONTINUOUS
 10
3.779600
 20
2.182840
  0
SEQEND
  8
0
  0
SOLID
  8
0
 62
    15
 10
3.767280
 20
2.134880
 11
4.406160
 21
2.515480
 12
3.759800
 22
2.085600
 13
4.398680
 23
2.465760
  0
POLYLINE
  8
0
  6
CONTINUOUS
 66
     1
 40
0.000000
 41
0.000000
  0
VERTEX
  8
0
  6
CONTINUOUS
 10
3.767280
 20
2.134880
  0
VERTEX
  8
0
  6
CONTINUOUS
 10
4.406160
 20
2.515480
  0
VERTEX
  8
0
  6
CONTINUOUS
 10
4.398680
 20
2.465760
  0
VERTEX
  8
0
  6
CONTINUOUS
 10
3.759800
 20
2.085600
  0
VERTEX
  8
0
  6
CONTINUOUS
 10
3.767280
 20
2.134880
  0
SEQEND
  8
0
  0
SOLID
  8
0
 62
    15
 10
3.759800
 20
2.085600
 11
4.398680
 21
2.465760
 12
3.757160
 22
2.034560
 13
4.396040
 23
2.414720
  0
POLYLINE
  8
0
  6
CONTINUOUS
 66
     1
 40
0.000000
 41
0.000000
  0
VERTEX
  8
0
  6
CONTINUOUS
 10
3.759800
 20
2.085600
  0
VERTEX
  8
0
  6
CONTINUOUS
 10
4.398680
 20
2.465760
  0
VERTEX
  8
0
  6
CONTINUOUS
 10
4.396040
 20
2.414720
  0
VERTEX
  8
0
  6
CONTINUOUS
 10
3.757160
 20
2.034560
  0
VERTEX
  8
0
  6
CONTINUOUS
 10
3.759800
 20
2.085600
  0
SEQEND
  8
0
  0
SOLID
  8
0
 62
    15
 10
3.757160
 20
2.034560
 11
4.396040
 21
2.414720
 12
3.757160
 22
2.032800
 13
4.396040
 23
2.413400
  0
POLYLINE
  8
0
  6
CONTINUOUS
 66
     1
 40
0.000000
 41
0.000000
  0
VERTEX
  8
0
  6
CONTINUOUS
 10
3.757160
 20
2.034560
  0
VERTEX
  8
0
  6
CONTINUOUS
 10
4.396040
 20
2.414720
  0
VERTEX
  8
0
  6
CONTINUOUS
 10
4.396040
 20
2.413400
  0
VERTEX
  8
0
  6
CONTINUOUS
 10
3.757160
 20
2.032800
  0
VERTEX
  8
0
  6
CONTINUOUS
 10
3.757160
 20
2.034560
  0
SEQEND
  8
0
  0
POLYLINE
  8
0
  6
CONTINUOUS
 66
     1
 40
0.000000
 41
0.000000
  0
VERTEX
  8
0
  6
CONTINUOUS
 10
3.757160
 20
2.032800
  0
VERTEX
  8
0
  6
CONTINUOUS
 10
3.509880
 20
2.032800
  0
VERTEX
  8
0
  6
CONTINUOUS
 10
3.509880
 20
2.779920
  0
VERTEX
  8
0
  6
CONTINUOUS
 10
4.257000
 20
2.779920
  0
VERTEX
  8
0
  6
CONTINUOUS
 10
4.257000
 20
2.534400
  0
VERTEX
  8
0
  6
CONTINUOUS
 10
4.205960
 20
2.531760
  0
VERTEX
  8
0
  6
CONTINUOUS
 10
4.156240
 20
2.524280
  0
VERTEX
  8
0
  6
CONTINUOUS
 10
4.108280
 20
2.511960
  0
VERTEX
  8
0
  6
CONTINUOUS
 10
4.062520
 20
2.494800
  0
VERTEX
  8
0
  6
CONTINUOUS
 10
4.018960
 20
2.473680
  0
VERTEX
  8
0
  6
CONTINUOUS
 10
3.977600
 20
2.449040
  0
VERTEX
  8
0
  6
CONTINUOUS
 10
3.939320
 20
2.420000
  0
VERTEX
  8
0
  6
CONTINUOUS
 10
3.903680
 20
2.387880
  0
VERTEX
  8
0
  6
CONTINUOUS
 10
3.871560
 20
2.352240
  0
VERTEX
  8
0
  6
CONTINUOUS
 10
3.842520
 20
2.313960
  0
VERTEX
  8
0
  6
CONTINUOUS
 10
3.817440
 20
2.272600
  0
VERTEX
  8
0
  6
CONTINUOUS
 10
3.796320
 20
2.229040
  0
VERTEX
  8
0
  6
CONTINUOUS
 10
3.779600
 20
2.182840
  0
VERTEX
  8
0
  6
CONTINUOUS
 10
3.767280
 20
2.134880
  0
VERTEX
  8
0
  6
CONTINUOUS
 10
3.759800
 20
2.085600
  0
VERTEX
  8
0
  6
CONTINUOUS
 10
3.757160
 20
2.034560
  0
VERTEX
  8
0
  6
CONTINUOUS
 10
3.757160
 20
2.032800
  0
SEQEND
  8
0
  0
TEXT
  8
0
 10
3.907640
 20
1.810160
 40
0.138055
  1
BA  930
 41
1.000000
  7
SN0
 71
     0
 72
     5
 11
4.497288
 21
1.810160
  0
TEXT
  8
0
 10
3.825800
 20
1.618760
 40
0.138055
  1
3/4" x 3/4"
 41
1.000000
  7
SN0
 71
     0
 72
     5
 11
4.578293
 21
1.618760
  0
POLYLINE
  8
0
  6
CONTINUOUS
 66
     1
 40
0.014080
 41
0.014080
  0
VERTEX
  8
0
  6
CONTINUOUS
 10
5.438840
 20
2.412520
  0
VERTEX
  8
0
  6
CONTINUOUS
 10
5.439280
 20
2.438040
  0
VERTEX
  8
0
  6
CONTINUOUS
 10
5.441480
 20
2.463560
  0
VERTEX
  8
0
  6
CONTINUOUS
 10
5.444560
 20
2.488640
  0
VERTEX
  8
0
  6
CONTINUOUS
 10
5.448960
 20
2.513280
  0
VERTEX
  8
0
  6
CONTINUOUS
 10
5.454680
 20
2.537480
  0
VERTEX
  8
0
  6
CONTINUOUS
 10
5.461280
 20
2.561240
  0
VERTEX
  8
0
  6
CONTINUOUS
 10
5.469200
 20
2.584120
  0
VERTEX
  8
0
  6
CONTINUOUS
 10
5.478000
 20
2.607000
  0
VERTEX
  8
0
  6
CONTINUOUS
 10
5.488120
 20
2.629000
  0
VERTEX
  8
0
  6
CONTINUOUS
 10
5.499120
 20
2.650560
  0
VERTEX
  8
0
  6
CONTINUOUS
 10
5.511000
 20
2.671680
  0
VERTEX
  8
0
  6
CONTINUOUS
 10
5.524200
 20
2.691920
  0
VERTEX
  8
0
  6
CONTINUOUS
 10
5.538280
 20
2.711720
  0
VERTEX
  8
0
  6
CONTINUOUS
 10
5.552800
 20
2.730200
  0
VERTEX
  8
0
  6
CONTINUOUS
 10
5.568640
 20
2.748680
  0
VERTEX
  8
0
  6
CONTINUOUS
 10
5.585360
 20
2.765840
  0
VERTEX
  8
0
  6
CONTINUOUS
 10
5.602520
 20
2.782560
  0
VERTEX
  8
0
  6
CONTINUOUS
 10
5.620560
 20
2.797960
  0
VERTEX
  8
0
  6
CONTINUOUS
 10
5.639480
 20
2.812920
  0
VERTEX
  8
0
  6
CONTINUOUS
 10
5.659280
 20
2.827000
  0
VERTEX
  8
0
  6
CONTINUOUS
 10
5.679520
 20
2.839760
  0
VERTEX
  8
0
  6
CONTINUOUS
 10
5.700200
 20
2.852080
  0
VERTEX
  8
0
  6
CONTINUOUS
 10
5.721760
 20
2.863080
  0
VERTEX
  8
0
  6
CONTINUOUS
 10
5.744200
 20
2.873200
  0
VERTEX
  8
0
  6
CONTINUOUS
 10
5.766640
 20
2.882000
  0
VERTEX
  8
0
  6
CONTINUOUS
 10
5.789960
 20
2.889920
  0
VERTEX
  8
0
  6
CONTINUOUS
 10
5.813720
 20
2.896520
  0
VERTEX
  8
0
  6
CONTINUOUS
 10
5.837920
 20
2.902240
  0
VERTEX
  8
0
  6
CONTINUOUS
 10
5.862560
 20
2.906640
  0
VERTEX
  8
0
  6
CONTINUOUS
 10
5.887640
 20
2.909720
  0
VERTEX
  8
0
  6
CONTINUOUS
 10
5.912720
 20
2.911920
  0
VERTEX
  8
0
  6
CONTINUOUS
 10
5.938680
 20
2.912360
  0
VERTEX
  8
0
  6
CONTINUOUS
 10
5.938680
 20
3.157880
  0
VERTEX
  8
0
  6
CONTINUOUS
 10
5.191560
 20
3.157880
  0
VERTEX
  8
0
  6
CONTINUOUS
 10
5.191560
 20
2.411200
  0
VERTEX
  8
0
  6
CONTINUOUS
 10
5.438840
 20
2.411200
  0
VERTEX
  8
0
  6
CONTINUOUS
 10
5.438840
 20
2.412520
  0
SEQEND
  8
0
  0
TEXT
  8
0
 10
5.426520
 20
2.200000
 40
0.138055
  1
930
 41
1.000000
  7
SN0
 71
     0
 72
     5
 11
5.703356
 21
2.200000
  0
TEXT
  8
0
 10
5.187600
 20
2.008160
 40
0.138055
  1
3/4" x 3/4"
 41
1.000000
  7
SN0
 71
     0
 72
     5
 11
5.940093
 21
2.008160
  0
ENDSEC
  0
EOF
