  0
SECTION
  2
HEADER
  9
$ACADVER
  1
AC1006
  9
$EXTMIN
 10
1.297120
 20
0.518320
  9
$EXTMAX
 10
8.015480
 20
2.806760
  9
$LTSCALE
 40
0.044000
  9
$PDMODE
 70
    35
  9
$PDSIZE
 40
0.035200
  0
ENDSEC
  0
SECTION
  2
TABLES
  0
TABLE
  2
LTYPE
 70
     9
  0
LTYPE
  2
CONTINUOUS
 70
    64
  3
Solid line
 72
    65
 73
     0
 40
0.000000
  0
LTYPE
  2
DASHED
 70
    64
  3
__ __ __ __ __ __ __ __ __ __ __ __ __ __ __
 72
    65
 73
     2
 40
0.000330
 49
0.000220
 49
-0.000110
  0
LTYPE
  2
HIDDEN
 70
    64
  3
 _ _ _ _ _ _ _ _ _ _ _ _ _ _ _ _ _ _ _ _ _ _
 72
    65
 73
     2
 40
0.000165
 49
0.000110
 49
-0.000055
  0
LTYPE
  2
CENTER
 70
    64
  3
____ _ ____ _ ____ _ ____ _ ____ _ ____ _ ____
 72
    65
 73
     4
 40
0.000880
 49
0.000550
 49
-0.000110
 49
0.000110
 49
-0.000110
  0
LTYPE
  2
PHANTOM
 70
    64
  3
_____ _ _ _____ _ _ _____ _ _ _____ _ _ ____
 72
    65
 73
     6
 40
0.001100
 49
0.000550
 49
-0.000110
 49
0.000110
 49
-0.000110
 49
0.000110
 49
-0.000110
  0
LTYPE
  2
DOT
 70
    64
  3
...............................................
 72
    65
 73
     2
 40
0.000110
 49
0.000000
 49
-0.000110
  0
LTYPE
  2
DASHDOT
 70
    64
  3
__ . __ . __ . __ . __ . __ . __ . __ . __ . __
 72
    65
 73
     4
 40
0.000440
 49
0.000220
 49
-0.000110
 49
0.000000
 49
-0.000110
  0
LTYPE
  2
BORDER
 70
    64
  3
__ __ . __ __ . __ __ . __ __ . __ __ . __ __
 72
    65
 73
     6
 40
0.000770
 49
0.000220
 49
-0.000110
 49
0.000220
 49
-0.000110
 49
0.000000
 49
-0.000110
  0
LTYPE
  2
DIVIDE
 70
    64
  3
__ . . __ . . __ . . __ . . __ . . __ . . __
 72
    65
 73
     6
 40
0.000550
 49
0.000220
 49
-0.000110
 49
0.000000
 49
-0.000110
 49
0.000000
 49
-0.000110
  0
LTYPE
  2
DOTDOT
 70
    64
  3
 . .  . .  . .  . .  . .  . . 
 72
    65
 73
     5
 40
0.000242
 49
-0.000110
 49
0.000000
 49
-0.000110
 49
0.000000
 49
-0.000110
  0
ENDTAB
  0
TABLE
  2
STYLE
 70
     2
  0
STYLE
 70
     0
  2
SN0
 40
0.000000
 41
0.000440
 50
0.000000
 71
     0
 42
0.000000
  3
ROMAND
  0
STYLE
 70
    68
  2
SV0
 40
0.000000
 41
0.000440
 50
0.000000
 71
     0
 42
0.000000
  3
ROMAND
  0
ENDTAB
  0
TABLE
  2
LAYER
 70
     3
  0
LAYER
  2
FOREGROUND
 70
    64
 62
     7
  6
CONTINUOUS
  0
LAYER
  2
BACKGROUND
 70
    65
 62
    -7
  6
CONTINUOUS
  0
LAYER
  2
0
 70
    64
 62
     7
  6
CONTINUOUS
  0
ENDTAB
  0
ENDSEC
  0
SECTION
  2
ENTITIES
  0
POLYLINE
  8
FOREGROUND
  6
CONTINUOUS
 66
     1
 40
0.000000
 41
0.000000
  0
VERTEX
  8
FOREGROUND
  6
CONTINUOUS
 10
0.000000
 20
3.325080
  0
VERTEX
  8
FOREGROUND
  6
CONTINUOUS
 10
8.499920
 20
3.325080
  0
VERTEX
  8
FOREGROUND
  6
CONTINUOUS
 10
8.499920
 20
-7.674920
  0
VERTEX
  8
FOREGROUND
  6
CONTINUOUS
 10
0.000000
 20
-7.674920
  0
VERTEX
  8
FOREGROUND
  6
CONTINUOUS
 10
0.000000
 20
3.325080
  0
SEQEND
  8
0
  0
POLYLINE
  8
FOREGROUND
  6
CONTINUOUS
 66
     1
 40
0.000000
 41
0.000000
  0
VERTEX
  8
FOREGROUND
  6
CONTINUOUS
 10
0.000000
 20
3.325080
  0
VERTEX
  8
FOREGROUND
  6
CONTINUOUS
 10
8.499920
 20
3.325080
  0
VERTEX
  8
FOREGROUND
  6
CONTINUOUS
 10
8.499920
 20
-7.674920
  0
VERTEX
  8
FOREGROUND
  6
CONTINUOUS
 10
0.000000
 20
-7.674920
  0
VERTEX
  8
FOREGROUND
  6
CONTINUOUS
 10
0.000000
 20
3.325080
  0
SEQEND
  8
0
  0
SOLID
  8
0
 62
    15
 10
4.165040
 20
2.436280
 11
4.812280
 21
2.059200
 12
1.797400
 22
0.936320
 13
2.444640
 23
0.559240
  0
POLYLINE
  8
0
  6
CONTINUOUS
 66
     1
 40
0.000000
 41
0.000000
  0
VERTEX
  8
0
  6
CONTINUOUS
 10
4.165040
 20
2.436280
  0
VERTEX
  8
0
  6
CONTINUOUS
 10
4.812280
 20
2.059200
  0
VERTEX
  8
0
  6
CONTINUOUS
 10
2.444640
 20
0.559240
  0
VERTEX
  8
0
  6
CONTINUOUS
 10
1.797400
 20
0.936320
  0
VERTEX
  8
0
  6
CONTINUOUS
 10
4.165040
 20
2.436280
  0
SEQEND
  8
0
  0
SOLID
  8
0
 62
    15
 10
1.797400
 20
0.936320
 11
2.444640
 21
0.559240
 12
1.298000
 22
0.936320
 13
1.945240
 23
0.559240
  0
POLYLINE
  8
0
  6
CONTINUOUS
 66
     1
 40
0.000000
 41
0.000000
  0
VERTEX
  8
0
  6
CONTINUOUS
 10
1.797400
 20
0.936320
  0
VERTEX
  8
0
  6
CONTINUOUS
 10
2.444640
 20
0.559240
  0
VERTEX
  8
0
  6
CONTINUOUS
 10
1.945240
 20
0.559240
  0
VERTEX
  8
0
  6
CONTINUOUS
 10
1.298000
 20
0.936320
  0
VERTEX
  8
0
  6
CONTINUOUS
 10
1.797400
 20
0.936320
  0
SEQEND
  8
0
  0
SOLID
  8
0
 62
    15
 10
4.165040
 20
2.806320
 11
4.812280
 21
2.428800
 12
4.165040
 22
2.436280
 13
4.812280
 23
2.059200
  0
POLYLINE
  8
0
  6
CONTINUOUS
 66
     1
 40
0.000000
 41
0.000000
  0
VERTEX
  8
0
  6
CONTINUOUS
 10
4.165040
 20
2.806320
  0
VERTEX
  8
0
  6
CONTINUOUS
 10
4.812280
 20
2.428800
  0
VERTEX
  8
0
  6
CONTINUOUS
 10
4.812280
 20
2.059200
  0
VERTEX
  8
0
  6
CONTINUOUS
 10
4.165040
 20
2.436280
  0
VERTEX
  8
0
  6
CONTINUOUS
 10
4.165040
 20
2.806320
  0
SEQEND
  8
0
  0
POLYLINE
  8
0
  6
CONTINUOUS
 66
     1
 40
0.000000
 41
0.000000
  0
VERTEX
  8
0
  6
CONTINUOUS
 10
3.348400
 20
2.806320
  0
VERTEX
  8
0
  6
CONTINUOUS
 10
4.165040
 20
2.806320
  0
VERTEX
  8
0
  6
CONTINUOUS
 10
4.165040
 20
2.436280
  0
VERTEX
  8
0
  6
CONTINUOUS
 10
1.797400
 20
0.936320
  0
VERTEX
  8
0
  6
CONTINUOUS
 10
1.298000
 20
0.936320
  0
VERTEX
  8
0
  6
CONTINUOUS
 10
1.298000
 20
1.514480
  0
VERTEX
  8
0
  6
CONTINUOUS
 10
3.348400
 20
2.806320
  0
SEQEND
  8
0
  0
TEXT
  8
0
 10
3.465440
 20
0.754160
 40
0.137955
  1
BA  929
 41
1.000000
  7
SN0
 71
     0
 72
     5
 11
4.054976
 21
0.754160
  0
TEXT
  8
0
 10
3.263480
 20
0.562760
 40
0.137955
  1
3/4" x 3-7/16"
 41
1.000000
  7
SN0
 71
     0
 72
     5
 11
4.255782
 21
0.562760
  0
POLYLINE
  8
0
  6
CONTINUOUS
 66
     1
 40
0.014080
 41
0.014080
  0
VERTEX
  8
0
  6
CONTINUOUS
 10
7.191800
 20
2.537920
  0
VERTEX
  8
0
  6
CONTINUOUS
 10
7.578560
 20
2.537920
  0
VERTEX
  8
0
  6
CONTINUOUS
 10
8.008440
 20
2.537920
  0
VERTEX
  8
0
  6
CONTINUOUS
 10
8.008440
 20
2.167880
  0
VERTEX
  8
0
  6
CONTINUOUS
 10
5.640800
 20
0.667920
  0
VERTEX
  8
0
  6
CONTINUOUS
 10
5.141400
 20
0.667920
  0
VERTEX
  8
0
  6
CONTINUOUS
 10
5.141400
 20
1.246080
  0
VERTEX
  8
0
  6
CONTINUOUS
 10
7.191800
 20
2.537920
  0
SEQEND
  8
0
  0
ENDSEC
  0
EOF
