  0
SECTION
  2
HEADER
  9
$ACADVER
  1
AC1006
  9
$EXTMIN
 10
0.788920
 20
0.691680
  9
$EXTMAX
 10
7.775680
 20
7.385840
  9
$LTSCALE
 40
0.044000
  9
$PDMODE
 70
    35
  9
$PDSIZE
 40
0.035200
  0
ENDSEC
  0
SECTION
  2
TABLES
  0
TABLE
  2
LTYPE
 70
     9
  0
LTYPE
  2
CONTINUOUS
 70
    64
  3
Solid line
 72
    65
 73
     0
 40
0.000000
  0
LTYPE
  2
DASHED
 70
    64
  3
__ __ __ __ __ __ __ __ __ __ __ __ __ __ __
 72
    65
 73
     2
 40
0.000330
 49
0.000220
 49
-0.000110
  0
LTYPE
  2
HIDDEN
 70
    64
  3
 _ _ _ _ _ _ _ _ _ _ _ _ _ _ _ _ _ _ _ _ _ _
 72
    65
 73
     2
 40
0.000165
 49
0.000110
 49
-0.000055
  0
LTYPE
  2
CENTER
 70
    64
  3
____ _ ____ _ ____ _ ____ _ ____ _ ____ _ ____
 72
    65
 73
     4
 40
0.000880
 49
0.000550
 49
-0.000110
 49
0.000110
 49
-0.000110
  0
LTYPE
  2
PHANTOM
 70
    64
  3
_____ _ _ _____ _ _ _____ _ _ _____ _ _ ____
 72
    65
 73
     6
 40
0.001100
 49
0.000550
 49
-0.000110
 49
0.000110
 49
-0.000110
 49
0.000110
 49
-0.000110
  0
LTYPE
  2
DOT
 70
    64
  3
...............................................
 72
    65
 73
     2
 40
0.000110
 49
0.000000
 49
-0.000110
  0
LTYPE
  2
DASHDOT
 70
    64
  3
__ . __ . __ . __ . __ . __ . __ . __ . __ . __
 72
    65
 73
     4
 40
0.000440
 49
0.000220
 49
-0.000110
 49
0.000000
 49
-0.000110
  0
LTYPE
  2
BORDER
 70
    64
  3
__ __ . __ __ . __ __ . __ __ . __ __ . __ __
 72
    65
 73
     6
 40
0.000770
 49
0.000220
 49
-0.000110
 49
0.000220
 49
-0.000110
 49
0.000000
 49
-0.000110
  0
LTYPE
  2
DIVIDE
 70
    64
  3
__ . . __ . . __ . . __ . . __ . . __ . . __
 72
    65
 73
     6
 40
0.000550
 49
0.000220
 49
-0.000110
 49
0.000000
 49
-0.000110
 49
0.000000
 49
-0.000110
  0
LTYPE
  2
DOTDOT
 70
    64
  3
 . .  . .  . .  . .  . .  . . 
 72
    65
 73
     5
 40
0.000242
 49
-0.000110
 49
0.000000
 49
-0.000110
 49
0.000000
 49
-0.000110
  0
ENDTAB
  0
TABLE
  2
STYLE
 70
     2
  0
STYLE
 70
     0
  2
SN0
 40
0.000000
 41
0.000440
 50
0.000000
 71
     0
 42
0.000000
  3
ROMAND
  0
STYLE
 70
    68
  2
SV0
 40
0.000000
 41
0.000440
 50
0.000000
 71
     0
 42
0.000000
  3
ROMAND
  0
ENDTAB
  0
TABLE
  2
LAYER
 70
     3
  0
LAYER
  2
FOREGROUND
 70
    64
 62
     7
  6
CONTINUOUS
  0
LAYER
  2
BACKGROUND
 70
    65
 62
    -7
  6
CONTINUOUS
  0
LAYER
  2
0
 70
    64
 62
     7
  6
CONTINUOUS
  0
ENDTAB
  0
ENDSEC
  0
SECTION
  2
ENTITIES
  0
POLYLINE
  8
FOREGROUND
  6
CONTINUOUS
 66
     1
 40
0.000000
 41
0.000000
  0
VERTEX
  8
FOREGROUND
  6
CONTINUOUS
 10
0.000000
 20
8.077520
  0
VERTEX
  8
FOREGROUND
  6
CONTINUOUS
 10
8.499920
 20
8.077520
  0
VERTEX
  8
FOREGROUND
  6
CONTINUOUS
 10
8.499920
 20
-2.922480
  0
VERTEX
  8
FOREGROUND
  6
CONTINUOUS
 10
0.000000
 20
-2.922480
  0
VERTEX
  8
FOREGROUND
  6
CONTINUOUS
 10
0.000000
 20
8.077520
  0
SEQEND
  8
0
  0
POLYLINE
  8
FOREGROUND
  6
CONTINUOUS
 66
     1
 40
0.000000
 41
0.000000
  0
VERTEX
  8
FOREGROUND
  6
CONTINUOUS
 10
0.000000
 20
8.077520
  0
VERTEX
  8
FOREGROUND
  6
CONTINUOUS
 10
8.499920
 20
8.077520
  0
VERTEX
  8
FOREGROUND
  6
CONTINUOUS
 10
8.499920
 20
-2.922480
  0
VERTEX
  8
FOREGROUND
  6
CONTINUOUS
 10
0.000000
 20
-2.922480
  0
VERTEX
  8
FOREGROUND
  6
CONTINUOUS
 10
0.000000
 20
8.077520
  0
SEQEND
  8
0
  0
TEXT
  8
0
 10
3.741320
 20
0.926200
 40
0.138023
  1
BA  928
 41
1.000000
  7
SN0
 71
     0
 72
     5
 11
4.330653
 21
0.926200
  0
TEXT
  8
0
 10
3.655080
 20
0.734800
 40
0.138023
  1
1-1/8" x 7"
 41
1.000000
  7
SN0
 71
     0
 72
     5
 11
4.416986
 21
0.734800
  0
SOLID
  8
0
 62
    15
 10
4.299240
 20
3.051400
 11
4.929320
 21
2.681800
 12
4.076160
 22
2.899160
 13
4.706240
 23
2.529120
  0
POLYLINE
  8
0
  6
CONTINUOUS
 66
     1
 40
0.000000
 41
0.000000
  0
VERTEX
  8
0
  6
CONTINUOUS
 10
4.299240
 20
3.051400
  0
VERTEX
  8
0
  6
CONTINUOUS
 10
4.929320
 20
2.681800
  0
VERTEX
  8
0
  6
CONTINUOUS
 10
4.706240
 20
2.529120
  0
VERTEX
  8
0
  6
CONTINUOUS
 10
4.076160
 20
2.899160
  0
VERTEX
  8
0
  6
CONTINUOUS
 10
4.299240
 20
3.051400
  0
SEQEND
  8
0
  0
SOLID
  8
0
 62
    15
 10
6.478120
 20
6.109840
 11
7.108640
 21
5.740240
 12
6.480760
 22
5.376800
 13
7.111280
 23
5.006760
  0
POLYLINE
  8
0
  6
CONTINUOUS
 66
     1
 40
0.000000
 41
0.000000
  0
VERTEX
  8
0
  6
CONTINUOUS
 10
6.478120
 20
6.109840
  0
VERTEX
  8
0
  6
CONTINUOUS
 10
7.108640
 20
5.740240
  0
VERTEX
  8
0
  6
CONTINUOUS
 10
7.111280
 20
5.006760
  0
VERTEX
  8
0
  6
CONTINUOUS
 10
6.480760
 20
5.376800
  0
VERTEX
  8
0
  6
CONTINUOUS
 10
6.478120
 20
6.109840
  0
SEQEND
  8
0
  0
SOLID
  8
0
 62
    15
 10
6.480760
 20
5.376800
 11
7.111280
 21
5.006760
 12
6.325000
 22
5.376360
 13
6.955080
 23
5.006320
  0
POLYLINE
  8
0
  6
CONTINUOUS
 66
     1
 40
0.000000
 41
0.000000
  0
VERTEX
  8
0
  6
CONTINUOUS
 10
6.480760
 20
5.376800
  0
VERTEX
  8
0
  6
CONTINUOUS
 10
7.111280
 20
5.006760
  0
VERTEX
  8
0
  6
CONTINUOUS
 10
6.955080
 20
5.006320
  0
VERTEX
  8
0
  6
CONTINUOUS
 10
6.325000
 20
5.376360
  0
VERTEX
  8
0
  6
CONTINUOUS
 10
6.480760
 20
5.376800
  0
SEQEND
  8
0
  0
SOLID
  8
0
 62
    15
 10
6.325000
 20
5.376360
 11
6.955080
 21
5.006320
 12
6.325880
 22
5.174400
 13
6.955960
 23
4.804800
  0
POLYLINE
  8
0
  6
CONTINUOUS
 66
     1
 40
0.000000
 41
0.000000
  0
VERTEX
  8
0
  6
CONTINUOUS
 10
6.325000
 20
5.376360
  0
VERTEX
  8
0
  6
CONTINUOUS
 10
6.955080
 20
5.006320
  0
VERTEX
  8
0
  6
CONTINUOUS
 10
6.955960
 20
4.804800
  0
VERTEX
  8
0
  6
CONTINUOUS
 10
6.325880
 20
5.174400
  0
VERTEX
  8
0
  6
CONTINUOUS
 10
6.325000
 20
5.376360
  0
SEQEND
  8
0
  0
SOLID
  8
0
 62
    15
 10
6.325880
 20
5.174400
 11
6.955960
 21
4.804800
 12
6.103680
 22
5.151960
 13
6.733760
 23
4.782360
  0
POLYLINE
  8
0
  6
CONTINUOUS
 66
     1
 40
0.000000
 41
0.000000
  0
VERTEX
  8
0
  6
CONTINUOUS
 10
6.325880
 20
5.174400
  0
VERTEX
  8
0
  6
CONTINUOUS
 10
6.955960
 20
4.804800
  0
VERTEX
  8
0
  6
CONTINUOUS
 10
6.733760
 20
4.782360
  0
VERTEX
  8
0
  6
CONTINUOUS
 10
6.103680
 20
5.151960
  0
VERTEX
  8
0
  6
CONTINUOUS
 10
6.325880
 20
5.174400
  0
SEQEND
  8
0
  0
SOLID
  8
0
 62
    15
 10
6.103680
 20
5.151960
 11
6.733760
 21
4.782360
 12
5.883680
 22
5.091680
 13
6.513760
 23
4.721640
  0
POLYLINE
  8
0
  6
CONTINUOUS
 66
     1
 40
0.000000
 41
0.000000
  0
VERTEX
  8
0
  6
CONTINUOUS
 10
6.103680
 20
5.151960
  0
VERTEX
  8
0
  6
CONTINUOUS
 10
6.733760
 20
4.782360
  0
VERTEX
  8
0
  6
CONTINUOUS
 10
6.513760
 20
4.721640
  0
VERTEX
  8
0
  6
CONTINUOUS
 10
5.883680
 20
5.091680
  0
VERTEX
  8
0
  6
CONTINUOUS
 10
6.103680
 20
5.151960
  0
SEQEND
  8
0
  0
SOLID
  8
0
 62
    15
 10
5.883680
 20
5.091680
 11
6.513760
 21
4.721640
 12
5.672920
 22
5.000160
 13
6.303000
 23
4.630560
  0
POLYLINE
  8
0
  6
CONTINUOUS
 66
     1
 40
0.000000
 41
0.000000
  0
VERTEX
  8
0
  6
CONTINUOUS
 10
5.883680
 20
5.091680
  0
VERTEX
  8
0
  6
CONTINUOUS
 10
6.513760
 20
4.721640
  0
VERTEX
  8
0
  6
CONTINUOUS
 10
6.303000
 20
4.630560
  0
VERTEX
  8
0
  6
CONTINUOUS
 10
5.672920
 20
5.000160
  0
VERTEX
  8
0
  6
CONTINUOUS
 10
5.883680
 20
5.091680
  0
SEQEND
  8
0
  0
SOLID
  8
0
 62
    15
 10
5.672920
 20
5.000160
 11
6.303000
 21
4.630560
 12
5.478440
 22
4.884880
 13
6.108520
 23
4.515280
  0
POLYLINE
  8
0
  6
CONTINUOUS
 66
     1
 40
0.000000
 41
0.000000
  0
VERTEX
  8
0
  6
CONTINUOUS
 10
5.672920
 20
5.000160
  0
VERTEX
  8
0
  6
CONTINUOUS
 10
6.303000
 20
4.630560
  0
VERTEX
  8
0
  6
CONTINUOUS
 10
6.108520
 20
4.515280
  0
VERTEX
  8
0
  6
CONTINUOUS
 10
5.478440
 20
4.884880
  0
VERTEX
  8
0
  6
CONTINUOUS
 10
5.672920
 20
5.000160
  0
SEQEND
  8
0
  0
SOLID
  8
0
 62
    15
 10
5.478440
 20
4.884880
 11
6.108520
 21
4.515280
 12
5.306840
 22
4.752440
 13
5.936920
 23
4.382840
  0
POLYLINE
  8
0
  6
CONTINUOUS
 66
     1
 40
0.000000
 41
0.000000
  0
VERTEX
  8
0
  6
CONTINUOUS
 10
5.478440
 20
4.884880
  0
VERTEX
  8
0
  6
CONTINUOUS
 10
6.108520
 20
4.515280
  0
VERTEX
  8
0
  6
CONTINUOUS
 10
5.936920
 20
4.382840
  0
VERTEX
  8
0
  6
CONTINUOUS
 10
5.306840
 20
4.752440
  0
VERTEX
  8
0
  6
CONTINUOUS
 10
5.478440
 20
4.884880
  0
SEQEND
  8
0
  0
SOLID
  8
0
 62
    15
 10
5.306840
 20
4.752440
 11
5.936920
 21
4.382840
 12
5.165160
 22
4.609440
 13
5.795240
 23
4.239840
  0
POLYLINE
  8
0
  6
CONTINUOUS
 66
     1
 40
0.000000
 41
0.000000
  0
VERTEX
  8
0
  6
CONTINUOUS
 10
5.306840
 20
4.752440
  0
VERTEX
  8
0
  6
CONTINUOUS
 10
5.936920
 20
4.382840
  0
VERTEX
  8
0
  6
CONTINUOUS
 10
5.795240
 20
4.239840
  0
VERTEX
  8
0
  6
CONTINUOUS
 10
5.165160
 20
4.609440
  0
VERTEX
  8
0
  6
CONTINUOUS
 10
5.306840
 20
4.752440
  0
SEQEND
  8
0
  0
SOLID
  8
0
 62
    15
 10
5.165160
 20
4.609440
 11
5.795240
 21
4.239840
 12
5.060440
 22
4.463360
 13
5.690520
 23
4.093320
  0
POLYLINE
  8
0
  6
CONTINUOUS
 66
     1
 40
0.000000
 41
0.000000
  0
VERTEX
  8
0
  6
CONTINUOUS
 10
5.165160
 20
4.609440
  0
VERTEX
  8
0
  6
CONTINUOUS
 10
5.795240
 20
4.239840
  0
VERTEX
  8
0
  6
CONTINUOUS
 10
5.690520
 20
4.093320
  0
VERTEX
  8
0
  6
CONTINUOUS
 10
5.060440
 20
4.463360
  0
VERTEX
  8
0
  6
CONTINUOUS
 10
5.165160
 20
4.609440
  0
SEQEND
  8
0
  0
SOLID
  8
0
 62
    15
 10
5.060440
 20
4.463360
 11
5.690520
 21
4.093320
 12
4.999720
 22
4.319920
 13
5.629800
 23
3.950320
  0
POLYLINE
  8
0
  6
CONTINUOUS
 66
     1
 40
0.000000
 41
0.000000
  0
VERTEX
  8
0
  6
CONTINUOUS
 10
5.060440
 20
4.463360
  0
VERTEX
  8
0
  6
CONTINUOUS
 10
5.690520
 20
4.093320
  0
VERTEX
  8
0
  6
CONTINUOUS
 10
5.629800
 20
3.950320
  0
VERTEX
  8
0
  6
CONTINUOUS
 10
4.999720
 20
4.319920
  0
VERTEX
  8
0
  6
CONTINUOUS
 10
5.060440
 20
4.463360
  0
SEQEND
  8
0
  0
SOLID
  8
0
 62
    15
 10
4.999720
 20
4.319920
 11
5.629800
 21
3.950320
 12
4.987840
 22
4.275040
 13
5.618360
 23
3.905440
  0
POLYLINE
  8
0
  6
CONTINUOUS
 66
     1
 40
0.000000
 41
0.000000
  0
VERTEX
  8
0
  6
CONTINUOUS
 10
4.999720
 20
4.319920
  0
VERTEX
  8
0
  6
CONTINUOUS
 10
5.629800
 20
3.950320
  0
VERTEX
  8
0
  6
CONTINUOUS
 10
5.618360
 20
3.905440
  0
VERTEX
  8
0
  6
CONTINUOUS
 10
4.987840
 20
4.275040
  0
VERTEX
  8
0
  6
CONTINUOUS
 10
4.999720
 20
4.319920
  0
SEQEND
  8
0
  0
SOLID
  8
0
 62
    15
 10
4.987840
 20
4.275040
 11
5.618360
 21
3.905440
 12
4.974640
 22
4.224880
 13
5.604720
 23
3.855280
  0
POLYLINE
  8
0
  6
CONTINUOUS
 66
     1
 40
0.000000
 41
0.000000
  0
VERTEX
  8
0
  6
CONTINUOUS
 10
4.987840
 20
4.275040
  0
VERTEX
  8
0
  6
CONTINUOUS
 10
5.618360
 20
3.905440
  0
VERTEX
  8
0
  6
CONTINUOUS
 10
5.604720
 20
3.855280
  0
VERTEX
  8
0
  6
CONTINUOUS
 10
4.974640
 20
4.224880
  0
VERTEX
  8
0
  6
CONTINUOUS
 10
4.987840
 20
4.275040
  0
SEQEND
  8
0
  0
SOLID
  8
0
 62
    15
 10
4.974640
 20
4.224880
 11
5.604720
 21
3.855280
 12
4.941200
 22
4.109600
 13
5.571280
 23
3.740000
  0
POLYLINE
  8
0
  6
CONTINUOUS
 66
     1
 40
0.000000
 41
0.000000
  0
VERTEX
  8
0
  6
CONTINUOUS
 10
4.974640
 20
4.224880
  0
VERTEX
  8
0
  6
CONTINUOUS
 10
5.604720
 20
3.855280
  0
VERTEX
  8
0
  6
CONTINUOUS
 10
5.571280
 20
3.740000
  0
VERTEX
  8
0
  6
CONTINUOUS
 10
4.941200
 20
4.109600
  0
VERTEX
  8
0
  6
CONTINUOUS
 10
4.974640
 20
4.224880
  0
SEQEND
  8
0
  0
SOLID
  8
0
 62
    15
 10
4.941200
 20
4.109600
 11
5.571280
 21
3.740000
 12
4.844400
 22
3.835480
 13
5.474480
 23
3.465440
  0
POLYLINE
  8
0
  6
CONTINUOUS
 66
     1
 40
0.000000
 41
0.000000
  0
VERTEX
  8
0
  6
CONTINUOUS
 10
4.941200
 20
4.109600
  0
VERTEX
  8
0
  6
CONTINUOUS
 10
5.571280
 20
3.740000
  0
VERTEX
  8
0
  6
CONTINUOUS
 10
5.474480
 20
3.465440
  0
VERTEX
  8
0
  6
CONTINUOUS
 10
4.844400
 20
3.835480
  0
VERTEX
  8
0
  6
CONTINUOUS
 10
4.941200
 20
4.109600
  0
SEQEND
  8
0
  0
SOLID
  8
0
 62
    15
 10
4.844400
 20
3.835480
 11
5.474480
 21
3.465440
 12
4.695680
 22
3.531440
 13
5.325760
 23
3.161840
  0
POLYLINE
  8
0
  6
CONTINUOUS
 66
     1
 40
0.000000
 41
0.000000
  0
VERTEX
  8
0
  6
CONTINUOUS
 10
4.844400
 20
3.835480
  0
VERTEX
  8
0
  6
CONTINUOUS
 10
5.474480
 20
3.465440
  0
VERTEX
  8
0
  6
CONTINUOUS
 10
5.325760
 20
3.161840
  0
VERTEX
  8
0
  6
CONTINUOUS
 10
4.695680
 20
3.531440
  0
VERTEX
  8
0
  6
CONTINUOUS
 10
4.844400
 20
3.835480
  0
SEQEND
  8
0
  0
SOLID
  8
0
 62
    15
 10
4.695680
 20
3.531440
 11
5.325760
 21
3.161840
 12
4.482720
 22
3.232680
 13
5.112800
 23
2.863080
  0
POLYLINE
  8
0
  6
CONTINUOUS
 66
     1
 40
0.000000
 41
0.000000
  0
VERTEX
  8
0
  6
CONTINUOUS
 10
4.695680
 20
3.531440
  0
VERTEX
  8
0
  6
CONTINUOUS
 10
5.325760
 20
3.161840
  0
VERTEX
  8
0
  6
CONTINUOUS
 10
5.112800
 20
2.863080
  0
VERTEX
  8
0
  6
CONTINUOUS
 10
4.482720
 20
3.232680
  0
VERTEX
  8
0
  6
CONTINUOUS
 10
4.695680
 20
3.531440
  0
SEQEND
  8
0
  0
SOLID
  8
0
 62
    15
 10
4.482720
 20
3.232680
 11
5.112800
 21
2.863080
 12
4.299240
 22
3.051400
 13
4.929320
 23
2.681800
  0
POLYLINE
  8
0
  6
CONTINUOUS
 66
     1
 40
0.000000
 41
0.000000
  0
VERTEX
  8
0
  6
CONTINUOUS
 10
4.482720
 20
3.232680
  0
VERTEX
  8
0
  6
CONTINUOUS
 10
5.112800
 20
2.863080
  0
VERTEX
  8
0
  6
CONTINUOUS
 10
4.929320
 20
2.681800
  0
VERTEX
  8
0
  6
CONTINUOUS
 10
4.299240
 20
3.051400
  0
VERTEX
  8
0
  6
CONTINUOUS
 10
4.482720
 20
3.232680
  0
SEQEND
  8
0
  0
SOLID
  8
0
 62
    15
 10
6.481200
 20
6.112920
 11
7.111280
 21
5.743320
 12
6.478120
 22
6.109840
 13
7.108640
 23
5.740240
  0
POLYLINE
  8
0
  6
CONTINUOUS
 66
     1
 40
0.000000
 41
0.000000
  0
VERTEX
  8
0
  6
CONTINUOUS
 10
6.481200
 20
6.112920
  0
VERTEX
  8
0
  6
CONTINUOUS
 10
7.111280
 20
5.743320
  0
VERTEX
  8
0
  6
CONTINUOUS
 10
7.108640
 20
5.740240
  0
VERTEX
  8
0
  6
CONTINUOUS
 10
6.478120
 20
6.109840
  0
VERTEX
  8
0
  6
CONTINUOUS
 10
6.481200
 20
6.112920
  0
SEQEND
  8
0
  0
SOLID
  8
0
 62
    15
 10
4.076160
 20
2.899160
 11
4.706240
 21
2.529120
 12
3.801600
 22
2.789600
 13
4.432120
 23
2.420000
  0
POLYLINE
  8
0
  6
CONTINUOUS
 66
     1
 40
0.000000
 41
0.000000
  0
VERTEX
  8
0
  6
CONTINUOUS
 10
4.076160
 20
2.899160
  0
VERTEX
  8
0
  6
CONTINUOUS
 10
4.706240
 20
2.529120
  0
VERTEX
  8
0
  6
CONTINUOUS
 10
4.432120
 20
2.420000
  0
VERTEX
  8
0
  6
CONTINUOUS
 10
3.801600
 20
2.789600
  0
VERTEX
  8
0
  6
CONTINUOUS
 10
4.076160
 20
2.899160
  0
SEQEND
  8
0
  0
SOLID
  8
0
 62
    15
 10
3.801600
 20
2.789600
 11
4.432120
 21
2.420000
 12
3.465440
 22
2.738120
 13
4.095960
 23
2.368520
  0
POLYLINE
  8
0
  6
CONTINUOUS
 66
     1
 40
0.000000
 41
0.000000
  0
VERTEX
  8
0
  6
CONTINUOUS
 10
3.801600
 20
2.789600
  0
VERTEX
  8
0
  6
CONTINUOUS
 10
4.432120
 20
2.420000
  0
VERTEX
  8
0
  6
CONTINUOUS
 10
4.095960
 20
2.368520
  0
VERTEX
  8
0
  6
CONTINUOUS
 10
3.465440
 20
2.738120
  0
VERTEX
  8
0
  6
CONTINUOUS
 10
3.801600
 20
2.789600
  0
SEQEND
  8
0
  0
SOLID
  8
0
 62
    15
 10
3.465440
 20
2.738120
 11
4.095960
 21
2.368520
 12
3.466320
 22
2.573120
 13
4.096400
 23
2.203520
  0
POLYLINE
  8
0
  6
CONTINUOUS
 66
     1
 40
0.000000
 41
0.000000
  0
VERTEX
  8
0
  6
CONTINUOUS
 10
3.465440
 20
2.738120
  0
VERTEX
  8
0
  6
CONTINUOUS
 10
4.095960
 20
2.368520
  0
VERTEX
  8
0
  6
CONTINUOUS
 10
4.096400
 20
2.203520
  0
VERTEX
  8
0
  6
CONTINUOUS
 10
3.466320
 20
2.573120
  0
VERTEX
  8
0
  6
CONTINUOUS
 10
3.465440
 20
2.738120
  0
SEQEND
  8
0
  0
SOLID
  8
0
 62
    15
 10
3.466320
 20
2.573120
 11
4.096400
 21
2.203520
 12
3.287240
 22
2.572680
 13
3.917760
 23
2.202640
  0
POLYLINE
  8
0
  6
CONTINUOUS
 66
     1
 40
0.000000
 41
0.000000
  0
VERTEX
  8
0
  6
CONTINUOUS
 10
3.466320
 20
2.573120
  0
VERTEX
  8
0
  6
CONTINUOUS
 10
4.096400
 20
2.203520
  0
VERTEX
  8
0
  6
CONTINUOUS
 10
3.917760
 20
2.202640
  0
VERTEX
  8
0
  6
CONTINUOUS
 10
3.287240
 20
2.572680
  0
VERTEX
  8
0
  6
CONTINUOUS
 10
3.466320
 20
2.573120
  0
SEQEND
  8
0
  0
SOLID
  8
0
 62
    15
 10
3.287240
 20
2.572680
 11
3.917760
 21
2.202640
 12
3.285040
 22
2.368080
 13
3.915560
 23
1.998040
  0
POLYLINE
  8
0
  6
CONTINUOUS
 66
     1
 40
0.000000
 41
0.000000
  0
VERTEX
  8
0
  6
CONTINUOUS
 10
3.287240
 20
2.572680
  0
VERTEX
  8
0
  6
CONTINUOUS
 10
3.917760
 20
2.202640
  0
VERTEX
  8
0
  6
CONTINUOUS
 10
3.915560
 20
1.998040
  0
VERTEX
  8
0
  6
CONTINUOUS
 10
3.285040
 20
2.368080
  0
VERTEX
  8
0
  6
CONTINUOUS
 10
3.287240
 20
2.572680
  0
SEQEND
  8
0
  0
SOLID
  8
0
 62
    15
 10
3.285040
 20
2.368080
 11
3.915560
 21
1.998040
 12
3.253800
 22
2.163040
 13
3.883880
 23
1.793440
  0
POLYLINE
  8
0
  6
CONTINUOUS
 66
     1
 40
0.000000
 41
0.000000
  0
VERTEX
  8
0
  6
CONTINUOUS
 10
3.285040
 20
2.368080
  0
VERTEX
  8
0
  6
CONTINUOUS
 10
3.915560
 20
1.998040
  0
VERTEX
  8
0
  6
CONTINUOUS
 10
3.883880
 20
1.793440
  0
VERTEX
  8
0
  6
CONTINUOUS
 10
3.253800
 20
2.163040
  0
VERTEX
  8
0
  6
CONTINUOUS
 10
3.285040
 20
2.368080
  0
SEQEND
  8
0
  0
SOLID
  8
0
 62
    15
 10
3.253800
 20
2.163040
 11
3.883880
 21
1.793440
 12
3.154360
 22
1.965920
 13
3.784440
 23
1.596320
  0
POLYLINE
  8
0
  6
CONTINUOUS
 66
     1
 40
0.000000
 41
0.000000
  0
VERTEX
  8
0
  6
CONTINUOUS
 10
3.253800
 20
2.163040
  0
VERTEX
  8
0
  6
CONTINUOUS
 10
3.883880
 20
1.793440
  0
VERTEX
  8
0
  6
CONTINUOUS
 10
3.784440
 20
1.596320
  0
VERTEX
  8
0
  6
CONTINUOUS
 10
3.154360
 20
1.965920
  0
VERTEX
  8
0
  6
CONTINUOUS
 10
3.253800
 20
2.163040
  0
SEQEND
  8
0
  0
SOLID
  8
0
 62
    15
 10
3.154360
 20
1.965920
 11
3.784440
 21
1.596320
 12
3.067680
 22
1.872640
 13
3.697760
 23
1.503040
  0
POLYLINE
  8
0
  6
CONTINUOUS
 66
     1
 40
0.000000
 41
0.000000
  0
VERTEX
  8
0
  6
CONTINUOUS
 10
3.154360
 20
1.965920
  0
VERTEX
  8
0
  6
CONTINUOUS
 10
3.784440
 20
1.596320
  0
VERTEX
  8
0
  6
CONTINUOUS
 10
3.697760
 20
1.503040
  0
VERTEX
  8
0
  6
CONTINUOUS
 10
3.067680
 20
1.872640
  0
VERTEX
  8
0
  6
CONTINUOUS
 10
3.154360
 20
1.965920
  0
SEQEND
  8
0
  0
SOLID
  8
0
 62
    15
 10
3.067680
 20
1.872640
 11
3.697760
 21
1.503040
 12
2.949320
 22
1.784200
 13
3.579840
 23
1.414160
  0
POLYLINE
  8
0
  6
CONTINUOUS
 66
     1
 40
0.000000
 41
0.000000
  0
VERTEX
  8
0
  6
CONTINUOUS
 10
3.067680
 20
1.872640
  0
VERTEX
  8
0
  6
CONTINUOUS
 10
3.697760
 20
1.503040
  0
VERTEX
  8
0
  6
CONTINUOUS
 10
3.579840
 20
1.414160
  0
VERTEX
  8
0
  6
CONTINUOUS
 10
2.949320
 20
1.784200
  0
VERTEX
  8
0
  6
CONTINUOUS
 10
3.067680
 20
1.872640
  0
SEQEND
  8
0
  0
SOLID
  8
0
 62
    15
 10
2.949320
 20
1.784200
 11
3.579840
 21
1.414160
 12
2.832720
 22
1.699280
 13
3.463240
 23
1.329680
  0
POLYLINE
  8
0
  6
CONTINUOUS
 66
     1
 40
0.000000
 41
0.000000
  0
VERTEX
  8
0
  6
CONTINUOUS
 10
2.949320
 20
1.784200
  0
VERTEX
  8
0
  6
CONTINUOUS
 10
3.579840
 20
1.414160
  0
VERTEX
  8
0
  6
CONTINUOUS
 10
3.463240
 20
1.329680
  0
VERTEX
  8
0
  6
CONTINUOUS
 10
2.832720
 20
1.699280
  0
VERTEX
  8
0
  6
CONTINUOUS
 10
2.949320
 20
1.784200
  0
SEQEND
  8
0
  0
SOLID
  8
0
 62
    15
 10
2.832720
 20
1.699280
 11
3.463240
 21
1.329680
 12
2.750000
 22
1.617440
 13
3.380080
 23
1.247840
  0
POLYLINE
  8
0
  6
CONTINUOUS
 66
     1
 40
0.000000
 41
0.000000
  0
VERTEX
  8
0
  6
CONTINUOUS
 10
2.832720
 20
1.699280
  0
VERTEX
  8
0
  6
CONTINUOUS
 10
3.463240
 20
1.329680
  0
VERTEX
  8
0
  6
CONTINUOUS
 10
3.380080
 20
1.247840
  0
VERTEX
  8
0
  6
CONTINUOUS
 10
2.750000
 20
1.617440
  0
VERTEX
  8
0
  6
CONTINUOUS
 10
2.832720
 20
1.699280
  0
SEQEND
  8
0
  0
SOLID
  8
0
 62
    15
 10
2.750000
 20
1.617440
 11
3.380080
 21
1.247840
 12
2.695440
 22
1.540880
 13
3.325520
 23
1.170840
  0
POLYLINE
  8
0
  6
CONTINUOUS
 66
     1
 40
0.000000
 41
0.000000
  0
VERTEX
  8
0
  6
CONTINUOUS
 10
2.750000
 20
1.617440
  0
VERTEX
  8
0
  6
CONTINUOUS
 10
3.380080
 20
1.247840
  0
VERTEX
  8
0
  6
CONTINUOUS
 10
3.325520
 20
1.170840
  0
VERTEX
  8
0
  6
CONTINUOUS
 10
2.695440
 20
1.540880
  0
VERTEX
  8
0
  6
CONTINUOUS
 10
2.750000
 20
1.617440
  0
SEQEND
  8
0
  0
SOLID
  8
0
 62
    15
 10
2.695440
 20
1.540880
 11
3.325520
 21
1.170840
 12
2.663320
 22
1.470480
 13
3.293400
 23
1.100880
  0
POLYLINE
  8
0
  6
CONTINUOUS
 66
     1
 40
0.000000
 41
0.000000
  0
VERTEX
  8
0
  6
CONTINUOUS
 10
2.695440
 20
1.540880
  0
VERTEX
  8
0
  6
CONTINUOUS
 10
3.325520
 20
1.170840
  0
VERTEX
  8
0
  6
CONTINUOUS
 10
3.293400
 20
1.100880
  0
VERTEX
  8
0
  6
CONTINUOUS
 10
2.663320
 20
1.470480
  0
VERTEX
  8
0
  6
CONTINUOUS
 10
2.695440
 20
1.540880
  0
SEQEND
  8
0
  0
SOLID
  8
0
 62
    15
 10
2.663320
 20
1.470480
 11
3.293400
 21
1.100880
 12
2.643960
 22
1.357400
 13
3.274040
 23
0.987360
  0
POLYLINE
  8
0
  6
CONTINUOUS
 66
     1
 40
0.000000
 41
0.000000
  0
VERTEX
  8
0
  6
CONTINUOUS
 10
2.663320
 20
1.470480
  0
VERTEX
  8
0
  6
CONTINUOUS
 10
3.293400
 20
1.100880
  0
VERTEX
  8
0
  6
CONTINUOUS
 10
3.274040
 20
0.987360
  0
VERTEX
  8
0
  6
CONTINUOUS
 10
2.643960
 20
1.357400
  0
VERTEX
  8
0
  6
CONTINUOUS
 10
2.663320
 20
1.470480
  0
SEQEND
  8
0
  0
SOLID
  8
0
 62
    15
 10
2.643960
 20
1.357400
 11
3.274040
 21
0.987360
 12
2.647480
 22
1.291840
 13
3.278000
 23
0.922240
  0
POLYLINE
  8
0
  6
CONTINUOUS
 66
     1
 40
0.000000
 41
0.000000
  0
VERTEX
  8
0
  6
CONTINUOUS
 10
2.643960
 20
1.357400
  0
VERTEX
  8
0
  6
CONTINUOUS
 10
3.274040
 20
0.987360
  0
VERTEX
  8
0
  6
CONTINUOUS
 10
3.278000
 20
0.922240
  0
VERTEX
  8
0
  6
CONTINUOUS
 10
2.647480
 20
1.291840
  0
VERTEX
  8
0
  6
CONTINUOUS
 10
2.643960
 20
1.357400
  0
SEQEND
  8
0
  0
SOLID
  8
0
 62
    15
 10
2.647480
 20
1.291840
 11
3.278000
 21
0.922240
 12
2.460040
 22
1.291400
 13
3.090120
 23
0.921360
  0
POLYLINE
  8
0
  6
CONTINUOUS
 66
     1
 40
0.000000
 41
0.000000
  0
VERTEX
  8
0
  6
CONTINUOUS
 10
2.647480
 20
1.291840
  0
VERTEX
  8
0
  6
CONTINUOUS
 10
3.278000
 20
0.922240
  0
VERTEX
  8
0
  6
CONTINUOUS
 10
3.090120
 20
0.921360
  0
VERTEX
  8
0
  6
CONTINUOUS
 10
2.460040
 20
1.291400
  0
VERTEX
  8
0
  6
CONTINUOUS
 10
2.647480
 20
1.291840
  0
SEQEND
  8
0
  0
SOLID
  8
0
 62
    15
 10
2.460920
 20
1.099120
 11
3.091000
 21
0.729520
 12
1.650880
 22
1.096480
 13
2.280960
 23
0.726440
  0
POLYLINE
  8
0
  6
CONTINUOUS
 66
     1
 40
0.000000
 41
0.000000
  0
VERTEX
  8
0
  6
CONTINUOUS
 10
2.460920
 20
1.099120
  0
VERTEX
  8
0
  6
CONTINUOUS
 10
3.091000
 20
0.729520
  0
VERTEX
  8
0
  6
CONTINUOUS
 10
2.280960
 20
0.726440
  0
VERTEX
  8
0
  6
CONTINUOUS
 10
1.650880
 20
1.096480
  0
VERTEX
  8
0
  6
CONTINUOUS
 10
2.460920
 20
1.099120
  0
SEQEND
  8
0
  0
SOLID
  8
0
 62
    15
 10
2.460040
 20
1.291400
 11
3.090120
 21
0.921360
 12
2.460920
 22
1.099120
 13
3.091000
 23
0.729520
  0
POLYLINE
  8
0
  6
CONTINUOUS
 66
     1
 40
0.000000
 41
0.000000
  0
VERTEX
  8
0
  6
CONTINUOUS
 10
2.460040
 20
1.291400
  0
VERTEX
  8
0
  6
CONTINUOUS
 10
3.090120
 20
0.921360
  0
VERTEX
  8
0
  6
CONTINUOUS
 10
3.091000
 20
0.729520
  0
VERTEX
  8
0
  6
CONTINUOUS
 10
2.460920
 20
1.099120
  0
VERTEX
  8
0
  6
CONTINUOUS
 10
2.460040
 20
1.291400
  0
SEQEND
  8
0
  0
POLYLINE
  8
0
  6
CONTINUOUS
 66
     1
 40
0.000000
 41
0.000000
  0
VERTEX
  8
0
  6
CONTINUOUS
 10
1.656600
 20
1.844920
  0
VERTEX
  8
0
  6
CONTINUOUS
 10
5.623640
 20
6.054840
  0
VERTEX
  8
0
  6
CONTINUOUS
 10
5.679080
 20
6.110720
  0
VERTEX
  8
0
  6
CONTINUOUS
 10
6.481200
 20
6.112920
  0
VERTEX
  8
0
  6
CONTINUOUS
 10
6.478120
 20
6.109840
  0
VERTEX
  8
0
  6
CONTINUOUS
 10
6.480760
 20
5.376800
  0
VERTEX
  8
0
  6
CONTINUOUS
 10
6.325000
 20
5.376360
  0
VERTEX
  8
0
  6
CONTINUOUS
 10
6.325880
 20
5.174400
  0
VERTEX
  8
0
  6
CONTINUOUS
 10
6.103680
 20
5.151960
  0
VERTEX
  8
0
  6
CONTINUOUS
 10
5.883680
 20
5.091680
  0
VERTEX
  8
0
  6
CONTINUOUS
 10
5.672920
 20
5.000160
  0
VERTEX
  8
0
  6
CONTINUOUS
 10
5.478440
 20
4.884880
  0
VERTEX
  8
0
  6
CONTINUOUS
 10
5.306840
 20
4.752440
  0
VERTEX
  8
0
  6
CONTINUOUS
 10
5.165160
 20
4.609440
  0
VERTEX
  8
0
  6
CONTINUOUS
 10
5.060440
 20
4.463360
  0
VERTEX
  8
0
  6
CONTINUOUS
 10
4.999720
 20
4.319920
  0
VERTEX
  8
0
  6
CONTINUOUS
 10
4.987840
 20
4.275040
  0
VERTEX
  8
0
  6
CONTINUOUS
 10
4.974640
 20
4.224880
  0
VERTEX
  8
0
  6
CONTINUOUS
 10
4.941200
 20
4.109600
  0
VERTEX
  8
0
  6
CONTINUOUS
 10
4.844400
 20
3.835480
  0
VERTEX
  8
0
  6
CONTINUOUS
 10
4.695680
 20
3.531440
  0
VERTEX
  8
0
  6
CONTINUOUS
 10
4.482720
 20
3.232680
  0
VERTEX
  8
0
  6
CONTINUOUS
 10
4.299240
 20
3.051400
  0
VERTEX
  8
0
  6
CONTINUOUS
 10
4.076160
 20
2.899160
  0
VERTEX
  8
0
  6
CONTINUOUS
 10
3.801600
 20
2.789600
  0
VERTEX
  8
0
  6
CONTINUOUS
 10
3.465440
 20
2.738120
  0
VERTEX
  8
0
  6
CONTINUOUS
 10
3.466320
 20
2.573120
  0
VERTEX
  8
0
  6
CONTINUOUS
 10
3.287240
 20
2.572680
  0
VERTEX
  8
0
  6
CONTINUOUS
 10
3.285040
 20
2.368080
  0
VERTEX
  8
0
  6
CONTINUOUS
 10
3.253800
 20
2.163040
  0
VERTEX
  8
0
  6
CONTINUOUS
 10
3.154360
 20
1.965920
  0
VERTEX
  8
0
  6
CONTINUOUS
 10
3.067680
 20
1.872640
  0
VERTEX
  8
0
  6
CONTINUOUS
 10
2.949320
 20
1.784200
  0
VERTEX
  8
0
  6
CONTINUOUS
 10
2.832720
 20
1.699280
  0
VERTEX
  8
0
  6
CONTINUOUS
 10
2.750000
 20
1.617440
  0
VERTEX
  8
0
  6
CONTINUOUS
 10
2.695440
 20
1.540880
  0
VERTEX
  8
0
  6
CONTINUOUS
 10
2.663320
 20
1.470480
  0
VERTEX
  8
0
  6
CONTINUOUS
 10
2.643960
 20
1.357400
  0
VERTEX
  8
0
  6
CONTINUOUS
 10
2.647480
 20
1.291840
  0
VERTEX
  8
0
  6
CONTINUOUS
 10
2.460040
 20
1.291400
  0
VERTEX
  8
0
  6
CONTINUOUS
 10
2.460920
 20
1.099120
  0
VERTEX
  8
0
  6
CONTINUOUS
 10
1.650880
 20
1.096480
  0
VERTEX
  8
0
  6
CONTINUOUS
 10
1.648240
 20
1.837440
  0
VERTEX
  8
0
  6
CONTINUOUS
 10
1.656600
 20
1.844920
  0
SEQEND
  8
0
  0
POLYLINE
  8
0
  6
CONTINUOUS
 66
     1
 40
0.014080
 41
0.014080
  0
VERTEX
  8
0
  6
CONTINUOUS
 10
7.209840
 20
6.263840
  0
VERTEX
  8
0
  6
CONTINUOUS
 10
1.425160
 20
6.263840
  0
VERTEX
  8
0
  6
CONTINUOUS
 10
1.345960
 20
6.266040
  0
VERTEX
  8
0
  6
CONTINUOUS
 10
0.794640
 20
6.847720
  0
VERTEX
  8
0
  6
CONTINUOUS
 10
0.798600
 20
6.848160
  0
VERTEX
  8
0
  6
CONTINUOUS
 10
1.330560
 20
7.352840
  0
VERTEX
  8
0
  6
CONTINUOUS
 10
1.437920
 20
7.239760
  0
VERTEX
  8
0
  6
CONTINUOUS
 10
1.584000
 20
7.378360
  0
VERTEX
  8
0
  6
CONTINUOUS
 10
1.643840
 20
7.320280
  0
VERTEX
  8
0
  6
CONTINUOUS
 10
1.707640
 20
7.266160
  0
VERTEX
  8
0
  6
CONTINUOUS
 10
1.752960
 20
7.232280
  0
VERTEX
  8
0
  6
CONTINUOUS
 10
1.799600
 20
7.200160
  0
VERTEX
  8
0
  6
CONTINUOUS
 10
1.896840
 20
7.140760
  0
VERTEX
  8
0
  6
CONTINUOUS
 10
1.999360
 20
7.088400
  0
VERTEX
  8
0
  6
CONTINUOUS
 10
2.104960
 20
7.043080
  0
VERTEX
  8
0
  6
CONTINUOUS
 10
2.158640
 20
7.022840
  0
VERTEX
  8
0
  6
CONTINUOUS
 10
2.266880
 20
6.988080
  0
VERTEX
  8
0
  6
CONTINUOUS
 10
2.376000
 20
6.960360
  0
VERTEX
  8
0
  6
CONTINUOUS
 10
2.483800
 20
6.939680
  0
VERTEX
  8
0
  6
CONTINUOUS
 10
2.537480
 20
6.932200
  0
VERTEX
  8
0
  6
CONTINUOUS
 10
2.589840
 20
6.926480
  0
VERTEX
  8
0
  6
CONTINUOUS
 10
2.641760
 20
6.922520
  0
VERTEX
  8
0
  6
CONTINUOUS
 10
2.692800
 20
6.920320
  0
VERTEX
  8
0
  6
CONTINUOUS
 10
2.742520
 20
6.919880
  0
VERTEX
  8
0
  6
CONTINUOUS
 10
2.791360
 20
6.921200
  0
VERTEX
  8
0
  6
CONTINUOUS
 10
2.838440
 20
6.924720
  0
VERTEX
  8
0
  6
CONTINUOUS
 10
2.883760
 20
6.929560
  0
VERTEX
  8
0
  6
CONTINUOUS
 10
2.948880
 20
6.941000
  0
VERTEX
  8
0
  6
CONTINUOUS
 10
2.989800
 20
6.950680
  0
VERTEX
  8
0
  6
CONTINUOUS
 10
3.047440
 20
6.968720
  0
VERTEX
  8
0
  6
CONTINUOUS
 10
3.099360
 20
6.991160
  0
VERTEX
  8
0
  6
CONTINUOUS
 10
3.280200
 20
7.087080
  0
VERTEX
  8
0
  6
CONTINUOUS
 10
3.400760
 20
7.145160
  0
VERTEX
  8
0
  6
CONTINUOUS
 10
3.502400
 20
7.189600
  0
VERTEX
  8
0
  6
CONTINUOUS
 10
3.612400
 20
7.232720
  0
VERTEX
  8
0
  6
CONTINUOUS
 10
3.690280
 20
7.260000
  0
VERTEX
  8
0
  6
CONTINUOUS
 10
3.770800
 20
7.285520
  0
VERTEX
  8
0
  6
CONTINUOUS
 10
3.854840
 20
7.308400
  0
VERTEX
  8
0
  6
CONTINUOUS
 10
3.941080
 20
7.328640
  0
VERTEX
  8
0
  6
CONTINUOUS
 10
4.029960
 20
7.345360
  0
VERTEX
  8
0
  6
CONTINUOUS
 10
4.121040
 20
7.358120
  0
VERTEX
  8
0
  6
CONTINUOUS
 10
4.213880
 20
7.366480
  0
VERTEX
  8
0
  6
CONTINUOUS
 10
4.260960
 20
7.368680
  0
VERTEX
  8
0
  6
CONTINUOUS
 10
4.324760
 20
7.370000
  0
VERTEX
  8
0
  6
CONTINUOUS
 10
4.421120
 20
7.367800
  0
VERTEX
  8
0
  6
CONTINUOUS
 10
4.486240
 20
7.362960
  0
VERTEX
  8
0
  6
CONTINUOUS
 10
4.551800
 20
7.355480
  0
VERTEX
  8
0
  6
CONTINUOUS
 10
4.650360
 20
7.337880
  0
VERTEX
  8
0
  6
CONTINUOUS
 10
4.716800
 20
7.321600
  0
VERTEX
  8
0
  6
CONTINUOUS
 10
4.783240
 20
7.301800
  0
VERTEX
  8
0
  6
CONTINUOUS
 10
4.849680
 20
7.277600
  0
VERTEX
  8
0
  6
CONTINUOUS
 10
4.916560
 20
7.249000
  0
VERTEX
  8
0
  6
CONTINUOUS
 10
4.983440
 20
7.215560
  0
VERTEX
  8
0
  6
CONTINUOUS
 10
5.050760
 20
7.177280
  0
VERTEX
  8
0
  6
CONTINUOUS
 10
5.117640
 20
7.133280
  0
VERTEX
  8
0
  6
CONTINUOUS
 10
5.184960
 20
7.084440
  0
VERTEX
  8
0
  6
CONTINUOUS
 10
5.251840
 20
7.029000
  0
VERTEX
  8
0
  6
CONTINUOUS
 10
5.318720
 20
6.967840
  0
VERTEX
  8
0
  6
CONTINUOUS
 10
5.317400
 20
6.965640
  0
VERTEX
  8
0
  6
CONTINUOUS
 10
5.360080
 20
7.004800
  0
VERTEX
  8
0
  6
CONTINUOUS
 10
5.438400
 20
7.081360
  0
VERTEX
  8
0
  6
CONTINUOUS
 10
5.561600
 20
6.951560
  0
VERTEX
  8
0
  6
CONTINUOUS
 10
5.673360
 20
7.056280
  0
VERTEX
  8
0
  6
CONTINUOUS
 10
5.712080
 20
7.090600
  0
VERTEX
  8
0
  6
CONTINUOUS
 10
5.772360
 20
7.139000
  0
VERTEX
  8
0
  6
CONTINUOUS
 10
5.837040
 20
7.182560
  0
VERTEX
  8
0
  6
CONTINUOUS
 10
5.882800
 20
7.208080
  0
VERTEX
  8
0
  6
CONTINUOUS
 10
5.930760
 20
7.230080
  0
VERTEX
  8
0
  6
CONTINUOUS
 10
5.981800
 20
7.248560
  0
VERTEX
  8
0
  6
CONTINUOUS
 10
6.036360
 20
7.262200
  0
VERTEX
  8
0
  6
CONTINUOUS
 10
6.064520
 20
7.267480
  0
VERTEX
  8
0
  6
CONTINUOUS
 10
6.124360
 20
7.273200
  0
VERTEX
  8
0
  6
CONTINUOUS
 10
6.155600
 20
7.274520
  0
VERTEX
  8
0
  6
CONTINUOUS
 10
6.221600
 20
7.271880
  0
VERTEX
  8
0
  6
CONTINUOUS
 10
6.292000
 20
7.262640
  0
VERTEX
  8
0
  6
CONTINUOUS
 10
6.441600
 20
7.230080
  0
VERTEX
  8
0
  6
CONTINUOUS
 10
6.508920
 20
7.219960
  0
VERTEX
  8
0
  6
CONTINUOUS
 10
6.570080
 20
7.215120
  0
VERTEX
  8
0
  6
CONTINUOUS
 10
6.625080
 20
7.215560
  0
VERTEX
  8
0
  6
CONTINUOUS
 10
6.674360
 20
7.220400
  0
VERTEX
  8
0
  6
CONTINUOUS
 10
6.697240
 20
7.223920
  0
VERTEX
  8
0
  6
CONTINUOUS
 10
6.757520
 20
7.239760
  0
VERTEX
  8
0
  6
CONTINUOUS
 10
6.791840
 20
7.253400
  0
VERTEX
  8
0
  6
CONTINUOUS
 10
6.834520
 20
7.276280
  0
VERTEX
  8
0
  6
CONTINUOUS
 10
6.868840
 20
7.300920
  0
VERTEX
  8
0
  6
CONTINUOUS
 10
6.895240
 20
7.324680
  0
VERTEX
  8
0
  6
CONTINUOUS
 10
6.932200
 20
7.364280
  0
VERTEX
  8
0
  6
CONTINUOUS
 10
7.061560
 20
7.228320
  0
VERTEX
  8
0
  6
CONTINUOUS
 10
7.200600
 20
7.360760
  0
VERTEX
  8
0
  6
CONTINUOUS
 10
7.758080
 20
6.773360
  0
VERTEX
  8
0
  6
CONTINUOUS
 10
7.220400
 20
6.262960
  0
VERTEX
  8
0
  6
CONTINUOUS
 10
7.209840
 20
6.263840
  0
SEQEND
  8
0
  0
ENDSEC
  0
EOF
