  0
SECTION
  2
HEADER
  9
$ACADVER
  1
AC1006
  9
$EXTMIN
 10
2.781680
 20
0.321640
  9
$EXTMAX
 10
7.184320
 20
4.206400
  9
$LTSCALE
 40
0.044000
  9
$PDMODE
 70
    35
  9
$PDSIZE
 40
0.035200
  0
ENDSEC
  0
SECTION
  2
TABLES
  0
TABLE
  2
LTYPE
 70
     9
  0
LTYPE
  2
CONTINUOUS
 70
    64
  3
Solid line
 72
    65
 73
     0
 40
0.000000
  0
LTYPE
  2
DASHED
 70
    64
  3
__ __ __ __ __ __ __ __ __ __ __ __ __ __ __
 72
    65
 73
     2
 40
0.000330
 49
0.000220
 49
-0.000110
  0
LTYPE
  2
HIDDEN
 70
    64
  3
 _ _ _ _ _ _ _ _ _ _ _ _ _ _ _ _ _ _ _ _ _ _
 72
    65
 73
     2
 40
0.000165
 49
0.000110
 49
-0.000055
  0
LTYPE
  2
CENTER
 70
    64
  3
____ _ ____ _ ____ _ ____ _ ____ _ ____ _ ____
 72
    65
 73
     4
 40
0.000880
 49
0.000550
 49
-0.000110
 49
0.000110
 49
-0.000110
  0
LTYPE
  2
PHANTOM
 70
    64
  3
_____ _ _ _____ _ _ _____ _ _ _____ _ _ ____
 72
    65
 73
     6
 40
0.001100
 49
0.000550
 49
-0.000110
 49
0.000110
 49
-0.000110
 49
0.000110
 49
-0.000110
  0
LTYPE
  2
DOT
 70
    64
  3
...............................................
 72
    65
 73
     2
 40
0.000110
 49
0.000000
 49
-0.000110
  0
LTYPE
  2
DASHDOT
 70
    64
  3
__ . __ . __ . __ . __ . __ . __ . __ . __ . __
 72
    65
 73
     4
 40
0.000440
 49
0.000220
 49
-0.000110
 49
0.000000
 49
-0.000110
  0
LTYPE
  2
BORDER
 70
    64
  3
__ __ . __ __ . __ __ . __ __ . __ __ . __ __
 72
    65
 73
     6
 40
0.000770
 49
0.000220
 49
-0.000110
 49
0.000220
 49
-0.000110
 49
0.000000
 49
-0.000110
  0
LTYPE
  2
DIVIDE
 70
    64
  3
__ . . __ . . __ . . __ . . __ . . __ . . __
 72
    65
 73
     6
 40
0.000550
 49
0.000220
 49
-0.000110
 49
0.000000
 49
-0.000110
 49
0.000000
 49
-0.000110
  0
LTYPE
  2
DOTDOT
 70
    64
  3
 . .  . .  . .  . .  . .  . . 
 72
    65
 73
     5
 40
0.000242
 49
-0.000110
 49
0.000000
 49
-0.000110
 49
0.000000
 49
-0.000110
  0
ENDTAB
  0
TABLE
  2
STYLE
 70
     2
  0
STYLE
 70
     0
  2
SN0
 40
0.000000
 41
0.000440
 50
0.000000
 71
     0
 42
0.000000
  3
ROMAND
  0
STYLE
 70
    68
  2
SV0
 40
0.000000
 41
0.000440
 50
0.000000
 71
     0
 42
0.000000
  3
ROMAND
  0
ENDTAB
  0
TABLE
  2
LAYER
 70
     3
  0
LAYER
  2
FOREGROUND
 70
    64
 62
     7
  6
CONTINUOUS
  0
LAYER
  2
BACKGROUND
 70
    65
 62
    -7
  6
CONTINUOUS
  0
LAYER
  2
0
 70
    64
 62
     7
  6
CONTINUOUS
  0
ENDTAB
  0
ENDSEC
  0
SECTION
  2
ENTITIES
  0
POLYLINE
  8
FOREGROUND
  6
CONTINUOUS
 66
     1
 40
0.000000
 41
0.000000
  0
VERTEX
  8
FOREGROUND
  6
CONTINUOUS
 10
0.000000
 20
4.528040
  0
VERTEX
  8
FOREGROUND
  6
CONTINUOUS
 10
8.499920
 20
4.528040
  0
VERTEX
  8
FOREGROUND
  6
CONTINUOUS
 10
8.499920
 20
-6.471960
  0
VERTEX
  8
FOREGROUND
  6
CONTINUOUS
 10
0.000000
 20
-6.471960
  0
VERTEX
  8
FOREGROUND
  6
CONTINUOUS
 10
0.000000
 20
4.528040
  0
SEQEND
  8
0
  0
POLYLINE
  8
FOREGROUND
  6
CONTINUOUS
 66
     1
 40
0.000000
 41
0.000000
  0
VERTEX
  8
FOREGROUND
  6
CONTINUOUS
 10
0.000000
 20
4.528040
  0
VERTEX
  8
FOREGROUND
  6
CONTINUOUS
 10
8.499920
 20
4.528040
  0
VERTEX
  8
FOREGROUND
  6
CONTINUOUS
 10
8.499920
 20
-6.471960
  0
VERTEX
  8
FOREGROUND
  6
CONTINUOUS
 10
0.000000
 20
-6.471960
  0
VERTEX
  8
FOREGROUND
  6
CONTINUOUS
 10
0.000000
 20
4.528040
  0
SEQEND
  8
0
  0
POLYLINE
  8
0
  6
CONTINUOUS
 66
     1
 40
0.014080
 41
0.014080
  0
VERTEX
  8
0
  6
CONTINUOUS
 10
3.627360
 20
3.076920
  0
VERTEX
  8
0
  6
CONTINUOUS
 10
7.177280
 20
3.076920
  0
VERTEX
  8
0
  6
CONTINUOUS
 10
7.176840
 20
3.388000
  0
VERTEX
  8
0
  6
CONTINUOUS
 10
7.172000
 20
3.411760
  0
VERTEX
  8
0
  6
CONTINUOUS
 10
7.163200
 20
3.432000
  0
VERTEX
  8
0
  6
CONTINUOUS
 10
7.150880
 20
3.448720
  0
VERTEX
  8
0
  6
CONTINUOUS
 10
7.135920
 20
3.462360
  0
VERTEX
  8
0
  6
CONTINUOUS
 10
7.109080
 20
3.476440
  0
VERTEX
  8
0
  6
CONTINUOUS
 10
7.079600
 20
3.482600
  0
VERTEX
  8
0
  6
CONTINUOUS
 10
7.059800
 20
3.482600
  0
VERTEX
  8
0
  6
CONTINUOUS
 10
7.030320
 20
3.476440
  0
VERTEX
  8
0
  6
CONTINUOUS
 10
7.003480
 20
3.462360
  0
VERTEX
  8
0
  6
CONTINUOUS
 10
6.981920
 20
3.440800
  0
VERTEX
  8
0
  6
CONTINUOUS
 10
6.971360
 20
3.422320
  0
VERTEX
  8
0
  6
CONTINUOUS
 10
6.964320
 20
3.400320
  0
VERTEX
  8
0
  6
CONTINUOUS
 10
6.962120
 20
3.374800
  0
VERTEX
  8
0
  6
CONTINUOUS
 10
6.915040
 20
3.374800
  0
VERTEX
  8
0
  6
CONTINUOUS
 10
6.887760
 20
3.475560
  0
VERTEX
  8
0
  6
CONTINUOUS
 10
5.138760
 20
3.475560
  0
VERTEX
  8
0
  6
CONTINUOUS
 10
5.031840
 20
3.582480
  0
VERTEX
  8
0
  6
CONTINUOUS
 10
4.044920
 20
3.582480
  0
VERTEX
  8
0
  6
CONTINUOUS
 10
4.038320
 20
3.606680
  0
VERTEX
  8
0
  6
CONTINUOUS
 10
4.029080
 20
3.627800
  0
VERTEX
  8
0
  6
CONTINUOUS
 10
4.016760
 20
3.645840
  0
VERTEX
  8
0
  6
CONTINUOUS
 10
3.994320
 20
3.666520
  0
VERTEX
  8
0
  6
CONTINUOUS
 10
3.977600
 20
3.676200
  0
VERTEX
  8
0
  6
CONTINUOUS
 10
3.950760
 20
3.685000
  0
VERTEX
  8
0
  6
CONTINUOUS
 10
3.932280
 20
3.686320
  0
VERTEX
  8
0
  6
CONTINUOUS
 10
3.913800
 20
3.685000
  0
VERTEX
  8
0
  6
CONTINUOUS
 10
3.886960
 20
3.676200
  0
VERTEX
  8
0
  6
CONTINUOUS
 10
3.863640
 20
3.660360
  0
VERTEX
  8
0
  6
CONTINUOUS
 10
3.850000
 20
3.645840
  0
VERTEX
  8
0
  6
CONTINUOUS
 10
3.839000
 20
3.627800
  0
VERTEX
  8
0
  6
CONTINUOUS
 10
3.830640
 20
3.606680
  0
VERTEX
  8
0
  6
CONTINUOUS
 10
3.825800
 20
3.582480
  0
VERTEX
  8
0
  6
CONTINUOUS
 10
3.381840
 20
3.582480
  0
VERTEX
  8
0
  6
CONTINUOUS
 10
3.381840
 20
3.078240
  0
VERTEX
  8
0
  6
CONTINUOUS
 10
3.627360
 20
3.078240
  0
VERTEX
  8
0
  6
CONTINUOUS
 10
3.627360
 20
3.076920
  0
SEQEND
  8
0
  0
POLYLINE
  8
0
  6
CONTINUOUS
 66
     1
 40
0.014080
 41
0.014080
  0
VERTEX
  8
0
  6
CONTINUOUS
 10
2.825240
 20
4.198920
  0
VERTEX
  8
0
  6
CONTINUOUS
 10
3.271400
 20
4.198920
  0
VERTEX
  8
0
  6
CONTINUOUS
 10
3.271400
 20
4.083640
  0
VERTEX
  8
0
  6
CONTINUOUS
 10
3.294280
 20
4.083200
  0
VERTEX
  8
0
  6
CONTINUOUS
 10
3.317160
 20
4.081440
  0
VERTEX
  8
0
  6
CONTINUOUS
 10
3.340040
 20
4.078800
  0
VERTEX
  8
0
  6
CONTINUOUS
 10
3.362920
 20
4.074840
  0
VERTEX
  8
0
  6
CONTINUOUS
 10
3.385800
 20
4.070000
  0
VERTEX
  8
0
  6
CONTINUOUS
 10
3.408240
 20
4.063840
  0
VERTEX
  8
0
  6
CONTINUOUS
 10
3.431120
 20
4.056800
  0
VERTEX
  8
0
  6
CONTINUOUS
 10
3.453120
 20
4.048880
  0
VERTEX
  8
0
  6
CONTINUOUS
 10
3.475120
 20
4.039640
  0
VERTEX
  8
0
  6
CONTINUOUS
 10
3.497120
 20
4.029520
  0
VERTEX
  8
0
  6
CONTINUOUS
 10
3.518240
 20
4.018520
  0
VERTEX
  8
0
  6
CONTINUOUS
 10
3.539360
 20
4.006640
  0
VERTEX
  8
0
  6
CONTINUOUS
 10
3.559600
 20
3.993440
  0
VERTEX
  8
0
  6
CONTINUOUS
 10
3.579400
 20
3.979800
  0
VERTEX
  8
0
  6
CONTINUOUS
 10
3.598320
 20
3.964840
  0
VERTEX
  8
0
  6
CONTINUOUS
 10
3.617240
 20
3.949000
  0
VERTEX
  8
0
  6
CONTINUOUS
 10
3.634840
 20
3.932280
  0
VERTEX
  8
0
  6
CONTINUOUS
 10
3.652000
 20
3.914680
  0
VERTEX
  8
0
  6
CONTINUOUS
 10
3.668280
 20
3.895760
  0
VERTEX
  8
0
  6
CONTINUOUS
 10
3.683680
 20
3.876400
  0
VERTEX
  8
0
  6
CONTINUOUS
 10
3.698200
 20
3.856160
  0
VERTEX
  8
0
  6
CONTINUOUS
 10
3.711400
 20
3.835040
  0
VERTEX
  8
0
  6
CONTINUOUS
 10
3.724160
 20
3.813040
  0
VERTEX
  8
0
  6
CONTINUOUS
 10
3.735600
 20
3.790160
  0
VERTEX
  8
0
  6
CONTINUOUS
 10
3.745720
 20
3.766840
  0
VERTEX
  8
0
  6
CONTINUOUS
 10
3.754520
 20
3.742200
  0
VERTEX
  8
0
  6
CONTINUOUS
 10
3.762440
 20
3.717120
  0
VERTEX
  8
0
  6
CONTINUOUS
 10
3.769040
 20
3.691160
  0
VERTEX
  8
0
  6
CONTINUOUS
 10
3.774320
 20
3.664320
  0
VERTEX
  8
0
  6
CONTINUOUS
 10
3.777840
 20
3.637040
  0
VERTEX
  8
0
  6
CONTINUOUS
 10
3.780040
 20
3.608880
  0
VERTEX
  8
0
  6
CONTINUOUS
 10
3.780920
 20
3.579840
  0
VERTEX
  8
0
  6
CONTINUOUS
 10
3.380520
 20
3.579840
  0
VERTEX
  8
0
  6
CONTINUOUS
 10
3.380520
 20
3.078240
  0
VERTEX
  8
0
  6
CONTINUOUS
 10
2.819960
 20
3.078240
  0
VERTEX
  8
0
  6
CONTINUOUS
 10
2.819960
 20
4.198920
  0
VERTEX
  8
0
  6
CONTINUOUS
 10
2.825240
 20
4.198920
  0
SEQEND
  8
0
  0
SOLID
  8
0
 62
    15
 10
6.877640
 20
1.103520
 11
6.872800
 21
1.850200
 12
6.924720
 22
1.103520
 13
6.919880
 23
1.850200
  0
POLYLINE
  8
0
  6
CONTINUOUS
 66
     1
 40
0.000000
 41
0.000000
  0
VERTEX
  8
0
  6
CONTINUOUS
 10
6.877640
 20
1.103520
  0
VERTEX
  8
0
  6
CONTINUOUS
 10
6.872800
 20
1.850200
  0
VERTEX
  8
0
  6
CONTINUOUS
 10
6.919880
 20
1.850200
  0
VERTEX
  8
0
  6
CONTINUOUS
 10
6.924720
 20
1.103520
  0
VERTEX
  8
0
  6
CONTINUOUS
 10
6.877640
 20
1.103520
  0
SEQEND
  8
0
  0
SOLID
  8
0
 62
    15
 10
3.344440
 20
0.806960
 11
3.340040
 21
1.553640
 12
3.344440
 22
1.310760
 13
3.340040
 23
2.057880
  0
POLYLINE
  8
0
  6
CONTINUOUS
 66
     1
 40
0.000000
 41
0.000000
  0
VERTEX
  8
0
  6
CONTINUOUS
 10
3.344440
 20
0.806960
  0
VERTEX
  8
0
  6
CONTINUOUS
 10
3.340040
 20
1.553640
  0
VERTEX
  8
0
  6
CONTINUOUS
 10
3.340040
 20
2.057880
  0
VERTEX
  8
0
  6
CONTINUOUS
 10
3.344440
 20
1.310760
  0
VERTEX
  8
0
  6
CONTINUOUS
 10
3.344440
 20
0.806960
  0
SEQEND
  8
0
  0
SOLID
  8
0
 62
    15
 10
3.589960
 20
0.805200
 11
3.585120
 21
1.552320
 12
3.589960
 22
0.806960
 13
3.585120
 23
1.553640
  0
POLYLINE
  8
0
  6
CONTINUOUS
 66
     1
 40
0.000000
 41
0.000000
  0
VERTEX
  8
0
  6
CONTINUOUS
 10
3.589960
 20
0.805200
  0
VERTEX
  8
0
  6
CONTINUOUS
 10
3.585120
 20
1.552320
  0
VERTEX
  8
0
  6
CONTINUOUS
 10
3.585120
 20
1.553640
  0
VERTEX
  8
0
  6
CONTINUOUS
 10
3.589960
 20
0.806960
  0
VERTEX
  8
0
  6
CONTINUOUS
 10
3.589960
 20
0.805200
  0
SEQEND
  8
0
  0
SOLID
  8
0
 62
    15
 10
3.344440
 20
1.310760
 11
3.340040
 21
2.057880
 12
3.788400
 22
1.310760
 13
3.783560
 23
2.057880
  0
POLYLINE
  8
0
  6
CONTINUOUS
 66
     1
 40
0.000000
 41
0.000000
  0
VERTEX
  8
0
  6
CONTINUOUS
 10
3.344440
 20
1.310760
  0
VERTEX
  8
0
  6
CONTINUOUS
 10
3.340040
 20
2.057880
  0
VERTEX
  8
0
  6
CONTINUOUS
 10
3.783560
 20
2.057880
  0
VERTEX
  8
0
  6
CONTINUOUS
 10
3.788400
 20
1.310760
  0
VERTEX
  8
0
  6
CONTINUOUS
 10
3.344440
 20
1.310760
  0
SEQEND
  8
0
  0
SOLID
  8
0
 62
    15
 10
3.801600
 20
1.356520
 11
3.796760
 21
2.103640
 12
3.812600
 22
1.374560
 13
3.807760
 23
2.121240
  0
POLYLINE
  8
0
  6
CONTINUOUS
 66
     1
 40
0.000000
 41
0.000000
  0
VERTEX
  8
0
  6
CONTINUOUS
 10
3.801600
 20
1.356520
  0
VERTEX
  8
0
  6
CONTINUOUS
 10
3.796760
 20
2.103640
  0
VERTEX
  8
0
  6
CONTINUOUS
 10
3.807760
 20
2.121240
  0
VERTEX
  8
0
  6
CONTINUOUS
 10
3.812600
 20
1.374560
  0
VERTEX
  8
0
  6
CONTINUOUS
 10
3.801600
 20
1.356520
  0
SEQEND
  8
0
  0
SOLID
  8
0
 62
    15
 10
3.812600
 20
1.374560
 11
3.807760
 21
2.121240
 12
3.826240
 22
1.389080
 13
3.821400
 23
2.136200
  0
POLYLINE
  8
0
  6
CONTINUOUS
 66
     1
 40
0.000000
 41
0.000000
  0
VERTEX
  8
0
  6
CONTINUOUS
 10
3.812600
 20
1.374560
  0
VERTEX
  8
0
  6
CONTINUOUS
 10
3.807760
 20
2.121240
  0
VERTEX
  8
0
  6
CONTINUOUS
 10
3.821400
 20
2.136200
  0
VERTEX
  8
0
  6
CONTINUOUS
 10
3.826240
 20
1.389080
  0
VERTEX
  8
0
  6
CONTINUOUS
 10
3.812600
 20
1.374560
  0
SEQEND
  8
0
  0
SOLID
  8
0
 62
    15
 10
3.826240
 20
1.389080
 11
3.821400
 21
2.136200
 12
3.841200
 22
1.400520
 13
3.836800
 23
2.147640
  0
POLYLINE
  8
0
  6
CONTINUOUS
 66
     1
 40
0.000000
 41
0.000000
  0
VERTEX
  8
0
  6
CONTINUOUS
 10
3.826240
 20
1.389080
  0
VERTEX
  8
0
  6
CONTINUOUS
 10
3.821400
 20
2.136200
  0
VERTEX
  8
0
  6
CONTINUOUS
 10
3.836800
 20
2.147640
  0
VERTEX
  8
0
  6
CONTINUOUS
 10
3.841200
 20
1.400520
  0
VERTEX
  8
0
  6
CONTINUOUS
 10
3.826240
 20
1.389080
  0
SEQEND
  8
0
  0
SOLID
  8
0
 62
    15
 10
3.841200
 20
1.400520
 11
3.836800
 21
2.147640
 12
3.858360
 22
1.408440
 13
3.853520
 23
2.155560
  0
POLYLINE
  8
0
  6
CONTINUOUS
 66
     1
 40
0.000000
 41
0.000000
  0
VERTEX
  8
0
  6
CONTINUOUS
 10
3.841200
 20
1.400520
  0
VERTEX
  8
0
  6
CONTINUOUS
 10
3.836800
 20
2.147640
  0
VERTEX
  8
0
  6
CONTINUOUS
 10
3.853520
 20
2.155560
  0
VERTEX
  8
0
  6
CONTINUOUS
 10
3.858360
 20
1.408440
  0
VERTEX
  8
0
  6
CONTINUOUS
 10
3.841200
 20
1.400520
  0
SEQEND
  8
0
  0
SOLID
  8
0
 62
    15
 10
3.858360
 20
1.408440
 11
3.853520
 21
2.155560
 12
3.875960
 22
1.413720
 13
3.871120
 23
2.160400
  0
POLYLINE
  8
0
  6
CONTINUOUS
 66
     1
 40
0.000000
 41
0.000000
  0
VERTEX
  8
0
  6
CONTINUOUS
 10
3.858360
 20
1.408440
  0
VERTEX
  8
0
  6
CONTINUOUS
 10
3.853520
 20
2.155560
  0
VERTEX
  8
0
  6
CONTINUOUS
 10
3.871120
 20
2.160400
  0
VERTEX
  8
0
  6
CONTINUOUS
 10
3.875960
 20
1.413720
  0
VERTEX
  8
0
  6
CONTINUOUS
 10
3.858360
 20
1.408440
  0
SEQEND
  8
0
  0
SOLID
  8
0
 62
    15
 10
3.875960
 20
1.413720
 11
3.871120
 21
2.160400
 12
3.894440
 22
1.415040
 13
3.890040
 23
2.162160
  0
POLYLINE
  8
0
  6
CONTINUOUS
 66
     1
 40
0.000000
 41
0.000000
  0
VERTEX
  8
0
  6
CONTINUOUS
 10
3.875960
 20
1.413720
  0
VERTEX
  8
0
  6
CONTINUOUS
 10
3.871120
 20
2.160400
  0
VERTEX
  8
0
  6
CONTINUOUS
 10
3.890040
 20
2.162160
  0
VERTEX
  8
0
  6
CONTINUOUS
 10
3.894440
 20
1.415040
  0
VERTEX
  8
0
  6
CONTINUOUS
 10
3.875960
 20
1.413720
  0
SEQEND
  8
0
  0
SOLID
  8
0
 62
    15
 10
3.894440
 20
1.415040
 11
3.890040
 21
2.162160
 12
3.912920
 22
1.413720
 13
3.908520
 23
2.160400
  0
POLYLINE
  8
0
  6
CONTINUOUS
 66
     1
 40
0.000000
 41
0.000000
  0
VERTEX
  8
0
  6
CONTINUOUS
 10
3.894440
 20
1.415040
  0
VERTEX
  8
0
  6
CONTINUOUS
 10
3.890040
 20
2.162160
  0
VERTEX
  8
0
  6
CONTINUOUS
 10
3.908520
 20
2.160400
  0
VERTEX
  8
0
  6
CONTINUOUS
 10
3.912920
 20
1.413720
  0
VERTEX
  8
0
  6
CONTINUOUS
 10
3.894440
 20
1.415040
  0
SEQEND
  8
0
  0
SOLID
  8
0
 62
    15
 10
3.912920
 20
1.413720
 11
3.908520
 21
2.160400
 12
3.931400
 22
1.408880
 13
3.926560
 23
2.155560
  0
POLYLINE
  8
0
  6
CONTINUOUS
 66
     1
 40
0.000000
 41
0.000000
  0
VERTEX
  8
0
  6
CONTINUOUS
 10
3.912920
 20
1.413720
  0
VERTEX
  8
0
  6
CONTINUOUS
 10
3.908520
 20
2.160400
  0
VERTEX
  8
0
  6
CONTINUOUS
 10
3.926560
 20
2.155560
  0
VERTEX
  8
0
  6
CONTINUOUS
 10
3.931400
 20
1.408880
  0
VERTEX
  8
0
  6
CONTINUOUS
 10
3.912920
 20
1.413720
  0
SEQEND
  8
0
  0
SOLID
  8
0
 62
    15
 10
3.931400
 20
1.408880
 11
3.926560
 21
2.155560
 12
3.948560
 22
1.400520
 13
3.943720
 23
2.147640
  0
POLYLINE
  8
0
  6
CONTINUOUS
 66
     1
 40
0.000000
 41
0.000000
  0
VERTEX
  8
0
  6
CONTINUOUS
 10
3.931400
 20
1.408880
  0
VERTEX
  8
0
  6
CONTINUOUS
 10
3.926560
 20
2.155560
  0
VERTEX
  8
0
  6
CONTINUOUS
 10
3.943720
 20
2.147640
  0
VERTEX
  8
0
  6
CONTINUOUS
 10
3.948560
 20
1.400520
  0
VERTEX
  8
0
  6
CONTINUOUS
 10
3.931400
 20
1.408880
  0
SEQEND
  8
0
  0
SOLID
  8
0
 62
    15
 10
3.948560
 20
1.400520
 11
3.943720
 21
2.147640
 12
3.964840
 22
1.389080
 13
3.960000
 23
2.136200
  0
POLYLINE
  8
0
  6
CONTINUOUS
 66
     1
 40
0.000000
 41
0.000000
  0
VERTEX
  8
0
  6
CONTINUOUS
 10
3.948560
 20
1.400520
  0
VERTEX
  8
0
  6
CONTINUOUS
 10
3.943720
 20
2.147640
  0
VERTEX
  8
0
  6
CONTINUOUS
 10
3.960000
 20
2.136200
  0
VERTEX
  8
0
  6
CONTINUOUS
 10
3.964840
 20
1.389080
  0
VERTEX
  8
0
  6
CONTINUOUS
 10
3.948560
 20
1.400520
  0
SEQEND
  8
0
  0
SOLID
  8
0
 62
    15
 10
3.964840
 20
1.389080
 11
3.960000
 21
2.136200
 12
3.979360
 22
1.374560
 13
3.974520
 23
2.121680
  0
POLYLINE
  8
0
  6
CONTINUOUS
 66
     1
 40
0.000000
 41
0.000000
  0
VERTEX
  8
0
  6
CONTINUOUS
 10
3.964840
 20
1.389080
  0
VERTEX
  8
0
  6
CONTINUOUS
 10
3.960000
 20
2.136200
  0
VERTEX
  8
0
  6
CONTINUOUS
 10
3.974520
 20
2.121680
  0
VERTEX
  8
0
  6
CONTINUOUS
 10
3.979360
 20
1.374560
  0
VERTEX
  8
0
  6
CONTINUOUS
 10
3.964840
 20
1.389080
  0
SEQEND
  8
0
  0
SOLID
  8
0
 62
    15
 10
3.979360
 20
1.374560
 11
3.974520
 21
2.121680
 12
3.991240
 22
1.356520
 13
3.986840
 23
2.103640
  0
POLYLINE
  8
0
  6
CONTINUOUS
 66
     1
 40
0.000000
 41
0.000000
  0
VERTEX
  8
0
  6
CONTINUOUS
 10
3.979360
 20
1.374560
  0
VERTEX
  8
0
  6
CONTINUOUS
 10
3.974520
 20
2.121680
  0
VERTEX
  8
0
  6
CONTINUOUS
 10
3.986840
 20
2.103640
  0
VERTEX
  8
0
  6
CONTINUOUS
 10
3.991240
 20
1.356520
  0
VERTEX
  8
0
  6
CONTINUOUS
 10
3.979360
 20
1.374560
  0
SEQEND
  8
0
  0
SOLID
  8
0
 62
    15
 10
3.991240
 20
1.356520
 11
3.986840
 21
2.103640
 12
4.000920
 22
1.335400
 13
3.996080
 23
2.082520
  0
POLYLINE
  8
0
  6
CONTINUOUS
 66
     1
 40
0.000000
 41
0.000000
  0
VERTEX
  8
0
  6
CONTINUOUS
 10
3.991240
 20
1.356520
  0
VERTEX
  8
0
  6
CONTINUOUS
 10
3.986840
 20
2.103640
  0
VERTEX
  8
0
  6
CONTINUOUS
 10
3.996080
 20
2.082520
  0
VERTEX
  8
0
  6
CONTINUOUS
 10
4.000920
 20
1.335400
  0
VERTEX
  8
0
  6
CONTINUOUS
 10
3.991240
 20
1.356520
  0
SEQEND
  8
0
  0
SOLID
  8
0
 62
    15
 10
4.000920
 20
1.335400
 11
3.996080
 21
2.082520
 12
4.007520
 22
1.311200
 13
4.002680
 23
2.057880
  0
POLYLINE
  8
0
  6
CONTINUOUS
 66
     1
 40
0.000000
 41
0.000000
  0
VERTEX
  8
0
  6
CONTINUOUS
 10
4.000920
 20
1.335400
  0
VERTEX
  8
0
  6
CONTINUOUS
 10
3.996080
 20
2.082520
  0
VERTEX
  8
0
  6
CONTINUOUS
 10
4.002680
 20
2.057880
  0
VERTEX
  8
0
  6
CONTINUOUS
 10
4.007520
 20
1.311200
  0
VERTEX
  8
0
  6
CONTINUOUS
 10
4.000920
 20
1.335400
  0
SEQEND
  8
0
  0
SOLID
  8
0
 62
    15
 10
4.007520
 20
1.311200
 11
4.002680
 21
2.057880
 12
4.994440
 22
1.311200
 13
4.989600
 23
2.057880
  0
POLYLINE
  8
0
  6
CONTINUOUS
 66
     1
 40
0.000000
 41
0.000000
  0
VERTEX
  8
0
  6
CONTINUOUS
 10
4.007520
 20
1.311200
  0
VERTEX
  8
0
  6
CONTINUOUS
 10
4.002680
 20
2.057880
  0
VERTEX
  8
0
  6
CONTINUOUS
 10
4.989600
 20
2.057880
  0
VERTEX
  8
0
  6
CONTINUOUS
 10
4.994440
 20
1.311200
  0
VERTEX
  8
0
  6
CONTINUOUS
 10
4.007520
 20
1.311200
  0
SEQEND
  8
0
  0
SOLID
  8
0
 62
    15
 10
4.994440
 20
1.311200
 11
4.989600
 21
2.057880
 12
5.101360
 22
1.204280
 13
5.096520
 23
1.951400
  0
POLYLINE
  8
0
  6
CONTINUOUS
 66
     1
 40
0.000000
 41
0.000000
  0
VERTEX
  8
0
  6
CONTINUOUS
 10
4.994440
 20
1.311200
  0
VERTEX
  8
0
  6
CONTINUOUS
 10
4.989600
 20
2.057880
  0
VERTEX
  8
0
  6
CONTINUOUS
 10
5.096520
 20
1.951400
  0
VERTEX
  8
0
  6
CONTINUOUS
 10
5.101360
 20
1.204280
  0
VERTEX
  8
0
  6
CONTINUOUS
 10
4.994440
 20
1.311200
  0
SEQEND
  8
0
  0
SOLID
  8
0
 62
    15
 10
3.788400
 20
1.310760
 11
3.783560
 21
2.057880
 12
3.793240
 22
1.335400
 13
3.788400
 23
2.082080
  0
POLYLINE
  8
0
  6
CONTINUOUS
 66
     1
 40
0.000000
 41
0.000000
  0
VERTEX
  8
0
  6
CONTINUOUS
 10
3.788400
 20
1.310760
  0
VERTEX
  8
0
  6
CONTINUOUS
 10
3.783560
 20
2.057880
  0
VERTEX
  8
0
  6
CONTINUOUS
 10
3.788400
 20
2.082080
  0
VERTEX
  8
0
  6
CONTINUOUS
 10
3.793240
 20
1.335400
  0
VERTEX
  8
0
  6
CONTINUOUS
 10
3.788400
 20
1.310760
  0
SEQEND
  8
0
  0
SOLID
  8
0
 62
    15
 10
6.850360
 20
1.204280
 11
6.845520
 21
1.951400
 12
6.877640
 22
1.103520
 13
6.872800
 23
1.850200
  0
POLYLINE
  8
0
  6
CONTINUOUS
 66
     1
 40
0.000000
 41
0.000000
  0
VERTEX
  8
0
  6
CONTINUOUS
 10
6.850360
 20
1.204280
  0
VERTEX
  8
0
  6
CONTINUOUS
 10
6.845520
 20
1.951400
  0
VERTEX
  8
0
  6
CONTINUOUS
 10
6.872800
 20
1.850200
  0
VERTEX
  8
0
  6
CONTINUOUS
 10
6.877640
 20
1.103520
  0
VERTEX
  8
0
  6
CONTINUOUS
 10
6.850360
 20
1.204280
  0
SEQEND
  8
0
  0
SOLID
  8
0
 62
    15
 10
5.101360
 20
1.204280
 11
5.096520
 21
1.951400
 12
6.850360
 22
1.204280
 13
6.845520
 23
1.951400
  0
POLYLINE
  8
0
  6
CONTINUOUS
 66
     1
 40
0.000000
 41
0.000000
  0
VERTEX
  8
0
  6
CONTINUOUS
 10
5.101360
 20
1.204280
  0
VERTEX
  8
0
  6
CONTINUOUS
 10
5.096520
 20
1.951400
  0
VERTEX
  8
0
  6
CONTINUOUS
 10
6.845520
 20
1.951400
  0
VERTEX
  8
0
  6
CONTINUOUS
 10
6.850360
 20
1.204280
  0
VERTEX
  8
0
  6
CONTINUOUS
 10
5.101360
 20
1.204280
  0
SEQEND
  8
0
  0
SOLID
  8
0
 62
    15
 10
6.924720
 20
1.103520
 11
6.919880
 21
1.850200
 12
6.926920
 22
1.129040
 13
6.922080
 23
1.875720
  0
POLYLINE
  8
0
  6
CONTINUOUS
 66
     1
 40
0.000000
 41
0.000000
  0
VERTEX
  8
0
  6
CONTINUOUS
 10
6.924720
 20
1.103520
  0
VERTEX
  8
0
  6
CONTINUOUS
 10
6.919880
 20
1.850200
  0
VERTEX
  8
0
  6
CONTINUOUS
 10
6.922080
 20
1.875720
  0
VERTEX
  8
0
  6
CONTINUOUS
 10
6.926920
 20
1.129040
  0
VERTEX
  8
0
  6
CONTINUOUS
 10
6.924720
 20
1.103520
  0
SEQEND
  8
0
  0
SOLID
  8
0
 62
    15
 10
6.926920
 20
1.129040
 11
6.922080
 21
1.875720
 12
6.933960
 22
1.150600
 13
6.929120
 23
1.897720
  0
POLYLINE
  8
0
  6
CONTINUOUS
 66
     1
 40
0.000000
 41
0.000000
  0
VERTEX
  8
0
  6
CONTINUOUS
 10
6.926920
 20
1.129040
  0
VERTEX
  8
0
  6
CONTINUOUS
 10
6.922080
 20
1.875720
  0
VERTEX
  8
0
  6
CONTINUOUS
 10
6.929120
 20
1.897720
  0
VERTEX
  8
0
  6
CONTINUOUS
 10
6.933960
 20
1.150600
  0
VERTEX
  8
0
  6
CONTINUOUS
 10
6.926920
 20
1.129040
  0
SEQEND
  8
0
  0
SOLID
  8
0
 62
    15
 10
6.933960
 20
1.150600
 11
6.929120
 21
1.897720
 12
6.944520
 22
1.169520
 13
6.939680
 23
1.916200
  0
POLYLINE
  8
0
  6
CONTINUOUS
 66
     1
 40
0.000000
 41
0.000000
  0
VERTEX
  8
0
  6
CONTINUOUS
 10
6.933960
 20
1.150600
  0
VERTEX
  8
0
  6
CONTINUOUS
 10
6.929120
 20
1.897720
  0
VERTEX
  8
0
  6
CONTINUOUS
 10
6.939680
 20
1.916200
  0
VERTEX
  8
0
  6
CONTINUOUS
 10
6.944520
 20
1.169520
  0
VERTEX
  8
0
  6
CONTINUOUS
 10
6.933960
 20
1.150600
  0
SEQEND
  8
0
  0
SOLID
  8
0
 62
    15
 10
6.944520
 20
1.169520
 11
6.939680
 21
1.916200
 12
6.958160
 22
1.184480
 13
6.953320
 23
1.931600
  0
POLYLINE
  8
0
  6
CONTINUOUS
 66
     1
 40
0.000000
 41
0.000000
  0
VERTEX
  8
0
  6
CONTINUOUS
 10
6.944520
 20
1.169520
  0
VERTEX
  8
0
  6
CONTINUOUS
 10
6.939680
 20
1.916200
  0
VERTEX
  8
0
  6
CONTINUOUS
 10
6.953320
 20
1.931600
  0
VERTEX
  8
0
  6
CONTINUOUS
 10
6.958160
 20
1.184480
  0
VERTEX
  8
0
  6
CONTINUOUS
 10
6.944520
 20
1.169520
  0
SEQEND
  8
0
  0
SOLID
  8
0
 62
    15
 10
6.958160
 20
1.184480
 11
6.953320
 21
1.931600
 12
6.974440
 22
1.196360
 13
6.969600
 23
1.943480
  0
POLYLINE
  8
0
  6
CONTINUOUS
 66
     1
 40
0.000000
 41
0.000000
  0
VERTEX
  8
0
  6
CONTINUOUS
 10
6.958160
 20
1.184480
  0
VERTEX
  8
0
  6
CONTINUOUS
 10
6.953320
 20
1.931600
  0
VERTEX
  8
0
  6
CONTINUOUS
 10
6.969600
 20
1.943480
  0
VERTEX
  8
0
  6
CONTINUOUS
 10
6.974440
 20
1.196360
  0
VERTEX
  8
0
  6
CONTINUOUS
 10
6.958160
 20
1.184480
  0
SEQEND
  8
0
  0
SOLID
  8
0
 62
    15
 10
6.974440
 20
1.196360
 11
6.969600
 21
1.943480
 12
6.992480
 22
1.204720
 13
6.988080
 23
1.951840
  0
POLYLINE
  8
0
  6
CONTINUOUS
 66
     1
 40
0.000000
 41
0.000000
  0
VERTEX
  8
0
  6
CONTINUOUS
 10
6.974440
 20
1.196360
  0
VERTEX
  8
0
  6
CONTINUOUS
 10
6.969600
 20
1.943480
  0
VERTEX
  8
0
  6
CONTINUOUS
 10
6.988080
 20
1.951840
  0
VERTEX
  8
0
  6
CONTINUOUS
 10
6.992480
 20
1.204720
  0
VERTEX
  8
0
  6
CONTINUOUS
 10
6.974440
 20
1.196360
  0
SEQEND
  8
0
  0
SOLID
  8
0
 62
    15
 10
6.992480
 20
1.204720
 11
6.988080
 21
1.951840
 12
7.011840
 22
1.210000
 13
7.007440
 23
1.956680
  0
POLYLINE
  8
0
  6
CONTINUOUS
 66
     1
 40
0.000000
 41
0.000000
  0
VERTEX
  8
0
  6
CONTINUOUS
 10
6.992480
 20
1.204720
  0
VERTEX
  8
0
  6
CONTINUOUS
 10
6.988080
 20
1.951840
  0
VERTEX
  8
0
  6
CONTINUOUS
 10
7.007440
 20
1.956680
  0
VERTEX
  8
0
  6
CONTINUOUS
 10
7.011840
 20
1.210000
  0
VERTEX
  8
0
  6
CONTINUOUS
 10
6.992480
 20
1.204720
  0
SEQEND
  8
0
  0
SOLID
  8
0
 62
    15
 10
7.011840
 20
1.210000
 11
7.007440
 21
1.956680
 12
7.032080
 22
1.211320
 13
7.027240
 23
1.958440
  0
POLYLINE
  8
0
  6
CONTINUOUS
 66
     1
 40
0.000000
 41
0.000000
  0
VERTEX
  8
0
  6
CONTINUOUS
 10
7.011840
 20
1.210000
  0
VERTEX
  8
0
  6
CONTINUOUS
 10
7.007440
 20
1.956680
  0
VERTEX
  8
0
  6
CONTINUOUS
 10
7.027240
 20
1.958440
  0
VERTEX
  8
0
  6
CONTINUOUS
 10
7.032080
 20
1.211320
  0
VERTEX
  8
0
  6
CONTINUOUS
 10
7.011840
 20
1.210000
  0
SEQEND
  8
0
  0
SOLID
  8
0
 62
    15
 10
7.032080
 20
1.211320
 11
7.027240
 21
1.958440
 12
7.052320
 22
1.210000
 13
7.047480
 23
1.956680
  0
POLYLINE
  8
0
  6
CONTINUOUS
 66
     1
 40
0.000000
 41
0.000000
  0
VERTEX
  8
0
  6
CONTINUOUS
 10
7.032080
 20
1.211320
  0
VERTEX
  8
0
  6
CONTINUOUS
 10
7.027240
 20
1.958440
  0
VERTEX
  8
0
  6
CONTINUOUS
 10
7.047480
 20
1.956680
  0
VERTEX
  8
0
  6
CONTINUOUS
 10
7.052320
 20
1.210000
  0
VERTEX
  8
0
  6
CONTINUOUS
 10
7.032080
 20
1.211320
  0
SEQEND
  8
0
  0
SOLID
  8
0
 62
    15
 10
7.052320
 20
1.210000
 11
7.047480
 21
1.956680
 12
7.071680
 22
1.204720
 13
7.066840
 23
1.951840
  0
POLYLINE
  8
0
  6
CONTINUOUS
 66
     1
 40
0.000000
 41
0.000000
  0
VERTEX
  8
0
  6
CONTINUOUS
 10
7.052320
 20
1.210000
  0
VERTEX
  8
0
  6
CONTINUOUS
 10
7.047480
 20
1.956680
  0
VERTEX
  8
0
  6
CONTINUOUS
 10
7.066840
 20
1.951840
  0
VERTEX
  8
0
  6
CONTINUOUS
 10
7.071680
 20
1.204720
  0
VERTEX
  8
0
  6
CONTINUOUS
 10
7.052320
 20
1.210000
  0
SEQEND
  8
0
  0
SOLID
  8
0
 62
    15
 10
7.071680
 20
1.204720
 11
7.066840
 21
1.951840
 12
7.089720
 22
1.196360
 13
7.084880
 23
1.943480
  0
POLYLINE
  8
0
  6
CONTINUOUS
 66
     1
 40
0.000000
 41
0.000000
  0
VERTEX
  8
0
  6
CONTINUOUS
 10
7.071680
 20
1.204720
  0
VERTEX
  8
0
  6
CONTINUOUS
 10
7.066840
 20
1.951840
  0
VERTEX
  8
0
  6
CONTINUOUS
 10
7.084880
 20
1.943480
  0
VERTEX
  8
0
  6
CONTINUOUS
 10
7.089720
 20
1.196360
  0
VERTEX
  8
0
  6
CONTINUOUS
 10
7.071680
 20
1.204720
  0
SEQEND
  8
0
  0
SOLID
  8
0
 62
    15
 10
7.089720
 20
1.196360
 11
7.084880
 21
1.943480
 12
7.106000
 22
1.184480
 13
7.101160
 23
1.931600
  0
POLYLINE
  8
0
  6
CONTINUOUS
 66
     1
 40
0.000000
 41
0.000000
  0
VERTEX
  8
0
  6
CONTINUOUS
 10
7.089720
 20
1.196360
  0
VERTEX
  8
0
  6
CONTINUOUS
 10
7.084880
 20
1.943480
  0
VERTEX
  8
0
  6
CONTINUOUS
 10
7.101160
 20
1.931600
  0
VERTEX
  8
0
  6
CONTINUOUS
 10
7.106000
 20
1.184480
  0
VERTEX
  8
0
  6
CONTINUOUS
 10
7.089720
 20
1.196360
  0
SEQEND
  8
0
  0
SOLID
  8
0
 62
    15
 10
7.106000
 20
1.184480
 11
7.101160
 21
1.931600
 12
7.119640
 22
1.169520
 13
7.115240
 23
1.916200
  0
POLYLINE
  8
0
  6
CONTINUOUS
 66
     1
 40
0.000000
 41
0.000000
  0
VERTEX
  8
0
  6
CONTINUOUS
 10
7.106000
 20
1.184480
  0
VERTEX
  8
0
  6
CONTINUOUS
 10
7.101160
 20
1.931600
  0
VERTEX
  8
0
  6
CONTINUOUS
 10
7.115240
 20
1.916200
  0
VERTEX
  8
0
  6
CONTINUOUS
 10
7.119640
 20
1.169520
  0
VERTEX
  8
0
  6
CONTINUOUS
 10
7.106000
 20
1.184480
  0
SEQEND
  8
0
  0
SOLID
  8
0
 62
    15
 10
7.130640
 20
1.150600
 11
7.125800
 21
1.897720
 12
7.137240
 22
1.129040
 13
7.132400
 23
1.875720
  0
POLYLINE
  8
0
  6
CONTINUOUS
 66
     1
 40
0.000000
 41
0.000000
  0
VERTEX
  8
0
  6
CONTINUOUS
 10
7.130640
 20
1.150600
  0
VERTEX
  8
0
  6
CONTINUOUS
 10
7.125800
 20
1.897720
  0
VERTEX
  8
0
  6
CONTINUOUS
 10
7.132400
 20
1.875720
  0
VERTEX
  8
0
  6
CONTINUOUS
 10
7.137240
 20
1.129040
  0
VERTEX
  8
0
  6
CONTINUOUS
 10
7.130640
 20
1.150600
  0
SEQEND
  8
0
  0
SOLID
  8
0
 62
    15
 10
7.119640
 20
1.169520
 11
7.115240
 21
1.916200
 12
7.130640
 22
1.150600
 13
7.125800
 23
1.897720
  0
POLYLINE
  8
0
  6
CONTINUOUS
 66
     1
 40
0.000000
 41
0.000000
  0
VERTEX
  8
0
  6
CONTINUOUS
 10
7.119640
 20
1.169520
  0
VERTEX
  8
0
  6
CONTINUOUS
 10
7.115240
 20
1.916200
  0
VERTEX
  8
0
  6
CONTINUOUS
 10
7.125800
 20
1.897720
  0
VERTEX
  8
0
  6
CONTINUOUS
 10
7.130640
 20
1.150600
  0
VERTEX
  8
0
  6
CONTINUOUS
 10
7.119640
 20
1.169520
  0
SEQEND
  8
0
  0
SOLID
  8
0
 62
    15
 10
7.137240
 20
1.129040
 11
7.132400
 21
1.875720
 12
7.139880
 22
1.103520
 13
7.135040
 23
1.850200
  0
POLYLINE
  8
0
  6
CONTINUOUS
 66
     1
 40
0.000000
 41
0.000000
  0
VERTEX
  8
0
  6
CONTINUOUS
 10
7.137240
 20
1.129040
  0
VERTEX
  8
0
  6
CONTINUOUS
 10
7.132400
 20
1.875720
  0
VERTEX
  8
0
  6
CONTINUOUS
 10
7.135040
 20
1.850200
  0
VERTEX
  8
0
  6
CONTINUOUS
 10
7.139880
 20
1.103520
  0
VERTEX
  8
0
  6
CONTINUOUS
 10
7.137240
 20
1.129040
  0
SEQEND
  8
0
  0
POLYLINE
  8
0
  6
CONTINUOUS
 66
     1
 40
0.000000
 41
0.000000
  0
VERTEX
  8
0
  6
CONTINUOUS
 10
7.139880
 20
0.989560
  0
VERTEX
  8
0
  6
CONTINUOUS
 10
7.135040
 20
1.736240
  0
VERTEX
  8
0
  6
CONTINUOUS
 10
7.139880
 20
0.989560
  0
SEQEND
  8
0
  0
SOLID
  8
0
 62
    15
 10
3.793240
 20
1.335400
 11
3.788400
 21
2.082080
 12
3.801600
 22
1.356520
 13
3.796760
 23
2.103640
  0
POLYLINE
  8
0
  6
CONTINUOUS
 66
     1
 40
0.000000
 41
0.000000
  0
VERTEX
  8
0
  6
CONTINUOUS
 10
3.793240
 20
1.335400
  0
VERTEX
  8
0
  6
CONTINUOUS
 10
3.788400
 20
2.082080
  0
VERTEX
  8
0
  6
CONTINUOUS
 10
3.796760
 20
2.103640
  0
VERTEX
  8
0
  6
CONTINUOUS
 10
3.801600
 20
1.356520
  0
VERTEX
  8
0
  6
CONTINUOUS
 10
3.793240
 20
1.335400
  0
SEQEND
  8
0
  0
POLYLINE
  8
0
  6
CONTINUOUS
 66
     1
 40
0.000000
 41
0.000000
  0
VERTEX
  8
0
  6
CONTINUOUS
 10
3.589960
 20
0.806960
  0
VERTEX
  8
0
  6
CONTINUOUS
 10
3.344440
 20
0.806960
  0
VERTEX
  8
0
  6
CONTINUOUS
 10
3.344440
 20
1.310760
  0
VERTEX
  8
0
  6
CONTINUOUS
 10
3.788400
 20
1.310760
  0
VERTEX
  8
0
  6
CONTINUOUS
 10
3.793240
 20
1.335400
  0
VERTEX
  8
0
  6
CONTINUOUS
 10
3.801600
 20
1.356520
  0
VERTEX
  8
0
  6
CONTINUOUS
 10
3.812600
 20
1.374560
  0
VERTEX
  8
0
  6
CONTINUOUS
 10
3.826240
 20
1.389080
  0
VERTEX
  8
0
  6
CONTINUOUS
 10
3.841200
 20
1.400520
  0
VERTEX
  8
0
  6
CONTINUOUS
 10
3.858360
 20
1.408440
  0
VERTEX
  8
0
  6
CONTINUOUS
 10
3.875960
 20
1.413720
  0
VERTEX
  8
0
  6
CONTINUOUS
 10
3.894440
 20
1.415040
  0
VERTEX
  8
0
  6
CONTINUOUS
 10
3.912920
 20
1.413720
  0
VERTEX
  8
0
  6
CONTINUOUS
 10
3.931400
 20
1.408880
  0
VERTEX
  8
0
  6
CONTINUOUS
 10
3.948560
 20
1.400520
  0
VERTEX
  8
0
  6
CONTINUOUS
 10
3.964840
 20
1.389080
  0
VERTEX
  8
0
  6
CONTINUOUS
 10
3.979360
 20
1.374560
  0
VERTEX
  8
0
  6
CONTINUOUS
 10
3.991240
 20
1.356520
  0
VERTEX
  8
0
  6
CONTINUOUS
 10
4.000920
 20
1.335400
  0
VERTEX
  8
0
  6
CONTINUOUS
 10
4.007520
 20
1.311200
  0
VERTEX
  8
0
  6
CONTINUOUS
 10
4.994440
 20
1.311200
  0
VERTEX
  8
0
  6
CONTINUOUS
 10
5.101360
 20
1.204280
  0
VERTEX
  8
0
  6
CONTINUOUS
 10
6.850360
 20
1.204280
  0
VERTEX
  8
0
  6
CONTINUOUS
 10
6.877640
 20
1.103520
  0
VERTEX
  8
0
  6
CONTINUOUS
 10
6.924720
 20
1.103520
  0
VERTEX
  8
0
  6
CONTINUOUS
 10
6.926920
 20
1.129040
  0
VERTEX
  8
0
  6
CONTINUOUS
 10
6.933960
 20
1.150600
  0
VERTEX
  8
0
  6
CONTINUOUS
 10
6.944520
 20
1.169520
  0
VERTEX
  8
0
  6
CONTINUOUS
 10
6.958160
 20
1.184480
  0
VERTEX
  8
0
  6
CONTINUOUS
 10
6.974440
 20
1.196360
  0
VERTEX
  8
0
  6
CONTINUOUS
 10
6.992480
 20
1.204720
  0
VERTEX
  8
0
  6
CONTINUOUS
 10
7.011840
 20
1.210000
  0
VERTEX
  8
0
  6
CONTINUOUS
 10
7.032080
 20
1.211320
  0
VERTEX
  8
0
  6
CONTINUOUS
 10
7.052320
 20
1.210000
  0
VERTEX
  8
0
  6
CONTINUOUS
 10
7.071680
 20
1.204720
  0
VERTEX
  8
0
  6
CONTINUOUS
 10
7.089720
 20
1.196360
  0
VERTEX
  8
0
  6
CONTINUOUS
 10
7.106000
 20
1.184480
  0
VERTEX
  8
0
  6
CONTINUOUS
 10
7.119640
 20
1.169520
  0
VERTEX
  8
0
  6
CONTINUOUS
 10
7.130640
 20
1.150600
  0
VERTEX
  8
0
  6
CONTINUOUS
 10
7.137240
 20
1.129040
  0
VERTEX
  8
0
  6
CONTINUOUS
 10
7.139880
 20
1.103520
  0
VERTEX
  8
0
  6
CONTINUOUS
 10
7.139880
 20
0.989560
  0
VERTEX
  8
0
  6
CONTINUOUS
 10
7.139880
 20
0.805200
  0
VERTEX
  8
0
  6
CONTINUOUS
 10
3.589960
 20
0.805200
  0
VERTEX
  8
0
  6
CONTINUOUS
 10
3.589960
 20
0.806960
  0
SEQEND
  8
0
  0
SOLID
  8
0
 62
    15
 10
3.614600
 20
1.642960
 11
3.622080
 21
2.395360
 12
3.646280
 22
1.605120
 13
3.653760
 23
2.357520
  0
POLYLINE
  8
0
  6
CONTINUOUS
 66
     1
 40
0.000000
 41
0.000000
  0
VERTEX
  8
0
  6
CONTINUOUS
 10
3.614600
 20
1.642960
  0
VERTEX
  8
0
  6
CONTINUOUS
 10
3.622080
 20
2.395360
  0
VERTEX
  8
0
  6
CONTINUOUS
 10
3.653760
 20
2.357520
  0
VERTEX
  8
0
  6
CONTINUOUS
 10
3.646280
 20
1.605120
  0
VERTEX
  8
0
  6
CONTINUOUS
 10
3.614600
 20
1.642960
  0
SEQEND
  8
0
  0
SOLID
  8
0
 62
    15
 10
3.234000
 20
1.927200
 11
3.241040
 21
2.679600
 12
3.234000
 22
1.811920
 13
3.241040
 23
2.564320
  0
POLYLINE
  8
0
  6
CONTINUOUS
 66
     1
 40
0.000000
 41
0.000000
  0
VERTEX
  8
0
  6
CONTINUOUS
 10
3.234000
 20
1.927200
  0
VERTEX
  8
0
  6
CONTINUOUS
 10
3.241040
 20
2.679600
  0
VERTEX
  8
0
  6
CONTINUOUS
 10
3.241040
 20
2.564320
  0
VERTEX
  8
0
  6
CONTINUOUS
 10
3.234000
 20
1.811920
  0
VERTEX
  8
0
  6
CONTINUOUS
 10
3.234000
 20
1.927200
  0
SEQEND
  8
0
  0
SOLID
  8
0
 62
     7
 10
3.234000
 20
1.811920
 11
3.241040
 21
2.564320
 12
3.325520
 22
1.803120
 13
3.332560
 23
2.555520
  0
POLYLINE
  8
0
  6
CONTINUOUS
 66
     1
 40
0.000000
 41
0.000000
  0
VERTEX
  8
0
  6
CONTINUOUS
 10
3.234000
 20
1.811920
  0
VERTEX
  8
0
  6
CONTINUOUS
 10
3.241040
 20
2.564320
  0
VERTEX
  8
0
  6
CONTINUOUS
 10
3.332560
 20
2.555520
  0
VERTEX
  8
0
  6
CONTINUOUS
 10
3.325520
 20
1.803120
  0
VERTEX
  8
0
  6
CONTINUOUS
 10
3.234000
 20
1.811920
  0
SEQEND
  8
0
  0
SOLID
  8
0
 62
    15
 10
3.343120
 20
1.308120
 11
3.350160
 21
2.060520
 12
3.343120
 22
0.806960
 13
3.350160
 23
1.559360
  0
POLYLINE
  8
0
  6
CONTINUOUS
 66
     1
 40
0.000000
 41
0.000000
  0
VERTEX
  8
0
  6
CONTINUOUS
 10
3.343120
 20
1.308120
  0
VERTEX
  8
0
  6
CONTINUOUS
 10
3.350160
 20
2.060520
  0
VERTEX
  8
0
  6
CONTINUOUS
 10
3.350160
 20
1.559360
  0
VERTEX
  8
0
  6
CONTINUOUS
 10
3.343120
 20
0.806960
  0
VERTEX
  8
0
  6
CONTINUOUS
 10
3.343120
 20
1.308120
  0
SEQEND
  8
0
  0
SOLID
  8
0
 62
     7
 10
3.416160
 20
1.777160
 11
3.423200
 21
2.529560
 12
3.501960
 22
1.734920
 13
3.509000
 23
2.487320
  0
POLYLINE
  8
0
  6
CONTINUOUS
 66
     1
 40
0.000000
 41
0.000000
  0
VERTEX
  8
0
  6
CONTINUOUS
 10
3.416160
 20
1.777160
  0
VERTEX
  8
0
  6
CONTINUOUS
 10
3.423200
 20
2.529560
  0
VERTEX
  8
0
  6
CONTINUOUS
 10
3.509000
 20
2.487320
  0
VERTEX
  8
0
  6
CONTINUOUS
 10
3.501960
 20
1.734920
  0
VERTEX
  8
0
  6
CONTINUOUS
 10
3.416160
 20
1.777160
  0
SEQEND
  8
0
  0
SOLID
  8
0
 62
     7
 10
3.501960
 20
1.734920
 11
3.509000
 21
2.487320
 12
3.542000
 22
1.708080
 13
3.549040
 23
2.460480
  0
POLYLINE
  8
0
  6
CONTINUOUS
 66
     1
 40
0.000000
 41
0.000000
  0
VERTEX
  8
0
  6
CONTINUOUS
 10
3.501960
 20
1.734920
  0
VERTEX
  8
0
  6
CONTINUOUS
 10
3.509000
 20
2.487320
  0
VERTEX
  8
0
  6
CONTINUOUS
 10
3.549040
 20
2.460480
  0
VERTEX
  8
0
  6
CONTINUOUS
 10
3.542000
 20
1.708080
  0
VERTEX
  8
0
  6
CONTINUOUS
 10
3.501960
 20
1.734920
  0
SEQEND
  8
0
  0
SOLID
  8
0
 62
     7
 10
3.542000
 20
1.708080
 11
3.549040
 21
2.460480
 12
3.579840
 22
1.677280
 13
3.586880
 23
2.429680
  0
POLYLINE
  8
0
  6
CONTINUOUS
 66
     1
 40
0.000000
 41
0.000000
  0
VERTEX
  8
0
  6
CONTINUOUS
 10
3.542000
 20
1.708080
  0
VERTEX
  8
0
  6
CONTINUOUS
 10
3.549040
 20
2.460480
  0
VERTEX
  8
0
  6
CONTINUOUS
 10
3.586880
 20
2.429680
  0
VERTEX
  8
0
  6
CONTINUOUS
 10
3.579840
 20
1.677280
  0
VERTEX
  8
0
  6
CONTINUOUS
 10
3.542000
 20
1.708080
  0
SEQEND
  8
0
  0
SOLID
  8
0
 62
     7
 10
3.579840
 20
1.677280
 11
3.586880
 21
2.429680
 12
3.614600
 22
1.642960
 13
3.622080
 23
2.395360
  0
POLYLINE
  8
0
  6
CONTINUOUS
 66
     1
 40
0.000000
 41
0.000000
  0
VERTEX
  8
0
  6
CONTINUOUS
 10
3.579840
 20
1.677280
  0
VERTEX
  8
0
  6
CONTINUOUS
 10
3.586880
 20
2.429680
  0
VERTEX
  8
0
  6
CONTINUOUS
 10
3.622080
 20
2.395360
  0
VERTEX
  8
0
  6
CONTINUOUS
 10
3.614600
 20
1.642960
  0
VERTEX
  8
0
  6
CONTINUOUS
 10
3.579840
 20
1.677280
  0
SEQEND
  8
0
  0
SOLID
  8
0
 62
    15
 10
2.787840
 20
1.927200
 11
2.794880
 21
2.679600
 12
3.234000
 22
1.927200
 13
3.241040
 23
2.679600
  0
POLYLINE
  8
0
  6
CONTINUOUS
 66
     1
 40
0.000000
 41
0.000000
  0
VERTEX
  8
0
  6
CONTINUOUS
 10
2.787840
 20
1.927200
  0
VERTEX
  8
0
  6
CONTINUOUS
 10
2.794880
 20
2.679600
  0
VERTEX
  8
0
  6
CONTINUOUS
 10
3.241040
 20
2.679600
  0
VERTEX
  8
0
  6
CONTINUOUS
 10
3.234000
 20
1.927200
  0
VERTEX
  8
0
  6
CONTINUOUS
 10
2.787840
 20
1.927200
  0
SEQEND
  8
0
  0
SOLID
  8
0
 62
    15
 10
3.646280
 20
1.605120
 11
3.653760
 21
2.357520
 12
3.674440
 22
1.563760
 13
3.681480
 23
2.316160
  0
POLYLINE
  8
0
  6
CONTINUOUS
 66
     1
 40
0.000000
 41
0.000000
  0
VERTEX
  8
0
  6
CONTINUOUS
 10
3.646280
 20
1.605120
  0
VERTEX
  8
0
  6
CONTINUOUS
 10
3.653760
 20
2.357520
  0
VERTEX
  8
0
  6
CONTINUOUS
 10
3.681480
 20
2.316160
  0
VERTEX
  8
0
  6
CONTINUOUS
 10
3.674440
 20
1.563760
  0
VERTEX
  8
0
  6
CONTINUOUS
 10
3.646280
 20
1.605120
  0
SEQEND
  8
0
  0
SOLID
  8
0
 62
    15
 10
3.674440
 20
1.563760
 11
3.681480
 21
2.316160
 12
3.698200
 22
1.518880
 13
3.705240
 23
2.271280
  0
POLYLINE
  8
0
  6
CONTINUOUS
 66
     1
 40
0.000000
 41
0.000000
  0
VERTEX
  8
0
  6
CONTINUOUS
 10
3.674440
 20
1.563760
  0
VERTEX
  8
0
  6
CONTINUOUS
 10
3.681480
 20
2.316160
  0
VERTEX
  8
0
  6
CONTINUOUS
 10
3.705240
 20
2.271280
  0
VERTEX
  8
0
  6
CONTINUOUS
 10
3.698200
 20
1.518880
  0
VERTEX
  8
0
  6
CONTINUOUS
 10
3.674440
 20
1.563760
  0
SEQEND
  8
0
  0
SOLID
  8
0
 62
    15
 10
3.698200
 20
1.518880
 11
3.705240
 21
2.271280
 12
3.717560
 22
1.470920
 13
3.724600
 23
2.223320
  0
POLYLINE
  8
0
  6
CONTINUOUS
 66
     1
 40
0.000000
 41
0.000000
  0
VERTEX
  8
0
  6
CONTINUOUS
 10
3.698200
 20
1.518880
  0
VERTEX
  8
0
  6
CONTINUOUS
 10
3.705240
 20
2.271280
  0
VERTEX
  8
0
  6
CONTINUOUS
 10
3.724600
 20
2.223320
  0
VERTEX
  8
0
  6
CONTINUOUS
 10
3.717560
 20
1.470920
  0
VERTEX
  8
0
  6
CONTINUOUS
 10
3.698200
 20
1.518880
  0
SEQEND
  8
0
  0
SOLID
  8
0
 62
    15
 10
3.717560
 20
1.470920
 11
3.724600
 21
2.223320
 12
3.731640
 22
1.419440
 13
3.738680
 23
2.171840
  0
POLYLINE
  8
0
  6
CONTINUOUS
 66
     1
 40
0.000000
 41
0.000000
  0
VERTEX
  8
0
  6
CONTINUOUS
 10
3.717560
 20
1.470920
  0
VERTEX
  8
0
  6
CONTINUOUS
 10
3.724600
 20
2.223320
  0
VERTEX
  8
0
  6
CONTINUOUS
 10
3.738680
 20
2.171840
  0
VERTEX
  8
0
  6
CONTINUOUS
 10
3.731640
 20
1.419440
  0
VERTEX
  8
0
  6
CONTINUOUS
 10
3.717560
 20
1.470920
  0
SEQEND
  8
0
  0
SOLID
  8
0
 62
    15
 10
3.731640
 20
1.419440
 11
3.738680
 21
2.171840
 12
3.740440
 22
1.365320
 13
3.747920
 23
2.117720
  0
POLYLINE
  8
0
  6
CONTINUOUS
 66
     1
 40
0.000000
 41
0.000000
  0
VERTEX
  8
0
  6
CONTINUOUS
 10
3.731640
 20
1.419440
  0
VERTEX
  8
0
  6
CONTINUOUS
 10
3.738680
 20
2.171840
  0
VERTEX
  8
0
  6
CONTINUOUS
 10
3.747920
 20
2.117720
  0
VERTEX
  8
0
  6
CONTINUOUS
 10
3.740440
 20
1.365320
  0
VERTEX
  8
0
  6
CONTINUOUS
 10
3.731640
 20
1.419440
  0
SEQEND
  8
0
  0
SOLID
  8
0
 62
    15
 10
3.740440
 20
1.365320
 11
3.747920
 21
2.117720
 12
3.743520
 22
1.308120
 13
3.751000
 23
2.060520
  0
POLYLINE
  8
0
  6
CONTINUOUS
 66
     1
 40
0.000000
 41
0.000000
  0
VERTEX
  8
0
  6
CONTINUOUS
 10
3.740440
 20
1.365320
  0
VERTEX
  8
0
  6
CONTINUOUS
 10
3.747920
 20
2.117720
  0
VERTEX
  8
0
  6
CONTINUOUS
 10
3.751000
 20
2.060520
  0
VERTEX
  8
0
  6
CONTINUOUS
 10
3.743520
 20
1.308120
  0
VERTEX
  8
0
  6
CONTINUOUS
 10
3.740440
 20
1.365320
  0
SEQEND
  8
0
  0
SOLID
  8
0
 62
     7
 10
3.325520
 20
1.803120
 11
3.332560
 21
2.555520
 12
3.416160
 22
1.777160
 13
3.423200
 23
2.529560
  0
POLYLINE
  8
0
  6
CONTINUOUS
 66
     1
 40
0.000000
 41
0.000000
  0
VERTEX
  8
0
  6
CONTINUOUS
 10
3.325520
 20
1.803120
  0
VERTEX
  8
0
  6
CONTINUOUS
 10
3.332560
 20
2.555520
  0
VERTEX
  8
0
  6
CONTINUOUS
 10
3.423200
 20
2.529560
  0
VERTEX
  8
0
  6
CONTINUOUS
 10
3.416160
 20
1.777160
  0
VERTEX
  8
0
  6
CONTINUOUS
 10
3.325520
 20
1.803120
  0
SEQEND
  8
0
  0
SOLID
  8
0
 62
    15
 10
2.782560
 20
1.927200
 11
2.789600
 21
2.679600
 12
2.787840
 22
1.927200
 13
2.794880
 23
2.679600
  0
POLYLINE
  8
0
  6
CONTINUOUS
 66
     1
 40
0.000000
 41
0.000000
  0
VERTEX
  8
0
  6
CONTINUOUS
 10
2.782560
 20
1.927200
  0
VERTEX
  8
0
  6
CONTINUOUS
 10
2.789600
 20
2.679600
  0
VERTEX
  8
0
  6
CONTINUOUS
 10
2.794880
 20
2.679600
  0
VERTEX
  8
0
  6
CONTINUOUS
 10
2.787840
 20
1.927200
  0
VERTEX
  8
0
  6
CONTINUOUS
 10
2.782560
 20
1.927200
  0
SEQEND
  8
0
  0
POLYLINE
  8
0
  6
CONTINUOUS
 66
     1
 40
0.000000
 41
0.000000
  0
VERTEX
  8
0
  6
CONTINUOUS
 10
2.787840
 20
1.927200
  0
VERTEX
  8
0
  6
CONTINUOUS
 10
3.234000
 20
1.927200
  0
VERTEX
  8
0
  6
CONTINUOUS
 10
3.234000
 20
1.811920
  0
VERTEX
  8
0
  6
CONTINUOUS
 10
3.325520
 20
1.803120
  0
VERTEX
  8
0
  6
CONTINUOUS
 10
3.416160
 20
1.777160
  0
VERTEX
  8
0
  6
CONTINUOUS
 10
3.501960
 20
1.734920
  0
VERTEX
  8
0
  6
CONTINUOUS
 10
3.542000
 20
1.708080
  0
VERTEX
  8
0
  6
CONTINUOUS
 10
3.579840
 20
1.677280
  0
VERTEX
  8
0
  6
CONTINUOUS
 10
3.614600
 20
1.642960
  0
VERTEX
  8
0
  6
CONTINUOUS
 10
3.646280
 20
1.605120
  0
VERTEX
  8
0
  6
CONTINUOUS
 10
3.674440
 20
1.563760
  0
VERTEX
  8
0
  6
CONTINUOUS
 10
3.698200
 20
1.518880
  0
VERTEX
  8
0
  6
CONTINUOUS
 10
3.717560
 20
1.470920
  0
VERTEX
  8
0
  6
CONTINUOUS
 10
3.731640
 20
1.419440
  0
VERTEX
  8
0
  6
CONTINUOUS
 10
3.740440
 20
1.365320
  0
VERTEX
  8
0
  6
CONTINUOUS
 10
3.743520
 20
1.308120
  0
VERTEX
  8
0
  6
CONTINUOUS
 10
3.343120
 20
1.308120
  0
VERTEX
  8
0
  6
CONTINUOUS
 10
3.343120
 20
0.806960
  0
VERTEX
  8
0
  6
CONTINUOUS
 10
2.782560
 20
0.806960
  0
VERTEX
  8
0
  6
CONTINUOUS
 10
2.782560
 20
1.927200
  0
VERTEX
  8
0
  6
CONTINUOUS
 10
2.787840
 20
1.927200
  0
SEQEND
  8
0
  0
TEXT
  8
0
 10
4.123240
 20
0.557040
 40
0.138028
  1
BA  845B 1-1/8" x 1"
 41
1.000000
  7
SN0
 71
     0
 72
     5
 11
5.633125
 21
0.557040
  0
TEXT
  8
0
 10
4.123240
 20
0.365200
 40
0.138028
  1
BA  926 5/8" x 3-13/16"
 41
1.000000
  7
SN0
 71
     0
 72
     5
 11
5.845113
 21
0.365200
  0
TEXT
  8
0
 10
2.877600
 20
0.931480
 40
0.138028
  1
B
 41
1.000000
  7
SN0
 71
     0
 72
     5
 11
2.988547
 21
0.931480
  0
ENDSEC
  0
EOF
