  0
SECTION
  2
HEADER
  9
$ACADVER
  1
AC1006
  9
$EXTMIN
 10
2.475440
 20
0.372240
  9
$EXTMAX
 10
7.073000
 20
3.099360
  9
$LTSCALE
 40
0.044000
  9
$PDMODE
 70
    35
  9
$PDSIZE
 40
0.035200
  0
ENDSEC
  0
SECTION
  2
TABLES
  0
TABLE
  2
LTYPE
 70
     9
  0
LTYPE
  2
CONTINUOUS
 70
    64
  3
Solid line
 72
    65
 73
     0
 40
0.000000
  0
LTYPE
  2
DASHED
 70
    64
  3
__ __ __ __ __ __ __ __ __ __ __ __ __ __ __
 72
    65
 73
     2
 40
0.000330
 49
0.000220
 49
-0.000110
  0
LTYPE
  2
HIDDEN
 70
    64
  3
 _ _ _ _ _ _ _ _ _ _ _ _ _ _ _ _ _ _ _ _ _ _
 72
    65
 73
     2
 40
0.000165
 49
0.000110
 49
-0.000055
  0
LTYPE
  2
CENTER
 70
    64
  3
____ _ ____ _ ____ _ ____ _ ____ _ ____ _ ____
 72
    65
 73
     4
 40
0.000880
 49
0.000550
 49
-0.000110
 49
0.000110
 49
-0.000110
  0
LTYPE
  2
PHANTOM
 70
    64
  3
_____ _ _ _____ _ _ _____ _ _ _____ _ _ ____
 72
    65
 73
     6
 40
0.001100
 49
0.000550
 49
-0.000110
 49
0.000110
 49
-0.000110
 49
0.000110
 49
-0.000110
  0
LTYPE
  2
DOT
 70
    64
  3
...............................................
 72
    65
 73
     2
 40
0.000110
 49
0.000000
 49
-0.000110
  0
LTYPE
  2
DASHDOT
 70
    64
  3
__ . __ . __ . __ . __ . __ . __ . __ . __ . __
 72
    65
 73
     4
 40
0.000440
 49
0.000220
 49
-0.000110
 49
0.000000
 49
-0.000110
  0
LTYPE
  2
BORDER
 70
    64
  3
__ __ . __ __ . __ __ . __ __ . __ __ . __ __
 72
    65
 73
     6
 40
0.000770
 49
0.000220
 49
-0.000110
 49
0.000220
 49
-0.000110
 49
0.000000
 49
-0.000110
  0
LTYPE
  2
DIVIDE
 70
    64
  3
__ . . __ . . __ . . __ . . __ . . __ . . __
 72
    65
 73
     6
 40
0.000550
 49
0.000220
 49
-0.000110
 49
0.000000
 49
-0.000110
 49
0.000000
 49
-0.000110
  0
LTYPE
  2
DOTDOT
 70
    64
  3
 . .  . .  . .  . .  . .  . . 
 72
    65
 73
     5
 40
0.000242
 49
-0.000110
 49
0.000000
 49
-0.000110
 49
0.000000
 49
-0.000110
  0
ENDTAB
  0
TABLE
  2
STYLE
 70
     2
  0
STYLE
 70
     0
  2
SN0
 40
0.000000
 41
0.000440
 50
0.000000
 71
     0
 42
0.000000
  3
ROMAND
  0
STYLE
 70
    68
  2
SV0
 40
0.000000
 41
0.000440
 50
0.000000
 71
     0
 42
0.000000
  3
ROMAND
  0
ENDTAB
  0
TABLE
  2
LAYER
 70
     3
  0
LAYER
  2
FOREGROUND
 70
    64
 62
     7
  6
CONTINUOUS
  0
LAYER
  2
BACKGROUND
 70
    65
 62
    -7
  6
CONTINUOUS
  0
LAYER
  2
0
 70
    64
 62
     7
  6
CONTINUOUS
  0
ENDTAB
  0
ENDSEC
  0
SECTION
  2
ENTITIES
  0
POLYLINE
  8
FOREGROUND
  6
CONTINUOUS
 66
     1
 40
0.000000
 41
0.000000
  0
VERTEX
  8
FOREGROUND
  6
CONTINUOUS
 10
0.000000
 20
3.471600
  0
VERTEX
  8
FOREGROUND
  6
CONTINUOUS
 10
8.499920
 20
3.471600
  0
VERTEX
  8
FOREGROUND
  6
CONTINUOUS
 10
8.499920
 20
-7.528400
  0
VERTEX
  8
FOREGROUND
  6
CONTINUOUS
 10
0.000000
 20
-7.528400
  0
VERTEX
  8
FOREGROUND
  6
CONTINUOUS
 10
0.000000
 20
3.471600
  0
SEQEND
  8
0
  0
POLYLINE
  8
FOREGROUND
  6
CONTINUOUS
 66
     1
 40
0.000000
 41
0.000000
  0
VERTEX
  8
FOREGROUND
  6
CONTINUOUS
 10
0.000000
 20
3.471600
  0
VERTEX
  8
FOREGROUND
  6
CONTINUOUS
 10
8.499920
 20
3.471600
  0
VERTEX
  8
FOREGROUND
  6
CONTINUOUS
 10
8.499920
 20
-7.528400
  0
VERTEX
  8
FOREGROUND
  6
CONTINUOUS
 10
0.000000
 20
-7.528400
  0
VERTEX
  8
FOREGROUND
  6
CONTINUOUS
 10
0.000000
 20
3.471600
  0
SEQEND
  8
0
  0
POLYLINE
  8
0
  6
CONTINUOUS
 66
     1
 40
0.014080
 41
0.014080
  0
VERTEX
  8
0
  6
CONTINUOUS
 10
4.816240
 20
2.905320
  0
VERTEX
  8
0
  6
CONTINUOUS
 10
4.816240
 20
1.652640
  0
VERTEX
  8
0
  6
CONTINUOUS
 10
7.064200
 20
1.652640
  0
VERTEX
  8
0
  6
CONTINUOUS
 10
7.065520
 20
1.940840
  0
VERTEX
  8
0
  6
CONTINUOUS
 10
6.997760
 20
1.942600
  0
VERTEX
  8
0
  6
CONTINUOUS
 10
6.895680
 20
1.950960
  0
VERTEX
  8
0
  6
CONTINUOUS
 10
6.782600
 20
1.966360
  0
VERTEX
  8
0
  6
CONTINUOUS
 10
6.691960
 20
1.982640
  0
VERTEX
  8
0
  6
CONTINUOUS
 10
6.565240
 20
2.010800
  0
VERTEX
  8
0
  6
CONTINUOUS
 10
6.435000
 20
2.046440
  0
VERTEX
  8
0
  6
CONTINUOUS
 10
6.369000
 20
2.067120
  0
VERTEX
  8
0
  6
CONTINUOUS
 10
6.303000
 20
2.089560
  0
VERTEX
  8
0
  6
CONTINUOUS
 10
6.237000
 20
2.114200
  0
VERTEX
  8
0
  6
CONTINUOUS
 10
6.171880
 20
2.140600
  0
VERTEX
  8
0
  6
CONTINUOUS
 10
6.108080
 20
2.169200
  0
VERTEX
  8
0
  6
CONTINUOUS
 10
6.013920
 20
2.215400
  0
VERTEX
  8
0
  6
CONTINUOUS
 10
5.924160
 20
2.266000
  0
VERTEX
  8
0
  6
CONTINUOUS
 10
5.838800
 20
2.321440
  0
VERTEX
  8
0
  6
CONTINUOUS
 10
5.760040
 20
2.381720
  0
VERTEX
  8
0
  6
CONTINUOUS
 10
5.711200
 20
2.424400
  0
VERTEX
  8
0
  6
CONTINUOUS
 10
5.665880
 20
2.468840
  0
VERTEX
  8
0
  6
CONTINUOUS
 10
5.624520
 20
2.515920
  0
VERTEX
  8
0
  6
CONTINUOUS
 10
5.587120
 20
2.564760
  0
VERTEX
  8
0
  6
CONTINUOUS
 10
5.554120
 20
2.615800
  0
VERTEX
  8
0
  6
CONTINUOUS
 10
5.526400
 20
2.669040
  0
VERTEX
  8
0
  6
CONTINUOUS
 10
5.503520
 20
2.724480
  0
VERTEX
  8
0
  6
CONTINUOUS
 10
5.493840
 20
2.753080
  0
VERTEX
  8
0
  6
CONTINUOUS
 10
5.479320
 20
2.812040
  0
VERTEX
  8
0
  6
CONTINUOUS
 10
5.474040
 20
2.842400
  0
VERTEX
  8
0
  6
CONTINUOUS
 10
5.468320
 20
2.904440
  0
VERTEX
  8
0
  6
CONTINUOUS
 10
4.815360
 20
2.904440
  0
VERTEX
  8
0
  6
CONTINUOUS
 10
4.816240
 20
2.905320
  0
SEQEND
  8
0
  0
SOLID
  8
0
 62
    15
 10
3.055360
 20
1.928520
 11
3.805120
 21
1.930720
 12
2.992440
 22
1.804000
 13
3.742200
 23
1.806200
  0
POLYLINE
  8
0
  6
CONTINUOUS
 66
     1
 40
0.000000
 41
0.000000
  0
VERTEX
  8
0
  6
CONTINUOUS
 10
3.055360
 20
1.928520
  0
VERTEX
  8
0
  6
CONTINUOUS
 10
3.805120
 20
1.930720
  0
VERTEX
  8
0
  6
CONTINUOUS
 10
3.742200
 20
1.806200
  0
VERTEX
  8
0
  6
CONTINUOUS
 10
2.992440
 20
1.804000
  0
VERTEX
  8
0
  6
CONTINUOUS
 10
3.055360
 20
1.928520
  0
SEQEND
  8
0
  0
SOLID
  8
0
 62
    15
 10
3.728120
 20
2.443760
 11
4.477880
 21
2.445960
 12
3.665640
 22
2.438040
 13
4.415400
 23
2.440240
  0
POLYLINE
  8
0
  6
CONTINUOUS
 66
     1
 40
0.000000
 41
0.000000
  0
VERTEX
  8
0
  6
CONTINUOUS
 10
3.728120
 20
2.443760
  0
VERTEX
  8
0
  6
CONTINUOUS
 10
4.477880
 20
2.445960
  0
VERTEX
  8
0
  6
CONTINUOUS
 10
4.415400
 20
2.440240
  0
VERTEX
  8
0
  6
CONTINUOUS
 10
3.665640
 20
2.438040
  0
VERTEX
  8
0
  6
CONTINUOUS
 10
3.728120
 20
2.443760
  0
SEQEND
  8
0
  0
SOLID
  8
0
 62
    15
 10
3.665640
 20
2.438040
 11
4.415400
 21
2.440240
 12
3.605800
 22
2.426160
 13
4.355560
 23
2.428360
  0
POLYLINE
  8
0
  6
CONTINUOUS
 66
     1
 40
0.000000
 41
0.000000
  0
VERTEX
  8
0
  6
CONTINUOUS
 10
3.665640
 20
2.438040
  0
VERTEX
  8
0
  6
CONTINUOUS
 10
4.415400
 20
2.440240
  0
VERTEX
  8
0
  6
CONTINUOUS
 10
4.355560
 20
2.428360
  0
VERTEX
  8
0
  6
CONTINUOUS
 10
3.605800
 20
2.426160
  0
VERTEX
  8
0
  6
CONTINUOUS
 10
3.665640
 20
2.438040
  0
SEQEND
  8
0
  0
SOLID
  8
0
 62
    15
 10
3.605800
 20
2.426160
 11
4.355560
 21
2.428360
 12
3.548160
 22
2.408560
 13
4.297920
 23
2.410760
  0
POLYLINE
  8
0
  6
CONTINUOUS
 66
     1
 40
0.000000
 41
0.000000
  0
VERTEX
  8
0
  6
CONTINUOUS
 10
3.605800
 20
2.426160
  0
VERTEX
  8
0
  6
CONTINUOUS
 10
4.355560
 20
2.428360
  0
VERTEX
  8
0
  6
CONTINUOUS
 10
4.297920
 20
2.410760
  0
VERTEX
  8
0
  6
CONTINUOUS
 10
3.548160
 20
2.408560
  0
VERTEX
  8
0
  6
CONTINUOUS
 10
3.605800
 20
2.426160
  0
SEQEND
  8
0
  0
SOLID
  8
0
 62
    15
 10
3.548160
 20
2.408560
 11
4.297920
 21
2.410760
 12
3.492720
 22
2.385680
 13
4.242480
 23
2.387880
  0
POLYLINE
  8
0
  6
CONTINUOUS
 66
     1
 40
0.000000
 41
0.000000
  0
VERTEX
  8
0
  6
CONTINUOUS
 10
3.548160
 20
2.408560
  0
VERTEX
  8
0
  6
CONTINUOUS
 10
4.297920
 20
2.410760
  0
VERTEX
  8
0
  6
CONTINUOUS
 10
4.242480
 20
2.387880
  0
VERTEX
  8
0
  6
CONTINUOUS
 10
3.492720
 20
2.385680
  0
VERTEX
  8
0
  6
CONTINUOUS
 10
3.548160
 20
2.408560
  0
SEQEND
  8
0
  0
SOLID
  8
0
 62
    15
 10
3.492720
 20
2.385680
 11
4.242480
 21
2.387880
 12
3.388440
 22
2.324520
 13
4.138200
 23
2.327160
  0
POLYLINE
  8
0
  6
CONTINUOUS
 66
     1
 40
0.000000
 41
0.000000
  0
VERTEX
  8
0
  6
CONTINUOUS
 10
3.492720
 20
2.385680
  0
VERTEX
  8
0
  6
CONTINUOUS
 10
4.242480
 20
2.387880
  0
VERTEX
  8
0
  6
CONTINUOUS
 10
4.138200
 20
2.327160
  0
VERTEX
  8
0
  6
CONTINUOUS
 10
3.388440
 20
2.324520
  0
VERTEX
  8
0
  6
CONTINUOUS
 10
3.492720
 20
2.385680
  0
SEQEND
  8
0
  0
SOLID
  8
0
 62
    15
 10
3.388440
 20
2.324520
 11
4.138200
 21
2.327160
 12
3.292520
 22
2.245760
 13
4.042280
 23
2.248400
  0
POLYLINE
  8
0
  6
CONTINUOUS
 66
     1
 40
0.000000
 41
0.000000
  0
VERTEX
  8
0
  6
CONTINUOUS
 10
3.388440
 20
2.324520
  0
VERTEX
  8
0
  6
CONTINUOUS
 10
4.138200
 20
2.327160
  0
VERTEX
  8
0
  6
CONTINUOUS
 10
4.042280
 20
2.248400
  0
VERTEX
  8
0
  6
CONTINUOUS
 10
3.292520
 20
2.245760
  0
VERTEX
  8
0
  6
CONTINUOUS
 10
3.388440
 20
2.324520
  0
SEQEND
  8
0
  0
SOLID
  8
0
 62
    15
 10
3.292520
 20
2.245760
 11
4.042280
 21
2.248400
 12
3.204960
 22
2.152040
 13
3.954720
 23
2.154240
  0
POLYLINE
  8
0
  6
CONTINUOUS
 66
     1
 40
0.000000
 41
0.000000
  0
VERTEX
  8
0
  6
CONTINUOUS
 10
3.292520
 20
2.245760
  0
VERTEX
  8
0
  6
CONTINUOUS
 10
4.042280
 20
2.248400
  0
VERTEX
  8
0
  6
CONTINUOUS
 10
3.954720
 20
2.154240
  0
VERTEX
  8
0
  6
CONTINUOUS
 10
3.204960
 20
2.152040
  0
VERTEX
  8
0
  6
CONTINUOUS
 10
3.292520
 20
2.245760
  0
SEQEND
  8
0
  0
SOLID
  8
0
 62
    15
 10
3.204960
 20
2.152040
 11
3.954720
 21
2.154240
 12
3.126200
 22
2.045120
 13
3.875960
 23
2.047760
  0
POLYLINE
  8
0
  6
CONTINUOUS
 66
     1
 40
0.000000
 41
0.000000
  0
VERTEX
  8
0
  6
CONTINUOUS
 10
3.204960
 20
2.152040
  0
VERTEX
  8
0
  6
CONTINUOUS
 10
3.954720
 20
2.154240
  0
VERTEX
  8
0
  6
CONTINUOUS
 10
3.875960
 20
2.047760
  0
VERTEX
  8
0
  6
CONTINUOUS
 10
3.126200
 20
2.045120
  0
VERTEX
  8
0
  6
CONTINUOUS
 10
3.204960
 20
2.152040
  0
SEQEND
  8
0
  0
SOLID
  8
0
 62
    15
 10
3.126200
 20
2.045120
 11
3.875960
 21
2.047760
 12
3.055360
 22
1.928520
 13
3.805120
 23
1.930720
  0
POLYLINE
  8
0
  6
CONTINUOUS
 66
     1
 40
0.000000
 41
0.000000
  0
VERTEX
  8
0
  6
CONTINUOUS
 10
3.126200
 20
2.045120
  0
VERTEX
  8
0
  6
CONTINUOUS
 10
3.875960
 20
2.047760
  0
VERTEX
  8
0
  6
CONTINUOUS
 10
3.805120
 20
1.930720
  0
VERTEX
  8
0
  6
CONTINUOUS
 10
3.055360
 20
1.928520
  0
VERTEX
  8
0
  6
CONTINUOUS
 10
3.126200
 20
2.045120
  0
SEQEND
  8
0
  0
SOLID
  8
0
 62
    15
 10
3.728120
 20
3.096280
 11
4.477880
 21
3.098920
 12
3.728120
 22
3.095840
 13
4.477880
 23
3.098040
  0
POLYLINE
  8
0
  6
CONTINUOUS
 66
     1
 40
0.000000
 41
0.000000
  0
VERTEX
  8
0
  6
CONTINUOUS
 10
3.728120
 20
3.096280
  0
VERTEX
  8
0
  6
CONTINUOUS
 10
4.477880
 20
3.098920
  0
VERTEX
  8
0
  6
CONTINUOUS
 10
4.477880
 20
3.098040
  0
VERTEX
  8
0
  6
CONTINUOUS
 10
3.728120
 20
3.095840
  0
VERTEX
  8
0
  6
CONTINUOUS
 10
3.728120
 20
3.096280
  0
SEQEND
  8
0
  0
SOLID
  8
0
 62
    15
 10
2.476320
 20
3.095840
 11
3.225640
 21
3.098040
 12
3.728560
 22
3.095840
 13
4.478320
 23
3.098040
  0
POLYLINE
  8
0
  6
CONTINUOUS
 66
     1
 40
0.000000
 41
0.000000
  0
VERTEX
  8
0
  6
CONTINUOUS
 10
2.476320
 20
3.095840
  0
VERTEX
  8
0
  6
CONTINUOUS
 10
3.225640
 20
3.098040
  0
VERTEX
  8
0
  6
CONTINUOUS
 10
4.478320
 20
3.098040
  0
VERTEX
  8
0
  6
CONTINUOUS
 10
3.728560
 20
3.095840
  0
VERTEX
  8
0
  6
CONTINUOUS
 10
2.476320
 20
3.095840
  0
SEQEND
  8
0
  0
SOLID
  8
0
 62
    15
 10
2.992440
 20
1.804000
 11
3.742200
 21
1.806200
 12
2.937440
 22
1.674640
 13
3.687200
 23
1.676840
  0
POLYLINE
  8
0
  6
CONTINUOUS
 66
     1
 40
0.000000
 41
0.000000
  0
VERTEX
  8
0
  6
CONTINUOUS
 10
2.992440
 20
1.804000
  0
VERTEX
  8
0
  6
CONTINUOUS
 10
3.742200
 20
1.806200
  0
VERTEX
  8
0
  6
CONTINUOUS
 10
3.687200
 20
1.676840
  0
VERTEX
  8
0
  6
CONTINUOUS
 10
2.937440
 20
1.674640
  0
VERTEX
  8
0
  6
CONTINUOUS
 10
2.992440
 20
1.804000
  0
SEQEND
  8
0
  0
SOLID
  8
0
 62
    15
 10
2.937440
 20
1.674640
 11
3.687200
 21
1.676840
 12
2.890800
 22
1.542640
 13
3.640120
 23
1.545280
  0
POLYLINE
  8
0
  6
CONTINUOUS
 66
     1
 40
0.000000
 41
0.000000
  0
VERTEX
  8
0
  6
CONTINUOUS
 10
2.937440
 20
1.674640
  0
VERTEX
  8
0
  6
CONTINUOUS
 10
3.687200
 20
1.676840
  0
VERTEX
  8
0
  6
CONTINUOUS
 10
3.640120
 20
1.545280
  0
VERTEX
  8
0
  6
CONTINUOUS
 10
2.890800
 20
1.542640
  0
VERTEX
  8
0
  6
CONTINUOUS
 10
2.937440
 20
1.674640
  0
SEQEND
  8
0
  0
SOLID
  8
0
 62
    15
 10
2.890800
 20
1.542640
 11
3.640120
 21
1.545280
 12
2.851200
 22
1.411080
 13
3.600960
 23
1.413720
  0
POLYLINE
  8
0
  6
CONTINUOUS
 66
     1
 40
0.000000
 41
0.000000
  0
VERTEX
  8
0
  6
CONTINUOUS
 10
2.890800
 20
1.542640
  0
VERTEX
  8
0
  6
CONTINUOUS
 10
3.640120
 20
1.545280
  0
VERTEX
  8
0
  6
CONTINUOUS
 10
3.600960
 20
1.413720
  0
VERTEX
  8
0
  6
CONTINUOUS
 10
2.851200
 20
1.411080
  0
VERTEX
  8
0
  6
CONTINUOUS
 10
2.890800
 20
1.542640
  0
SEQEND
  8
0
  0
SOLID
  8
0
 62
    15
 10
2.851200
 20
1.411080
 11
3.600960
 21
1.413720
 12
2.819520
 22
1.282600
 13
3.569280
 23
1.284800
  0
POLYLINE
  8
0
  6
CONTINUOUS
 66
     1
 40
0.000000
 41
0.000000
  0
VERTEX
  8
0
  6
CONTINUOUS
 10
2.851200
 20
1.411080
  0
VERTEX
  8
0
  6
CONTINUOUS
 10
3.600960
 20
1.413720
  0
VERTEX
  8
0
  6
CONTINUOUS
 10
3.569280
 20
1.284800
  0
VERTEX
  8
0
  6
CONTINUOUS
 10
2.819520
 20
1.282600
  0
VERTEX
  8
0
  6
CONTINUOUS
 10
2.851200
 20
1.411080
  0
SEQEND
  8
0
  0
SOLID
  8
0
 62
    15
 10
2.819520
 20
1.282600
 11
3.569280
 21
1.284800
 12
2.794880
 22
1.158960
 13
3.544640
 23
1.161600
  0
POLYLINE
  8
0
  6
CONTINUOUS
 66
     1
 40
0.000000
 41
0.000000
  0
VERTEX
  8
0
  6
CONTINUOUS
 10
2.819520
 20
1.282600
  0
VERTEX
  8
0
  6
CONTINUOUS
 10
3.569280
 20
1.284800
  0
VERTEX
  8
0
  6
CONTINUOUS
 10
3.544640
 20
1.161600
  0
VERTEX
  8
0
  6
CONTINUOUS
 10
2.794880
 20
1.158960
  0
VERTEX
  8
0
  6
CONTINUOUS
 10
2.819520
 20
1.282600
  0
SEQEND
  8
0
  0
SOLID
  8
0
 62
    15
 10
2.794880
 20
1.158960
 11
3.544640
 21
1.161600
 12
2.777720
 22
1.043240
 13
3.527480
 23
1.045880
  0
POLYLINE
  8
0
  6
CONTINUOUS
 66
     1
 40
0.000000
 41
0.000000
  0
VERTEX
  8
0
  6
CONTINUOUS
 10
2.794880
 20
1.158960
  0
VERTEX
  8
0
  6
CONTINUOUS
 10
3.544640
 20
1.161600
  0
VERTEX
  8
0
  6
CONTINUOUS
 10
3.527480
 20
1.045880
  0
VERTEX
  8
0
  6
CONTINUOUS
 10
2.777720
 20
1.043240
  0
VERTEX
  8
0
  6
CONTINUOUS
 10
2.794880
 20
1.158960
  0
SEQEND
  8
0
  0
SOLID
  8
0
 62
    15
 10
2.777720
 20
1.043240
 11
3.527480
 21
1.045880
 12
2.767600
 22
0.938520
 13
3.517360
 23
0.940720
  0
POLYLINE
  8
0
  6
CONTINUOUS
 66
     1
 40
0.000000
 41
0.000000
  0
VERTEX
  8
0
  6
CONTINUOUS
 10
2.777720
 20
1.043240
  0
VERTEX
  8
0
  6
CONTINUOUS
 10
3.527480
 20
1.045880
  0
VERTEX
  8
0
  6
CONTINUOUS
 10
3.517360
 20
0.940720
  0
VERTEX
  8
0
  6
CONTINUOUS
 10
2.767600
 20
0.938520
  0
VERTEX
  8
0
  6
CONTINUOUS
 10
2.777720
 20
1.043240
  0
SEQEND
  8
0
  0
SOLID
  8
0
 62
    15
 10
2.767600
 20
0.938520
 11
3.517360
 21
0.940720
 12
2.764520
 22
0.846120
 13
3.514280
 23
0.848760
  0
POLYLINE
  8
0
  6
CONTINUOUS
 66
     1
 40
0.000000
 41
0.000000
  0
VERTEX
  8
0
  6
CONTINUOUS
 10
2.767600
 20
0.938520
  0
VERTEX
  8
0
  6
CONTINUOUS
 10
3.517360
 20
0.940720
  0
VERTEX
  8
0
  6
CONTINUOUS
 10
3.514280
 20
0.848760
  0
VERTEX
  8
0
  6
CONTINUOUS
 10
2.764520
 20
0.846120
  0
VERTEX
  8
0
  6
CONTINUOUS
 10
2.767600
 20
0.938520
  0
SEQEND
  8
0
  0
SOLID
  8
0
 62
    15
 10
4.477880
 20
3.098040
 11
4.477880
 21
2.445960
 12
3.728120
 22
3.095840
 13
3.728120
 23
2.443760
  0
POLYLINE
  8
0
  6
CONTINUOUS
 66
     1
 40
0.000000
 41
0.000000
  0
VERTEX
  8
0
  6
CONTINUOUS
 10
4.477880
 20
3.098040
  0
VERTEX
  8
0
  6
CONTINUOUS
 10
4.477880
 20
2.445960
  0
VERTEX
  8
0
  6
CONTINUOUS
 10
3.728120
 20
2.443760
  0
VERTEX
  8
0
  6
CONTINUOUS
 10
3.728120
 20
3.095840
  0
VERTEX
  8
0
  6
CONTINUOUS
 10
4.477880
 20
3.098040
  0
SEQEND
  8
0
  0
POLYLINE
  8
0
  6
CONTINUOUS
 66
     1
 40
0.000000
 41
0.000000
  0
VERTEX
  8
0
  6
CONTINUOUS
 10
3.728120
 20
3.096280
  0
VERTEX
  8
0
  6
CONTINUOUS
 10
3.728120
 20
2.443760
  0
VERTEX
  8
0
  6
CONTINUOUS
 10
3.665640
 20
2.438040
  0
VERTEX
  8
0
  6
CONTINUOUS
 10
3.605800
 20
2.426160
  0
VERTEX
  8
0
  6
CONTINUOUS
 10
3.548160
 20
2.408560
  0
VERTEX
  8
0
  6
CONTINUOUS
 10
3.492720
 20
2.385680
  0
VERTEX
  8
0
  6
CONTINUOUS
 10
3.388440
 20
2.324520
  0
VERTEX
  8
0
  6
CONTINUOUS
 10
3.292520
 20
2.245760
  0
VERTEX
  8
0
  6
CONTINUOUS
 10
3.204960
 20
2.152040
  0
VERTEX
  8
0
  6
CONTINUOUS
 10
3.126200
 20
2.045120
  0
VERTEX
  8
0
  6
CONTINUOUS
 10
3.055360
 20
1.928520
  0
VERTEX
  8
0
  6
CONTINUOUS
 10
2.992440
 20
1.804000
  0
VERTEX
  8
0
  6
CONTINUOUS
 10
2.937440
 20
1.674640
  0
VERTEX
  8
0
  6
CONTINUOUS
 10
2.890800
 20
1.542640
  0
VERTEX
  8
0
  6
CONTINUOUS
 10
2.851200
 20
1.411080
  0
VERTEX
  8
0
  6
CONTINUOUS
 10
2.819520
 20
1.282600
  0
VERTEX
  8
0
  6
CONTINUOUS
 10
2.794880
 20
1.158960
  0
VERTEX
  8
0
  6
CONTINUOUS
 10
2.777720
 20
1.043240
  0
VERTEX
  8
0
  6
CONTINUOUS
 10
2.767600
 20
0.938520
  0
VERTEX
  8
0
  6
CONTINUOUS
 10
2.764520
 20
0.846120
  0
VERTEX
  8
0
  6
CONTINUOUS
 10
2.476320
 20
0.847880
  0
VERTEX
  8
0
  6
CONTINUOUS
 10
2.476320
 20
3.095840
  0
VERTEX
  8
0
  6
CONTINUOUS
 10
3.728560
 20
3.095840
  0
VERTEX
  8
0
  6
CONTINUOUS
 10
3.728120
 20
3.096280
  0
SEQEND
  8
0
  0
TEXT
  8
0
 10
3.182080
 20
0.600160
 40
0.138028
  1
BA  925
 41
1.000000
  7
SN0
 71
     0
 72
     5
 11
3.773096
 21
0.600160
  0
TEXT
  8
0
 10
2.952400
 20
0.408760
 40
0.138028
  1
1-1/4" x 2-1/4"
 41
1.000000
  7
SN0
 71
     0
 72
     5
 11
4.002023
 21
0.408760
  0
ENDSEC
  0
EOF
