  0
SECTION
  2
HEADER
  9
$ACADVER
  1
AC1006
  9
$EXTMIN
 10
1.649560
 20
0.713680
  9
$EXTMAX
 10
5.642120
 20
3.973640
  9
$LTSCALE
 40
0.044000
  9
$PDMODE
 70
    35
  9
$PDSIZE
 40
0.035200
  0
ENDSEC
  0
SECTION
  2
TABLES
  0
TABLE
  2
LTYPE
 70
     9
  0
LTYPE
  2
CONTINUOUS
 70
    64
  3
Solid line
 72
    65
 73
     0
 40
0.000000
  0
LTYPE
  2
DASHED
 70
    64
  3
__ __ __ __ __ __ __ __ __ __ __ __ __ __ __
 72
    65
 73
     2
 40
0.000330
 49
0.000220
 49
-0.000110
  0
LTYPE
  2
HIDDEN
 70
    64
  3
 _ _ _ _ _ _ _ _ _ _ _ _ _ _ _ _ _ _ _ _ _ _
 72
    65
 73
     2
 40
0.000165
 49
0.000110
 49
-0.000055
  0
LTYPE
  2
CENTER
 70
    64
  3
____ _ ____ _ ____ _ ____ _ ____ _ ____ _ ____
 72
    65
 73
     4
 40
0.000880
 49
0.000550
 49
-0.000110
 49
0.000110
 49
-0.000110
  0
LTYPE
  2
PHANTOM
 70
    64
  3
_____ _ _ _____ _ _ _____ _ _ _____ _ _ ____
 72
    65
 73
     6
 40
0.001100
 49
0.000550
 49
-0.000110
 49
0.000110
 49
-0.000110
 49
0.000110
 49
-0.000110
  0
LTYPE
  2
DOT
 70
    64
  3
...............................................
 72
    65
 73
     2
 40
0.000110
 49
0.000000
 49
-0.000110
  0
LTYPE
  2
DASHDOT
 70
    64
  3
__ . __ . __ . __ . __ . __ . __ . __ . __ . __
 72
    65
 73
     4
 40
0.000440
 49
0.000220
 49
-0.000110
 49
0.000000
 49
-0.000110
  0
LTYPE
  2
BORDER
 70
    64
  3
__ __ . __ __ . __ __ . __ __ . __ __ . __ __
 72
    65
 73
     6
 40
0.000770
 49
0.000220
 49
-0.000110
 49
0.000220
 49
-0.000110
 49
0.000000
 49
-0.000110
  0
LTYPE
  2
DIVIDE
 70
    64
  3
__ . . __ . . __ . . __ . . __ . . __ . . __
 72
    65
 73
     6
 40
0.000550
 49
0.000220
 49
-0.000110
 49
0.000000
 49
-0.000110
 49
0.000000
 49
-0.000110
  0
LTYPE
  2
DOTDOT
 70
    64
  3
 . .  . .  . .  . .  . .  . . 
 72
    65
 73
     5
 40
0.000242
 49
-0.000110
 49
0.000000
 49
-0.000110
 49
0.000000
 49
-0.000110
  0
ENDTAB
  0
TABLE
  2
STYLE
 70
     2
  0
STYLE
 70
     0
  2
SN0
 40
0.000000
 41
0.000440
 50
0.000000
 71
     0
 42
0.000000
  3
ROMAND
  0
STYLE
 70
    68
  2
SV0
 40
0.000000
 41
0.000440
 50
0.000000
 71
     0
 42
0.000000
  3
ROMAND
  0
ENDTAB
  0
TABLE
  2
LAYER
 70
     3
  0
LAYER
  2
FOREGROUND
 70
    64
 62
     7
  6
CONTINUOUS
  0
LAYER
  2
BACKGROUND
 70
    65
 62
    -7
  6
CONTINUOUS
  0
LAYER
  2
0
 70
    64
 62
     7
  6
CONTINUOUS
  0
ENDTAB
  0
ENDSEC
  0
SECTION
  2
ENTITIES
  0
POLYLINE
  8
FOREGROUND
  6
CONTINUOUS
 66
     1
 40
0.000000
 41
0.000000
  0
VERTEX
  8
FOREGROUND
  6
CONTINUOUS
 10
0.000000
 20
4.687320
  0
VERTEX
  8
FOREGROUND
  6
CONTINUOUS
 10
8.499920
 20
4.687320
  0
VERTEX
  8
FOREGROUND
  6
CONTINUOUS
 10
8.499920
 20
-6.312680
  0
VERTEX
  8
FOREGROUND
  6
CONTINUOUS
 10
0.000000
 20
-6.312680
  0
VERTEX
  8
FOREGROUND
  6
CONTINUOUS
 10
0.000000
 20
4.687320
  0
SEQEND
  8
0
  0
POLYLINE
  8
FOREGROUND
  6
CONTINUOUS
 66
     1
 40
0.000000
 41
0.000000
  0
VERTEX
  8
FOREGROUND
  6
CONTINUOUS
 10
0.000000
 20
4.687320
  0
VERTEX
  8
FOREGROUND
  6
CONTINUOUS
 10
8.499920
 20
4.687320
  0
VERTEX
  8
FOREGROUND
  6
CONTINUOUS
 10
8.499920
 20
-6.312680
  0
VERTEX
  8
FOREGROUND
  6
CONTINUOUS
 10
0.000000
 20
-6.312680
  0
VERTEX
  8
FOREGROUND
  6
CONTINUOUS
 10
0.000000
 20
4.687320
  0
SEQEND
  8
0
  0
POLYLINE
  8
0
  6
CONTINUOUS
 66
     1
 40
0.014080
 41
0.014080
  0
VERTEX
  8
0
  6
CONTINUOUS
 10
5.059560
 20
2.750880
  0
VERTEX
  8
0
  6
CONTINUOUS
 10
5.068360
 20
2.728880
  0
VERTEX
  8
0
  6
CONTINUOUS
 10
5.074960
 20
2.703800
  0
VERTEX
  8
0
  6
CONTINUOUS
 10
5.078480
 20
2.675640
  0
VERTEX
  8
0
  6
CONTINUOUS
 10
5.079360
 20
2.645280
  0
VERTEX
  8
0
  6
CONTINUOUS
 10
5.077600
 20
2.613160
  0
VERTEX
  8
0
  6
CONTINUOUS
 10
5.069240
 20
2.561680
  0
VERTEX
  8
0
  6
CONTINUOUS
 10
5.053840
 20
2.507560
  0
VERTEX
  8
0
  6
CONTINUOUS
 10
5.030960
 20
2.453000
  0
VERTEX
  8
0
  6
CONTINUOUS
 10
5.000160
 20
2.398440
  0
VERTEX
  8
0
  6
CONTINUOUS
 10
4.975520
 20
2.362360
  0
VERTEX
  8
0
  6
CONTINUOUS
 10
4.947360
 20
2.328040
  0
VERTEX
  8
0
  6
CONTINUOUS
 10
4.897640
 20
2.278760
  0
VERTEX
  8
0
  6
CONTINUOUS
 10
4.859360
 20
2.248400
  0
VERTEX
  8
0
  6
CONTINUOUS
 10
4.818880
 20
2.219800
  0
VERTEX
  8
0
  6
CONTINUOUS
 10
4.781480
 20
2.187240
  0
VERTEX
  8
0
  6
CONTINUOUS
 10
4.748920
 20
2.150280
  0
VERTEX
  8
0
  6
CONTINUOUS
 10
4.721640
 20
2.110240
  0
VERTEX
  8
0
  6
CONTINUOUS
 10
4.699640
 20
2.068000
  0
VERTEX
  8
0
  6
CONTINUOUS
 10
4.682920
 20
2.024440
  0
VERTEX
  8
0
  6
CONTINUOUS
 10
4.676760
 20
2.002000
  0
VERTEX
  8
0
  6
CONTINUOUS
 10
4.668840
 20
1.958000
  0
VERTEX
  8
0
  6
CONTINUOUS
 10
4.667080
 20
1.936440
  0
VERTEX
  8
0
  6
CONTINUOUS
 10
4.667080
 20
1.914880
  0
VERTEX
  8
0
  6
CONTINUOUS
 10
4.671040
 20
1.873520
  0
VERTEX
  8
0
  6
CONTINUOUS
 10
4.675440
 20
1.853720
  0
VERTEX
  8
0
  6
CONTINUOUS
 10
4.681600
 20
1.834360
  0
VERTEX
  8
0
  6
CONTINUOUS
 10
4.698760
 20
1.799160
  0
VERTEX
  8
0
  6
CONTINUOUS
 10
4.710200
 20
1.782880
  0
VERTEX
  8
0
  6
CONTINUOUS
 10
4.722960
 20
1.768360
  0
VERTEX
  8
0
  6
CONTINUOUS
 10
4.737480
 20
1.754720
  0
VERTEX
  8
0
  6
CONTINUOUS
 10
4.753760
 20
1.742400
  0
VERTEX
  8
0
  6
CONTINUOUS
 10
4.772240
 20
1.731840
  0
VERTEX
  8
0
  6
CONTINUOUS
 10
4.802600
 20
1.719080
  0
VERTEX
  8
0
  6
CONTINUOUS
 10
4.837800
 20
1.710720
  0
VERTEX
  8
0
  6
CONTINUOUS
 10
4.876960
 20
1.706760
  0
VERTEX
  8
0
  6
CONTINUOUS
 10
4.891040
 20
1.706320
  0
VERTEX
  8
0
  6
CONTINUOUS
 10
4.891040
 20
1.585760
  0
VERTEX
  8
0
  6
CONTINUOUS
 10
4.923600
 20
1.583120
  0
VERTEX
  8
0
  6
CONTINUOUS
 10
4.953080
 20
1.575640
  0
VERTEX
  8
0
  6
CONTINUOUS
 10
4.987400
 20
1.559360
  0
VERTEX
  8
0
  6
CONTINUOUS
 10
5.002360
 20
1.548360
  0
VERTEX
  8
0
  6
CONTINUOUS
 10
5.027880
 20
1.522400
  0
VERTEX
  8
0
  6
CONTINUOUS
 10
5.047680
 20
1.491600
  0
VERTEX
  8
0
  6
CONTINUOUS
 10
5.055600
 20
1.474880
  0
VERTEX
  8
0
  6
CONTINUOUS
 10
5.061760
 20
1.457720
  0
VERTEX
  8
0
  6
CONTINUOUS
 10
5.070120
 20
1.420760
  0
VERTEX
  8
0
  6
CONTINUOUS
 10
5.072760
 20
1.382920
  0
VERTEX
  8
0
  6
CONTINUOUS
 10
5.071880
 20
1.364000
  0
VERTEX
  8
0
  6
CONTINUOUS
 10
5.065720
 20
1.327040
  0
VERTEX
  8
0
  6
CONTINUOUS
 10
5.060440
 20
1.308560
  0
VERTEX
  8
0
  6
CONTINUOUS
 10
5.045480
 20
1.274680
  0
VERTEX
  8
0
  6
CONTINUOUS
 10
5.024800
 20
1.243880
  0
VERTEX
  8
0
  6
CONTINUOUS
 10
4.998400
 20
1.217920
  0
VERTEX
  8
0
  6
CONTINUOUS
 10
4.983000
 20
1.206920
  0
VERTEX
  8
0
  6
CONTINUOUS
 10
4.965840
 20
1.198120
  0
VERTEX
  8
0
  6
CONTINUOUS
 10
4.937680
 20
1.187560
  0
VERTEX
  8
0
  6
CONTINUOUS
 10
4.917000
 20
1.183160
  0
VERTEX
  8
0
  6
CONTINUOUS
 10
4.883560
 20
1.180520
  0
VERTEX
  8
0
  6
CONTINUOUS
 10
4.434760
 20
1.180520
  0
VERTEX
  8
0
  6
CONTINUOUS
 10
4.434760
 20
3.593920
  0
VERTEX
  8
0
  6
CONTINUOUS
 10
5.192880
 20
3.593920
  0
VERTEX
  8
0
  6
CONTINUOUS
 10
5.192880
 20
2.757040
  0
VERTEX
  8
0
  6
CONTINUOUS
 10
5.059560
 20
2.757040
  0
VERTEX
  8
0
  6
CONTINUOUS
 10
5.059560
 20
2.750880
  0
SEQEND
  8
0
  0
POLYLINE
  8
0
  6
CONTINUOUS
 66
     1
 40
0.014080
 41
0.014080
  0
VERTEX
  8
0
  6
CONTINUOUS
 10
5.192880
 20
3.072960
  0
VERTEX
  8
0
  6
CONTINUOUS
 10
5.192880
 20
3.593480
  0
VERTEX
  8
0
  6
CONTINUOUS
 10
4.434760
 20
3.593480
  0
VERTEX
  8
0
  6
CONTINUOUS
 10
4.434760
 20
3.936240
  0
VERTEX
  8
0
  6
CONTINUOUS
 10
5.217960
 20
3.935800
  0
VERTEX
  8
0
  6
CONTINUOUS
 10
5.262840
 20
3.931400
  0
VERTEX
  8
0
  6
CONTINUOUS
 10
5.305960
 20
3.923040
  0
VERTEX
  8
0
  6
CONTINUOUS
 10
5.347320
 20
3.910720
  0
VERTEX
  8
0
  6
CONTINUOUS
 10
5.386920
 20
3.894440
  0
VERTEX
  8
0
  6
CONTINUOUS
 10
5.424320
 20
3.874640
  0
VERTEX
  8
0
  6
CONTINUOUS
 10
5.459520
 20
3.851320
  0
VERTEX
  8
0
  6
CONTINUOUS
 10
5.492080
 20
3.824920
  0
VERTEX
  8
0
  6
CONTINUOUS
 10
5.521560
 20
3.795880
  0
VERTEX
  8
0
  6
CONTINUOUS
 10
5.548400
 20
3.763760
  0
VERTEX
  8
0
  6
CONTINUOUS
 10
5.571720
 20
3.729440
  0
VERTEX
  8
0
  6
CONTINUOUS
 10
5.591960
 20
3.692480
  0
VERTEX
  8
0
  6
CONTINUOUS
 10
5.608240
 20
3.653760
  0
VERTEX
  8
0
  6
CONTINUOUS
 10
5.621000
 20
3.613280
  0
VERTEX
  8
0
  6
CONTINUOUS
 10
5.629800
 20
3.571040
  0
VERTEX
  8
0
  6
CONTINUOUS
 10
5.634200
 20
3.527480
  0
VERTEX
  8
0
  6
CONTINUOUS
 10
5.634200
 20
3.482600
  0
VERTEX
  8
0
  6
CONTINUOUS
 10
5.629800
 20
3.439480
  0
VERTEX
  8
0
  6
CONTINUOUS
 10
5.621000
 20
3.397240
  0
VERTEX
  8
0
  6
CONTINUOUS
 10
5.608240
 20
3.356320
  0
VERTEX
  8
0
  6
CONTINUOUS
 10
5.591960
 20
3.317600
  0
VERTEX
  8
0
  6
CONTINUOUS
 10
5.572160
 20
3.281080
  0
VERTEX
  8
0
  6
CONTINUOUS
 10
5.536080
 20
3.230040
  0
VERTEX
  8
0
  6
CONTINUOUS
 10
5.492960
 20
3.185160
  0
VERTEX
  8
0
  6
CONTINUOUS
 10
5.460840
 20
3.158760
  0
VERTEX
  8
0
  6
CONTINUOUS
 10
5.426520
 20
3.135440
  0
VERTEX
  8
0
  6
CONTINUOUS
 10
5.390000
 20
3.115640
  0
VERTEX
  8
0
  6
CONTINUOUS
 10
5.351280
 20
3.099360
  0
VERTEX
  8
0
  6
CONTINUOUS
 10
5.310360
 20
3.086600
  0
VERTEX
  8
0
  6
CONTINUOUS
 10
5.268120
 20
3.077800
  0
VERTEX
  8
0
  6
CONTINUOUS
 10
5.225000
 20
3.073400
  0
VERTEX
  8
0
  6
CONTINUOUS
 10
5.192880
 20
3.072960
  0
SEQEND
  8
0
  0
TEXT
  8
0
 10
1.661440
 20
0.949520
 40
0.138164
  1
BA  739 7/8" x 1-3/16"
 41
1.000000
  7
SN0
 71
     0
 72
     5
 11
3.289806
 21
0.949520
  0
TEXT
  8
0
 10
1.661440
 20
0.758120
 40
0.138164
  1
BA  924 3/4" x 2-7/16"
 41
1.000000
  7
SN0
 71
     0
 72
     5
 11
3.289806
 21
0.758120
  0
SOLID
  8
0
 62
    15
 10
1.938200
 20
1.804440
 11
2.678720
 21
1.803560
 12
1.969440
 22
1.778920
 13
2.709960
 23
1.778040
  0
POLYLINE
  8
0
  6
CONTINUOUS
 66
     1
 40
0.000000
 41
0.000000
  0
VERTEX
  8
0
  6
CONTINUOUS
 10
1.938200
 20
1.804440
  0
VERTEX
  8
0
  6
CONTINUOUS
 10
2.678720
 20
1.803560
  0
VERTEX
  8
0
  6
CONTINUOUS
 10
2.709960
 20
1.778040
  0
VERTEX
  8
0
  6
CONTINUOUS
 10
1.969440
 20
1.778920
  0
VERTEX
  8
0
  6
CONTINUOUS
 10
1.938200
 20
1.804440
  0
SEQEND
  8
0
  0
SOLID
  8
0
 62
    15
 10
2.284040
 20
2.765400
 11
3.024560
 21
2.764520
 12
2.290200
 22
2.740320
 13
3.030720
 23
2.739440
  0
POLYLINE
  8
0
  6
CONTINUOUS
 66
     1
 40
0.000000
 41
0.000000
  0
VERTEX
  8
0
  6
CONTINUOUS
 10
2.284040
 20
2.765400
  0
VERTEX
  8
0
  6
CONTINUOUS
 10
3.024560
 20
2.764520
  0
VERTEX
  8
0
  6
CONTINUOUS
 10
3.030720
 20
2.739440
  0
VERTEX
  8
0
  6
CONTINUOUS
 10
2.290200
 20
2.740320
  0
VERTEX
  8
0
  6
CONTINUOUS
 10
2.284040
 20
2.765400
  0
SEQEND
  8
0
  0
SOLID
  8
0
 62
    15
 10
2.290200
 20
2.740320
 11
3.030720
 21
2.739440
 12
2.294160
 22
2.712160
 13
3.034680
 23
2.711280
  0
POLYLINE
  8
0
  6
CONTINUOUS
 66
     1
 40
0.000000
 41
0.000000
  0
VERTEX
  8
0
  6
CONTINUOUS
 10
2.290200
 20
2.740320
  0
VERTEX
  8
0
  6
CONTINUOUS
 10
3.030720
 20
2.739440
  0
VERTEX
  8
0
  6
CONTINUOUS
 10
3.034680
 20
2.711280
  0
VERTEX
  8
0
  6
CONTINUOUS
 10
2.294160
 20
2.712160
  0
VERTEX
  8
0
  6
CONTINUOUS
 10
2.290200
 20
2.740320
  0
SEQEND
  8
0
  0
SOLID
  8
0
 62
    15
 10
2.294160
 20
2.712160
 11
3.034680
 21
2.711280
 12
2.295040
 22
2.681800
 13
3.035560
 23
2.680920
  0
POLYLINE
  8
0
  6
CONTINUOUS
 66
     1
 40
0.000000
 41
0.000000
  0
VERTEX
  8
0
  6
CONTINUOUS
 10
2.294160
 20
2.712160
  0
VERTEX
  8
0
  6
CONTINUOUS
 10
3.034680
 20
2.711280
  0
VERTEX
  8
0
  6
CONTINUOUS
 10
3.035560
 20
2.680920
  0
VERTEX
  8
0
  6
CONTINUOUS
 10
2.295040
 20
2.681800
  0
VERTEX
  8
0
  6
CONTINUOUS
 10
2.294160
 20
2.712160
  0
SEQEND
  8
0
  0
SOLID
  8
0
 62
    15
 10
2.295040
 20
2.681800
 11
3.035560
 21
2.680920
 12
2.288000
 22
2.615360
 13
3.028520
 23
2.614920
  0
POLYLINE
  8
0
  6
CONTINUOUS
 66
     1
 40
0.000000
 41
0.000000
  0
VERTEX
  8
0
  6
CONTINUOUS
 10
2.295040
 20
2.681800
  0
VERTEX
  8
0
  6
CONTINUOUS
 10
3.035560
 20
2.680920
  0
VERTEX
  8
0
  6
CONTINUOUS
 10
3.028520
 20
2.614920
  0
VERTEX
  8
0
  6
CONTINUOUS
 10
2.288000
 20
2.615360
  0
VERTEX
  8
0
  6
CONTINUOUS
 10
2.295040
 20
2.681800
  0
SEQEND
  8
0
  0
SOLID
  8
0
 62
    15
 10
2.288000
 20
2.615360
 11
3.028520
 21
2.614920
 12
2.269080
 22
2.544080
 13
3.009600
 23
2.543640
  0
POLYLINE
  8
0
  6
CONTINUOUS
 66
     1
 40
0.000000
 41
0.000000
  0
VERTEX
  8
0
  6
CONTINUOUS
 10
2.288000
 20
2.615360
  0
VERTEX
  8
0
  6
CONTINUOUS
 10
3.028520
 20
2.614920
  0
VERTEX
  8
0
  6
CONTINUOUS
 10
3.009600
 20
2.543640
  0
VERTEX
  8
0
  6
CONTINUOUS
 10
2.269080
 20
2.544080
  0
VERTEX
  8
0
  6
CONTINUOUS
 10
2.288000
 20
2.615360
  0
SEQEND
  8
0
  0
SOLID
  8
0
 62
    15
 10
2.269080
 20
2.544080
 11
3.009600
 21
2.543640
 12
2.236960
 22
2.471040
 13
2.977480
 23
2.470160
  0
POLYLINE
  8
0
  6
CONTINUOUS
 66
     1
 40
0.000000
 41
0.000000
  0
VERTEX
  8
0
  6
CONTINUOUS
 10
2.269080
 20
2.544080
  0
VERTEX
  8
0
  6
CONTINUOUS
 10
3.009600
 20
2.543640
  0
VERTEX
  8
0
  6
CONTINUOUS
 10
2.977480
 20
2.470160
  0
VERTEX
  8
0
  6
CONTINUOUS
 10
2.236960
 20
2.471040
  0
VERTEX
  8
0
  6
CONTINUOUS
 10
2.269080
 20
2.544080
  0
SEQEND
  8
0
  0
SOLID
  8
0
 62
    15
 10
2.236960
 20
2.471040
 11
2.977480
 21
2.470160
 12
2.215840
 22
2.434520
 13
2.956360
 23
2.434080
  0
POLYLINE
  8
0
  6
CONTINUOUS
 66
     1
 40
0.000000
 41
0.000000
  0
VERTEX
  8
0
  6
CONTINUOUS
 10
2.236960
 20
2.471040
  0
VERTEX
  8
0
  6
CONTINUOUS
 10
2.977480
 20
2.470160
  0
VERTEX
  8
0
  6
CONTINUOUS
 10
2.956360
 20
2.434080
  0
VERTEX
  8
0
  6
CONTINUOUS
 10
2.215840
 20
2.434520
  0
VERTEX
  8
0
  6
CONTINUOUS
 10
2.236960
 20
2.471040
  0
SEQEND
  8
0
  0
SOLID
  8
0
 62
    15
 10
2.215840
 20
2.434520
 11
2.956360
 21
2.434080
 12
2.190760
 22
2.398880
 13
2.931280
 23
2.398440
  0
POLYLINE
  8
0
  6
CONTINUOUS
 66
     1
 40
0.000000
 41
0.000000
  0
VERTEX
  8
0
  6
CONTINUOUS
 10
2.215840
 20
2.434520
  0
VERTEX
  8
0
  6
CONTINUOUS
 10
2.956360
 20
2.434080
  0
VERTEX
  8
0
  6
CONTINUOUS
 10
2.931280
 20
2.398440
  0
VERTEX
  8
0
  6
CONTINUOUS
 10
2.190760
 20
2.398880
  0
VERTEX
  8
0
  6
CONTINUOUS
 10
2.215840
 20
2.434520
  0
SEQEND
  8
0
  0
SOLID
  8
0
 62
    15
 10
2.190760
 20
2.398880
 11
2.931280
 21
2.398440
 12
2.162600
 22
2.364560
 13
2.903120
 23
2.363680
  0
POLYLINE
  8
0
  6
CONTINUOUS
 66
     1
 40
0.000000
 41
0.000000
  0
VERTEX
  8
0
  6
CONTINUOUS
 10
2.190760
 20
2.398880
  0
VERTEX
  8
0
  6
CONTINUOUS
 10
2.931280
 20
2.398440
  0
VERTEX
  8
0
  6
CONTINUOUS
 10
2.903120
 20
2.363680
  0
VERTEX
  8
0
  6
CONTINUOUS
 10
2.162600
 20
2.364560
  0
VERTEX
  8
0
  6
CONTINUOUS
 10
2.190760
 20
2.398880
  0
SEQEND
  8
0
  0
SOLID
  8
0
 62
    15
 10
2.162600
 20
2.364560
 11
2.903120
 21
2.363680
 12
2.130480
 22
2.331120
 13
2.871000
 23
2.330680
  0
POLYLINE
  8
0
  6
CONTINUOUS
 66
     1
 40
0.000000
 41
0.000000
  0
VERTEX
  8
0
  6
CONTINUOUS
 10
2.162600
 20
2.364560
  0
VERTEX
  8
0
  6
CONTINUOUS
 10
2.903120
 20
2.363680
  0
VERTEX
  8
0
  6
CONTINUOUS
 10
2.871000
 20
2.330680
  0
VERTEX
  8
0
  6
CONTINUOUS
 10
2.130480
 20
2.331120
  0
VERTEX
  8
0
  6
CONTINUOUS
 10
2.162600
 20
2.364560
  0
SEQEND
  8
0
  0
SOLID
  8
0
 62
    15
 10
2.130480
 20
2.331120
 11
2.871000
 21
2.330680
 12
2.094400
 22
2.299880
 13
2.834920
 23
2.299000
  0
POLYLINE
  8
0
  6
CONTINUOUS
 66
     1
 40
0.000000
 41
0.000000
  0
VERTEX
  8
0
  6
CONTINUOUS
 10
2.130480
 20
2.331120
  0
VERTEX
  8
0
  6
CONTINUOUS
 10
2.871000
 20
2.330680
  0
VERTEX
  8
0
  6
CONTINUOUS
 10
2.834920
 20
2.299000
  0
VERTEX
  8
0
  6
CONTINUOUS
 10
2.094400
 20
2.299880
  0
VERTEX
  8
0
  6
CONTINUOUS
 10
2.130480
 20
2.331120
  0
SEQEND
  8
0
  0
SOLID
  8
0
 62
    15
 10
2.094400
 20
2.299880
 11
2.834920
 21
2.299000
 12
2.054360
 22
2.270840
 13
2.794880
 23
2.269960
  0
POLYLINE
  8
0
  6
CONTINUOUS
 66
     1
 40
0.000000
 41
0.000000
  0
VERTEX
  8
0
  6
CONTINUOUS
 10
2.094400
 20
2.299880
  0
VERTEX
  8
0
  6
CONTINUOUS
 10
2.834920
 20
2.299000
  0
VERTEX
  8
0
  6
CONTINUOUS
 10
2.794880
 20
2.269960
  0
VERTEX
  8
0
  6
CONTINUOUS
 10
2.054360
 20
2.270840
  0
VERTEX
  8
0
  6
CONTINUOUS
 10
2.094400
 20
2.299880
  0
SEQEND
  8
0
  0
SOLID
  8
0
 62
    15
 10
2.054360
 20
2.270840
 11
2.794880
 21
2.269960
 12
2.014760
 22
2.240480
 13
2.755280
 23
2.239600
  0
POLYLINE
  8
0
  6
CONTINUOUS
 66
     1
 40
0.000000
 41
0.000000
  0
VERTEX
  8
0
  6
CONTINUOUS
 10
2.054360
 20
2.270840
  0
VERTEX
  8
0
  6
CONTINUOUS
 10
2.794880
 20
2.269960
  0
VERTEX
  8
0
  6
CONTINUOUS
 10
2.755280
 20
2.239600
  0
VERTEX
  8
0
  6
CONTINUOUS
 10
2.014760
 20
2.240480
  0
VERTEX
  8
0
  6
CONTINUOUS
 10
2.054360
 20
2.270840
  0
SEQEND
  8
0
  0
SOLID
  8
0
 62
    15
 10
2.014760
 20
2.240480
 11
2.755280
 21
2.239600
 12
1.980000
 22
2.205280
 13
2.720520
 23
2.204840
  0
POLYLINE
  8
0
  6
CONTINUOUS
 66
     1
 40
0.000000
 41
0.000000
  0
VERTEX
  8
0
  6
CONTINUOUS
 10
2.014760
 20
2.240480
  0
VERTEX
  8
0
  6
CONTINUOUS
 10
2.755280
 20
2.239600
  0
VERTEX
  8
0
  6
CONTINUOUS
 10
2.720520
 20
2.204840
  0
VERTEX
  8
0
  6
CONTINUOUS
 10
1.980000
 20
2.205280
  0
VERTEX
  8
0
  6
CONTINUOUS
 10
2.014760
 20
2.240480
  0
SEQEND
  8
0
  0
SOLID
  8
0
 62
    15
 10
1.980000
 20
2.205280
 11
2.720520
 21
2.204840
 12
1.950080
 22
2.167000
 13
2.690600
 23
2.166120
  0
POLYLINE
  8
0
  6
CONTINUOUS
 66
     1
 40
0.000000
 41
0.000000
  0
VERTEX
  8
0
  6
CONTINUOUS
 10
1.980000
 20
2.205280
  0
VERTEX
  8
0
  6
CONTINUOUS
 10
2.720520
 20
2.204840
  0
VERTEX
  8
0
  6
CONTINUOUS
 10
2.690600
 20
2.166120
  0
VERTEX
  8
0
  6
CONTINUOUS
 10
1.950080
 20
2.167000
  0
VERTEX
  8
0
  6
CONTINUOUS
 10
1.980000
 20
2.205280
  0
SEQEND
  8
0
  0
SOLID
  8
0
 62
    15
 10
1.950080
 20
2.167000
 11
2.690600
 21
2.166120
 12
1.925440
 22
2.125640
 13
2.665960
 23
2.124760
  0
POLYLINE
  8
0
  6
CONTINUOUS
 66
     1
 40
0.000000
 41
0.000000
  0
VERTEX
  8
0
  6
CONTINUOUS
 10
1.950080
 20
2.167000
  0
VERTEX
  8
0
  6
CONTINUOUS
 10
2.690600
 20
2.166120
  0
VERTEX
  8
0
  6
CONTINUOUS
 10
2.665960
 20
2.124760
  0
VERTEX
  8
0
  6
CONTINUOUS
 10
1.925440
 20
2.125640
  0
VERTEX
  8
0
  6
CONTINUOUS
 10
1.950080
 20
2.167000
  0
SEQEND
  8
0
  0
SOLID
  8
0
 62
    15
 10
1.925440
 20
2.125640
 11
2.665960
 21
2.124760
 12
1.906080
 22
2.082520
 13
2.646600
 23
2.081640
  0
POLYLINE
  8
0
  6
CONTINUOUS
 66
     1
 40
0.000000
 41
0.000000
  0
VERTEX
  8
0
  6
CONTINUOUS
 10
1.925440
 20
2.125640
  0
VERTEX
  8
0
  6
CONTINUOUS
 10
2.665960
 20
2.124760
  0
VERTEX
  8
0
  6
CONTINUOUS
 10
2.646600
 20
2.081640
  0
VERTEX
  8
0
  6
CONTINUOUS
 10
1.906080
 20
2.082520
  0
VERTEX
  8
0
  6
CONTINUOUS
 10
1.925440
 20
2.125640
  0
SEQEND
  8
0
  0
SOLID
  8
0
 62
    15
 10
1.906080
 20
2.082520
 11
2.646600
 21
2.081640
 12
1.892440
 22
2.038520
 13
2.632960
 23
2.037640
  0
POLYLINE
  8
0
  6
CONTINUOUS
 66
     1
 40
0.000000
 41
0.000000
  0
VERTEX
  8
0
  6
CONTINUOUS
 10
1.906080
 20
2.082520
  0
VERTEX
  8
0
  6
CONTINUOUS
 10
2.646600
 20
2.081640
  0
VERTEX
  8
0
  6
CONTINUOUS
 10
2.632960
 20
2.037640
  0
VERTEX
  8
0
  6
CONTINUOUS
 10
1.892440
 20
2.038520
  0
VERTEX
  8
0
  6
CONTINUOUS
 10
1.906080
 20
2.082520
  0
SEQEND
  8
0
  0
SOLID
  8
0
 62
    15
 10
1.892440
 20
2.038520
 11
2.632960
 21
2.037640
 12
1.884520
 22
1.994520
 13
2.624600
 23
1.993640
  0
POLYLINE
  8
0
  6
CONTINUOUS
 66
     1
 40
0.000000
 41
0.000000
  0
VERTEX
  8
0
  6
CONTINUOUS
 10
1.892440
 20
2.038520
  0
VERTEX
  8
0
  6
CONTINUOUS
 10
2.632960
 20
2.037640
  0
VERTEX
  8
0
  6
CONTINUOUS
 10
2.624600
 20
1.993640
  0
VERTEX
  8
0
  6
CONTINUOUS
 10
1.884520
 20
1.994520
  0
VERTEX
  8
0
  6
CONTINUOUS
 10
1.892440
 20
2.038520
  0
SEQEND
  8
0
  0
SOLID
  8
0
 62
    15
 10
1.884520
 20
1.994520
 11
2.624600
 21
1.993640
 12
1.882320
 22
1.950960
 13
2.622840
 23
1.950520
  0
POLYLINE
  8
0
  6
CONTINUOUS
 66
     1
 40
0.000000
 41
0.000000
  0
VERTEX
  8
0
  6
CONTINUOUS
 10
1.884520
 20
1.994520
  0
VERTEX
  8
0
  6
CONTINUOUS
 10
2.624600
 20
1.993640
  0
VERTEX
  8
0
  6
CONTINUOUS
 10
2.622840
 20
1.950520
  0
VERTEX
  8
0
  6
CONTINUOUS
 10
1.882320
 20
1.950960
  0
VERTEX
  8
0
  6
CONTINUOUS
 10
1.884520
 20
1.994520
  0
SEQEND
  8
0
  0
SOLID
  8
0
 62
    15
 10
1.882320
 20
1.950960
 11
2.622840
 21
1.950520
 12
1.886720
 22
1.909600
 13
2.627240
 23
1.908720
  0
POLYLINE
  8
0
  6
CONTINUOUS
 66
     1
 40
0.000000
 41
0.000000
  0
VERTEX
  8
0
  6
CONTINUOUS
 10
1.882320
 20
1.950960
  0
VERTEX
  8
0
  6
CONTINUOUS
 10
2.622840
 20
1.950520
  0
VERTEX
  8
0
  6
CONTINUOUS
 10
2.627240
 20
1.908720
  0
VERTEX
  8
0
  6
CONTINUOUS
 10
1.886720
 20
1.909600
  0
VERTEX
  8
0
  6
CONTINUOUS
 10
1.882320
 20
1.950960
  0
SEQEND
  8
0
  0
SOLID
  8
0
 62
    15
 10
1.886720
 20
1.909600
 11
2.627240
 21
1.908720
 12
1.897280
 22
1.870880
 13
2.637800
 23
1.870000
  0
POLYLINE
  8
0
  6
CONTINUOUS
 66
     1
 40
0.000000
 41
0.000000
  0
VERTEX
  8
0
  6
CONTINUOUS
 10
1.886720
 20
1.909600
  0
VERTEX
  8
0
  6
CONTINUOUS
 10
2.627240
 20
1.908720
  0
VERTEX
  8
0
  6
CONTINUOUS
 10
2.637800
 20
1.870000
  0
VERTEX
  8
0
  6
CONTINUOUS
 10
1.897280
 20
1.870880
  0
VERTEX
  8
0
  6
CONTINUOUS
 10
1.886720
 20
1.909600
  0
SEQEND
  8
0
  0
SOLID
  8
0
 62
    15
 10
1.897280
 20
1.870880
 11
2.637800
 21
1.870000
 12
1.914440
 22
1.835240
 13
2.654960
 23
1.834800
  0
POLYLINE
  8
0
  6
CONTINUOUS
 66
     1
 40
0.000000
 41
0.000000
  0
VERTEX
  8
0
  6
CONTINUOUS
 10
1.897280
 20
1.870880
  0
VERTEX
  8
0
  6
CONTINUOUS
 10
2.637800
 20
1.870000
  0
VERTEX
  8
0
  6
CONTINUOUS
 10
2.654960
 20
1.834800
  0
VERTEX
  8
0
  6
CONTINUOUS
 10
1.914440
 20
1.835240
  0
VERTEX
  8
0
  6
CONTINUOUS
 10
1.897280
 20
1.870880
  0
SEQEND
  8
0
  0
SOLID
  8
0
 62
    15
 10
1.914440
 20
1.835240
 11
2.654960
 21
1.834800
 12
1.938200
 22
1.804440
 13
2.678720
 23
1.803560
  0
POLYLINE
  8
0
  6
CONTINUOUS
 66
     1
 40
0.000000
 41
0.000000
  0
VERTEX
  8
0
  6
CONTINUOUS
 10
1.914440
 20
1.835240
  0
VERTEX
  8
0
  6
CONTINUOUS
 10
2.654960
 20
1.834800
  0
VERTEX
  8
0
  6
CONTINUOUS
 10
2.678720
 20
1.803560
  0
VERTEX
  8
0
  6
CONTINUOUS
 10
1.938200
 20
1.804440
  0
VERTEX
  8
0
  6
CONTINUOUS
 10
1.914440
 20
1.835240
  0
SEQEND
  8
0
  0
SOLID
  8
0
 62
    15
 10
2.274800
 20
2.787400
 11
3.015320
 21
2.786520
 12
2.284040
 22
2.765400
 13
3.024560
 23
2.764520
  0
POLYLINE
  8
0
  6
CONTINUOUS
 66
     1
 40
0.000000
 41
0.000000
  0
VERTEX
  8
0
  6
CONTINUOUS
 10
2.274800
 20
2.787400
  0
VERTEX
  8
0
  6
CONTINUOUS
 10
3.015320
 20
2.786520
  0
VERTEX
  8
0
  6
CONTINUOUS
 10
3.024560
 20
2.764520
  0
VERTEX
  8
0
  6
CONTINUOUS
 10
2.284040
 20
2.765400
  0
VERTEX
  8
0
  6
CONTINUOUS
 10
2.274800
 20
2.787400
  0
SEQEND
  8
0
  0
SOLID
  8
0
 62
    15
 10
1.969440
 20
1.778920
 11
2.709960
 21
1.778040
 12
2.007720
 22
1.759560
 13
2.748240
 23
1.758680
  0
POLYLINE
  8
0
  6
CONTINUOUS
 66
     1
 40
0.000000
 41
0.000000
  0
VERTEX
  8
0
  6
CONTINUOUS
 10
1.969440
 20
1.778920
  0
VERTEX
  8
0
  6
CONTINUOUS
 10
2.709960
 20
1.778040
  0
VERTEX
  8
0
  6
CONTINUOUS
 10
2.748240
 20
1.758680
  0
VERTEX
  8
0
  6
CONTINUOUS
 10
2.007720
 20
1.759560
  0
VERTEX
  8
0
  6
CONTINUOUS
 10
1.969440
 20
1.778920
  0
SEQEND
  8
0
  0
SOLID
  8
0
 62
    15
 10
2.007720
 20
1.759560
 11
2.748240
 21
1.758680
 12
2.053480
 22
1.747240
 13
2.794000
 23
1.746360
  0
POLYLINE
  8
0
  6
CONTINUOUS
 66
     1
 40
0.000000
 41
0.000000
  0
VERTEX
  8
0
  6
CONTINUOUS
 10
2.007720
 20
1.759560
  0
VERTEX
  8
0
  6
CONTINUOUS
 10
2.748240
 20
1.758680
  0
VERTEX
  8
0
  6
CONTINUOUS
 10
2.794000
 20
1.746360
  0
VERTEX
  8
0
  6
CONTINUOUS
 10
2.053480
 20
1.747240
  0
VERTEX
  8
0
  6
CONTINUOUS
 10
2.007720
 20
1.759560
  0
SEQEND
  8
0
  0
SOLID
  8
0
 62
    15
 10
2.053480
 20
1.747240
 11
2.794000
 21
1.746360
 12
2.106720
 22
1.742840
 13
2.847240
 23
1.741960
  0
POLYLINE
  8
0
  6
CONTINUOUS
 66
     1
 40
0.000000
 41
0.000000
  0
VERTEX
  8
0
  6
CONTINUOUS
 10
2.053480
 20
1.747240
  0
VERTEX
  8
0
  6
CONTINUOUS
 10
2.794000
 20
1.746360
  0
VERTEX
  8
0
  6
CONTINUOUS
 10
2.847240
 20
1.741960
  0
VERTEX
  8
0
  6
CONTINUOUS
 10
2.106720
 20
1.742840
  0
VERTEX
  8
0
  6
CONTINUOUS
 10
2.053480
 20
1.747240
  0
SEQEND
  8
0
  0
SOLID
  8
0
 62
    15
 10
2.106720
 20
1.742840
 11
2.847240
 21
1.741960
 12
2.106720
 22
1.621840
 13
2.847240
 23
1.621400
  0
POLYLINE
  8
0
  6
CONTINUOUS
 66
     1
 40
0.000000
 41
0.000000
  0
VERTEX
  8
0
  6
CONTINUOUS
 10
2.106720
 20
1.742840
  0
VERTEX
  8
0
  6
CONTINUOUS
 10
2.847240
 20
1.741960
  0
VERTEX
  8
0
  6
CONTINUOUS
 10
2.847240
 20
1.621400
  0
VERTEX
  8
0
  6
CONTINUOUS
 10
2.106720
 20
1.621840
  0
VERTEX
  8
0
  6
CONTINUOUS
 10
2.106720
 20
1.742840
  0
SEQEND
  8
0
  0
SOLID
  8
0
 62
    15
 10
2.106720
 20
1.621840
 11
2.847240
 21
1.621400
 12
2.149400
 22
1.617440
 13
2.889920
 23
1.616560
  0
POLYLINE
  8
0
  6
CONTINUOUS
 66
     1
 40
0.000000
 41
0.000000
  0
VERTEX
  8
0
  6
CONTINUOUS
 10
2.106720
 20
1.621840
  0
VERTEX
  8
0
  6
CONTINUOUS
 10
2.847240
 20
1.621400
  0
VERTEX
  8
0
  6
CONTINUOUS
 10
2.889920
 20
1.616560
  0
VERTEX
  8
0
  6
CONTINUOUS
 10
2.149400
 20
1.617440
  0
VERTEX
  8
0
  6
CONTINUOUS
 10
2.106720
 20
1.621840
  0
SEQEND
  8
0
  0
SOLID
  8
0
 62
    15
 10
2.149400
 20
1.617440
 11
2.889920
 21
1.616560
 12
2.186360
 22
1.604680
 13
2.926880
 23
1.603800
  0
POLYLINE
  8
0
  6
CONTINUOUS
 66
     1
 40
0.000000
 41
0.000000
  0
VERTEX
  8
0
  6
CONTINUOUS
 10
2.149400
 20
1.617440
  0
VERTEX
  8
0
  6
CONTINUOUS
 10
2.889920
 20
1.616560
  0
VERTEX
  8
0
  6
CONTINUOUS
 10
2.926880
 20
1.603800
  0
VERTEX
  8
0
  6
CONTINUOUS
 10
2.186360
 20
1.604680
  0
VERTEX
  8
0
  6
CONTINUOUS
 10
2.149400
 20
1.617440
  0
SEQEND
  8
0
  0
SOLID
  8
0
 62
    15
 10
2.186360
 20
1.604680
 11
2.926880
 21
1.603800
 12
2.217600
 22
1.584440
 13
2.958120
 23
1.584000
  0
POLYLINE
  8
0
  6
CONTINUOUS
 66
     1
 40
0.000000
 41
0.000000
  0
VERTEX
  8
0
  6
CONTINUOUS
 10
2.186360
 20
1.604680
  0
VERTEX
  8
0
  6
CONTINUOUS
 10
2.926880
 20
1.603800
  0
VERTEX
  8
0
  6
CONTINUOUS
 10
2.958120
 20
1.584000
  0
VERTEX
  8
0
  6
CONTINUOUS
 10
2.217600
 20
1.584440
  0
VERTEX
  8
0
  6
CONTINUOUS
 10
2.186360
 20
1.604680
  0
SEQEND
  8
0
  0
SOLID
  8
0
 62
    15
 10
2.217600
 20
1.584440
 11
2.958120
 21
1.584000
 12
2.243560
 22
1.558480
 13
2.983640
 23
1.558040
  0
POLYLINE
  8
0
  6
CONTINUOUS
 66
     1
 40
0.000000
 41
0.000000
  0
VERTEX
  8
0
  6
CONTINUOUS
 10
2.217600
 20
1.584440
  0
VERTEX
  8
0
  6
CONTINUOUS
 10
2.958120
 20
1.584000
  0
VERTEX
  8
0
  6
CONTINUOUS
 10
2.983640
 20
1.558040
  0
VERTEX
  8
0
  6
CONTINUOUS
 10
2.243560
 20
1.558480
  0
VERTEX
  8
0
  6
CONTINUOUS
 10
2.217600
 20
1.584440
  0
SEQEND
  8
0
  0
SOLID
  8
0
 62
    15
 10
2.243560
 20
1.558480
 11
2.983640
 21
1.558040
 12
2.263360
 22
1.528120
 13
3.003880
 23
1.527240
  0
POLYLINE
  8
0
  6
CONTINUOUS
 66
     1
 40
0.000000
 41
0.000000
  0
VERTEX
  8
0
  6
CONTINUOUS
 10
2.243560
 20
1.558480
  0
VERTEX
  8
0
  6
CONTINUOUS
 10
2.983640
 20
1.558040
  0
VERTEX
  8
0
  6
CONTINUOUS
 10
3.003880
 20
1.527240
  0
VERTEX
  8
0
  6
CONTINUOUS
 10
2.263360
 20
1.528120
  0
VERTEX
  8
0
  6
CONTINUOUS
 10
2.243560
 20
1.558480
  0
SEQEND
  8
0
  0
SOLID
  8
0
 62
    15
 10
2.263360
 20
1.528120
 11
3.003880
 21
1.527240
 12
2.277440
 22
1.493800
 13
3.017960
 23
1.492920
  0
POLYLINE
  8
0
  6
CONTINUOUS
 66
     1
 40
0.000000
 41
0.000000
  0
VERTEX
  8
0
  6
CONTINUOUS
 10
2.263360
 20
1.528120
  0
VERTEX
  8
0
  6
CONTINUOUS
 10
3.003880
 20
1.527240
  0
VERTEX
  8
0
  6
CONTINUOUS
 10
3.017960
 20
1.492920
  0
VERTEX
  8
0
  6
CONTINUOUS
 10
2.277440
 20
1.493800
  0
VERTEX
  8
0
  6
CONTINUOUS
 10
2.263360
 20
1.528120
  0
SEQEND
  8
0
  0
SOLID
  8
0
 62
    15
 10
2.277440
 20
1.493800
 11
3.017960
 21
1.492920
 12
2.285800
 22
1.457280
 13
3.026320
 23
1.456400
  0
POLYLINE
  8
0
  6
CONTINUOUS
 66
     1
 40
0.000000
 41
0.000000
  0
VERTEX
  8
0
  6
CONTINUOUS
 10
2.277440
 20
1.493800
  0
VERTEX
  8
0
  6
CONTINUOUS
 10
3.017960
 20
1.492920
  0
VERTEX
  8
0
  6
CONTINUOUS
 10
3.026320
 20
1.456400
  0
VERTEX
  8
0
  6
CONTINUOUS
 10
2.285800
 20
1.457280
  0
VERTEX
  8
0
  6
CONTINUOUS
 10
2.277440
 20
1.493800
  0
SEQEND
  8
0
  0
SOLID
  8
0
 62
    15
 10
2.285800
 20
1.457280
 11
3.026320
 21
1.456400
 12
2.288000
 22
1.419440
 13
3.028520
 23
1.418560
  0
POLYLINE
  8
0
  6
CONTINUOUS
 66
     1
 40
0.000000
 41
0.000000
  0
VERTEX
  8
0
  6
CONTINUOUS
 10
2.285800
 20
1.457280
  0
VERTEX
  8
0
  6
CONTINUOUS
 10
3.026320
 20
1.456400
  0
VERTEX
  8
0
  6
CONTINUOUS
 10
3.028520
 20
1.418560
  0
VERTEX
  8
0
  6
CONTINUOUS
 10
2.288000
 20
1.419440
  0
VERTEX
  8
0
  6
CONTINUOUS
 10
2.285800
 20
1.457280
  0
SEQEND
  8
0
  0
SOLID
  8
0
 62
    15
 10
2.288000
 20
1.419440
 11
3.028520
 21
1.418560
 12
2.284920
 22
1.381600
 13
3.025440
 23
1.380720
  0
POLYLINE
  8
0
  6
CONTINUOUS
 66
     1
 40
0.000000
 41
0.000000
  0
VERTEX
  8
0
  6
CONTINUOUS
 10
2.288000
 20
1.419440
  0
VERTEX
  8
0
  6
CONTINUOUS
 10
3.028520
 20
1.418560
  0
VERTEX
  8
0
  6
CONTINUOUS
 10
3.025440
 20
1.380720
  0
VERTEX
  8
0
  6
CONTINUOUS
 10
2.284920
 20
1.381600
  0
VERTEX
  8
0
  6
CONTINUOUS
 10
2.288000
 20
1.419440
  0
SEQEND
  8
0
  0
SOLID
  8
0
 62
    15
 10
2.284920
 20
1.381600
 11
3.025440
 21
1.380720
 12
2.276120
 22
1.345080
 13
3.016200
 23
1.344200
  0
POLYLINE
  8
0
  6
CONTINUOUS
 66
     1
 40
0.000000
 41
0.000000
  0
VERTEX
  8
0
  6
CONTINUOUS
 10
2.284920
 20
1.381600
  0
VERTEX
  8
0
  6
CONTINUOUS
 10
3.025440
 20
1.380720
  0
VERTEX
  8
0
  6
CONTINUOUS
 10
3.016200
 20
1.344200
  0
VERTEX
  8
0
  6
CONTINUOUS
 10
2.276120
 20
1.345080
  0
VERTEX
  8
0
  6
CONTINUOUS
 10
2.284920
 20
1.381600
  0
SEQEND
  8
0
  0
SOLID
  8
0
 62
    15
 10
2.276120
 20
1.345080
 11
3.016200
 21
1.344200
 12
2.261160
 22
1.310760
 13
3.001680
 23
1.309880
  0
POLYLINE
  8
0
  6
CONTINUOUS
 66
     1
 40
0.000000
 41
0.000000
  0
VERTEX
  8
0
  6
CONTINUOUS
 10
2.276120
 20
1.345080
  0
VERTEX
  8
0
  6
CONTINUOUS
 10
3.016200
 20
1.344200
  0
VERTEX
  8
0
  6
CONTINUOUS
 10
3.001680
 20
1.309880
  0
VERTEX
  8
0
  6
CONTINUOUS
 10
2.261160
 20
1.310760
  0
VERTEX
  8
0
  6
CONTINUOUS
 10
2.276120
 20
1.345080
  0
SEQEND
  8
0
  0
SOLID
  8
0
 62
    15
 10
2.261160
 20
1.310760
 11
3.001680
 21
1.309880
 12
2.240480
 22
1.279960
 13
2.981000
 23
1.279080
  0
POLYLINE
  8
0
  6
CONTINUOUS
 66
     1
 40
0.000000
 41
0.000000
  0
VERTEX
  8
0
  6
CONTINUOUS
 10
2.261160
 20
1.310760
  0
VERTEX
  8
0
  6
CONTINUOUS
 10
3.001680
 20
1.309880
  0
VERTEX
  8
0
  6
CONTINUOUS
 10
2.981000
 20
1.279080
  0
VERTEX
  8
0
  6
CONTINUOUS
 10
2.240480
 20
1.279960
  0
VERTEX
  8
0
  6
CONTINUOUS
 10
2.261160
 20
1.310760
  0
SEQEND
  8
0
  0
SOLID
  8
0
 62
    15
 10
2.240480
 20
1.279960
 11
2.981000
 21
1.279080
 12
2.213640
 22
1.254000
 13
2.954160
 23
1.253120
  0
POLYLINE
  8
0
  6
CONTINUOUS
 66
     1
 40
0.000000
 41
0.000000
  0
VERTEX
  8
0
  6
CONTINUOUS
 10
2.240480
 20
1.279960
  0
VERTEX
  8
0
  6
CONTINUOUS
 10
2.981000
 20
1.279080
  0
VERTEX
  8
0
  6
CONTINUOUS
 10
2.954160
 20
1.253120
  0
VERTEX
  8
0
  6
CONTINUOUS
 10
2.213640
 20
1.254000
  0
VERTEX
  8
0
  6
CONTINUOUS
 10
2.240480
 20
1.279960
  0
SEQEND
  8
0
  0
SOLID
  8
0
 62
    15
 10
2.213640
 20
1.254000
 11
2.954160
 21
1.253120
 12
2.181520
 22
1.234200
 13
2.922040
 23
1.233320
  0
POLYLINE
  8
0
  6
CONTINUOUS
 66
     1
 40
0.000000
 41
0.000000
  0
VERTEX
  8
0
  6
CONTINUOUS
 10
2.213640
 20
1.254000
  0
VERTEX
  8
0
  6
CONTINUOUS
 10
2.954160
 20
1.253120
  0
VERTEX
  8
0
  6
CONTINUOUS
 10
2.922040
 20
1.233320
  0
VERTEX
  8
0
  6
CONTINUOUS
 10
2.181520
 20
1.234200
  0
VERTEX
  8
0
  6
CONTINUOUS
 10
2.213640
 20
1.254000
  0
SEQEND
  8
0
  0
SOLID
  8
0
 62
    15
 10
2.143240
 20
1.221000
 11
2.883760
 21
1.220560
 12
2.099240
 22
1.216600
 13
2.839760
 23
1.215720
  0
POLYLINE
  8
0
  6
CONTINUOUS
 66
     1
 40
0.000000
 41
0.000000
  0
VERTEX
  8
0
  6
CONTINUOUS
 10
2.143240
 20
1.221000
  0
VERTEX
  8
0
  6
CONTINUOUS
 10
2.883760
 20
1.220560
  0
VERTEX
  8
0
  6
CONTINUOUS
 10
2.839760
 20
1.215720
  0
VERTEX
  8
0
  6
CONTINUOUS
 10
2.099240
 20
1.216600
  0
VERTEX
  8
0
  6
CONTINUOUS
 10
2.143240
 20
1.221000
  0
SEQEND
  8
0
  0
SOLID
  8
0
 62
    15
 10
2.181520
 20
1.234200
 11
2.922040
 21
1.233320
 12
2.143240
 22
1.221000
 13
2.883760
 23
1.220560
  0
POLYLINE
  8
0
  6
CONTINUOUS
 66
     1
 40
0.000000
 41
0.000000
  0
VERTEX
  8
0
  6
CONTINUOUS
 10
2.181520
 20
1.234200
  0
VERTEX
  8
0
  6
CONTINUOUS
 10
2.922040
 20
1.233320
  0
VERTEX
  8
0
  6
CONTINUOUS
 10
2.883760
 20
1.220560
  0
VERTEX
  8
0
  6
CONTINUOUS
 10
2.143240
 20
1.221000
  0
VERTEX
  8
0
  6
CONTINUOUS
 10
2.181520
 20
1.234200
  0
SEQEND
  8
0
  0
SOLID
  8
0
 62
    15
 10
2.099240
 20
1.216600
 11
2.839760
 21
1.215720
 12
1.650000
 22
1.216600
 13
2.390520
 23
1.215720
  0
POLYLINE
  8
0
  6
CONTINUOUS
 66
     1
 40
0.000000
 41
0.000000
  0
VERTEX
  8
0
  6
CONTINUOUS
 10
2.099240
 20
1.216600
  0
VERTEX
  8
0
  6
CONTINUOUS
 10
2.839760
 20
1.215720
  0
VERTEX
  8
0
  6
CONTINUOUS
 10
2.390520
 20
1.215720
  0
VERTEX
  8
0
  6
CONTINUOUS
 10
1.650000
 20
1.216600
  0
VERTEX
  8
0
  6
CONTINUOUS
 10
2.099240
 20
1.216600
  0
SEQEND
  8
0
  0
SOLID
  8
0
 62
    15
 10
2.408560
 20
3.630000
 11
3.148640
 21
3.629120
 12
2.408560
 22
2.793120
 13
3.148640
 23
2.792680
  0
POLYLINE
  8
0
  6
CONTINUOUS
 66
     1
 40
0.000000
 41
0.000000
  0
VERTEX
  8
0
  6
CONTINUOUS
 10
2.408560
 20
3.630000
  0
VERTEX
  8
0
  6
CONTINUOUS
 10
3.148640
 20
3.629120
  0
VERTEX
  8
0
  6
CONTINUOUS
 10
3.148640
 20
2.792680
  0
VERTEX
  8
0
  6
CONTINUOUS
 10
2.408560
 20
2.793120
  0
VERTEX
  8
0
  6
CONTINUOUS
 10
2.408560
 20
3.630000
  0
SEQEND
  8
0
  0
SOLID
  8
0
 62
    15
 10
2.408560
 20
2.793120
 11
3.148640
 21
2.792680
 12
2.274800
 22
2.793120
 13
3.015320
 23
2.792680
  0
POLYLINE
  8
0
  6
CONTINUOUS
 66
     1
 40
0.000000
 41
0.000000
  0
VERTEX
  8
0
  6
CONTINUOUS
 10
2.408560
 20
2.793120
  0
VERTEX
  8
0
  6
CONTINUOUS
 10
3.148640
 20
2.792680
  0
VERTEX
  8
0
  6
CONTINUOUS
 10
3.015320
 20
2.792680
  0
VERTEX
  8
0
  6
CONTINUOUS
 10
2.274800
 20
2.793120
  0
VERTEX
  8
0
  6
CONTINUOUS
 10
2.408560
 20
2.793120
  0
SEQEND
  8
0
  0
SOLID
  8
0
 62
    15
 10
2.274800
 20
2.793120
 11
3.015320
 21
2.792680
 12
2.274800
 22
2.787400
 13
3.015320
 23
2.786520
  0
POLYLINE
  8
0
  6
CONTINUOUS
 66
     1
 40
0.000000
 41
0.000000
  0
VERTEX
  8
0
  6
CONTINUOUS
 10
2.274800
 20
2.793120
  0
VERTEX
  8
0
  6
CONTINUOUS
 10
3.015320
 20
2.792680
  0
VERTEX
  8
0
  6
CONTINUOUS
 10
3.015320
 20
2.786520
  0
VERTEX
  8
0
  6
CONTINUOUS
 10
2.274800
 20
2.787400
  0
VERTEX
  8
0
  6
CONTINUOUS
 10
2.274800
 20
2.793120
  0
SEQEND
  8
0
  0
POLYLINE
  8
0
  6
CONTINUOUS
 66
     1
 40
0.000000
 41
0.000000
  0
VERTEX
  8
0
  6
CONTINUOUS
 10
2.274800
 20
2.787400
  0
VERTEX
  8
0
  6
CONTINUOUS
 10
2.284040
 20
2.765400
  0
VERTEX
  8
0
  6
CONTINUOUS
 10
2.290200
 20
2.740320
  0
VERTEX
  8
0
  6
CONTINUOUS
 10
2.294160
 20
2.712160
  0
VERTEX
  8
0
  6
CONTINUOUS
 10
2.295040
 20
2.681800
  0
VERTEX
  8
0
  6
CONTINUOUS
 10
2.288000
 20
2.615360
  0
VERTEX
  8
0
  6
CONTINUOUS
 10
2.269080
 20
2.544080
  0
VERTEX
  8
0
  6
CONTINUOUS
 10
2.236960
 20
2.471040
  0
VERTEX
  8
0
  6
CONTINUOUS
 10
2.215840
 20
2.434520
  0
VERTEX
  8
0
  6
CONTINUOUS
 10
2.190760
 20
2.398880
  0
VERTEX
  8
0
  6
CONTINUOUS
 10
2.162600
 20
2.364560
  0
VERTEX
  8
0
  6
CONTINUOUS
 10
2.130480
 20
2.331120
  0
VERTEX
  8
0
  6
CONTINUOUS
 10
2.094400
 20
2.299880
  0
VERTEX
  8
0
  6
CONTINUOUS
 10
2.014760
 20
2.240480
  0
VERTEX
  8
0
  6
CONTINUOUS
 10
1.980000
 20
2.205280
  0
VERTEX
  8
0
  6
CONTINUOUS
 10
1.950080
 20
2.167000
  0
VERTEX
  8
0
  6
CONTINUOUS
 10
1.925440
 20
2.125640
  0
VERTEX
  8
0
  6
CONTINUOUS
 10
1.906080
 20
2.082520
  0
VERTEX
  8
0
  6
CONTINUOUS
 10
1.892440
 20
2.038520
  0
VERTEX
  8
0
  6
CONTINUOUS
 10
1.884520
 20
1.994520
  0
VERTEX
  8
0
  6
CONTINUOUS
 10
1.882320
 20
1.950960
  0
VERTEX
  8
0
  6
CONTINUOUS
 10
1.886720
 20
1.909600
  0
VERTEX
  8
0
  6
CONTINUOUS
 10
1.897280
 20
1.870880
  0
VERTEX
  8
0
  6
CONTINUOUS
 10
1.914440
 20
1.835240
  0
VERTEX
  8
0
  6
CONTINUOUS
 10
1.938200
 20
1.804440
  0
VERTEX
  8
0
  6
CONTINUOUS
 10
1.969440
 20
1.778920
  0
VERTEX
  8
0
  6
CONTINUOUS
 10
2.007720
 20
1.759560
  0
VERTEX
  8
0
  6
CONTINUOUS
 10
2.053480
 20
1.747240
  0
VERTEX
  8
0
  6
CONTINUOUS
 10
2.106720
 20
1.742840
  0
VERTEX
  8
0
  6
CONTINUOUS
 10
2.106720
 20
1.621840
  0
VERTEX
  8
0
  6
CONTINUOUS
 10
2.149400
 20
1.617440
  0
VERTEX
  8
0
  6
CONTINUOUS
 10
2.186360
 20
1.604680
  0
VERTEX
  8
0
  6
CONTINUOUS
 10
2.217600
 20
1.584440
  0
VERTEX
  8
0
  6
CONTINUOUS
 10
2.243560
 20
1.558480
  0
VERTEX
  8
0
  6
CONTINUOUS
 10
2.263360
 20
1.528120
  0
VERTEX
  8
0
  6
CONTINUOUS
 10
2.277440
 20
1.493800
  0
VERTEX
  8
0
  6
CONTINUOUS
 10
2.285800
 20
1.457280
  0
VERTEX
  8
0
  6
CONTINUOUS
 10
2.288000
 20
1.419440
  0
VERTEX
  8
0
  6
CONTINUOUS
 10
2.284920
 20
1.381600
  0
VERTEX
  8
0
  6
CONTINUOUS
 10
2.276120
 20
1.345080
  0
VERTEX
  8
0
  6
CONTINUOUS
 10
2.261160
 20
1.310760
  0
VERTEX
  8
0
  6
CONTINUOUS
 10
2.240480
 20
1.279960
  0
VERTEX
  8
0
  6
CONTINUOUS
 10
2.213640
 20
1.254000
  0
VERTEX
  8
0
  6
CONTINUOUS
 10
2.181520
 20
1.234200
  0
VERTEX
  8
0
  6
CONTINUOUS
 10
2.143240
 20
1.221000
  0
VERTEX
  8
0
  6
CONTINUOUS
 10
2.099240
 20
1.216600
  0
VERTEX
  8
0
  6
CONTINUOUS
 10
1.650000
 20
1.216600
  0
VERTEX
  8
0
  6
CONTINUOUS
 10
1.650000
 20
3.630000
  0
VERTEX
  8
0
  6
CONTINUOUS
 10
2.408560
 20
3.630000
  0
VERTEX
  8
0
  6
CONTINUOUS
 10
2.408560
 20
2.793120
  0
VERTEX
  8
0
  6
CONTINUOUS
 10
2.274800
 20
2.793120
  0
VERTEX
  8
0
  6
CONTINUOUS
 10
2.274800
 20
2.787400
  0
SEQEND
  8
0
  0
SOLID
  8
0
 62
    15
 10
2.848120
 20
3.585560
 11
3.586880
 21
3.586000
 12
2.850320
 22
3.541560
 13
3.589080
 23
3.542000
  0
POLYLINE
  8
0
  6
CONTINUOUS
 66
     1
 40
0.000000
 41
0.000000
  0
VERTEX
  8
0
  6
CONTINUOUS
 10
2.848120
 20
3.585560
  0
VERTEX
  8
0
  6
CONTINUOUS
 10
3.586880
 20
3.586000
  0
VERTEX
  8
0
  6
CONTINUOUS
 10
3.589080
 20
3.542000
  0
VERTEX
  8
0
  6
CONTINUOUS
 10
2.850320
 20
3.541560
  0
VERTEX
  8
0
  6
CONTINUOUS
 10
2.848120
 20
3.585560
  0
SEQEND
  8
0
  0
SOLID
  8
0
 62
    15
 10
1.650000
 20
3.972320
 11
2.388760
 21
3.972760
 12
2.410320
 22
3.972320
 13
3.149080
 23
3.972760
  0
POLYLINE
  8
0
  6
CONTINUOUS
 66
     1
 40
0.000000
 41
0.000000
  0
VERTEX
  8
0
  6
CONTINUOUS
 10
1.650000
 20
3.972320
  0
VERTEX
  8
0
  6
CONTINUOUS
 10
2.388760
 20
3.972760
  0
VERTEX
  8
0
  6
CONTINUOUS
 10
3.149080
 20
3.972760
  0
VERTEX
  8
0
  6
CONTINUOUS
 10
2.410320
 20
3.972320
  0
VERTEX
  8
0
  6
CONTINUOUS
 10
1.650000
 20
3.972320
  0
SEQEND
  8
0
  0
SOLID
  8
0
 62
    15
 10
2.456080
 20
3.970560
 11
3.194840
 21
3.971000
 12
2.500080
 22
3.963960
 13
3.238840
 23
3.964400
  0
POLYLINE
  8
0
  6
CONTINUOUS
 66
     1
 40
0.000000
 41
0.000000
  0
VERTEX
  8
0
  6
CONTINUOUS
 10
2.456080
 20
3.970560
  0
VERTEX
  8
0
  6
CONTINUOUS
 10
3.194840
 20
3.971000
  0
VERTEX
  8
0
  6
CONTINUOUS
 10
3.238840
 20
3.964400
  0
VERTEX
  8
0
  6
CONTINUOUS
 10
2.500080
 20
3.963960
  0
VERTEX
  8
0
  6
CONTINUOUS
 10
2.456080
 20
3.970560
  0
SEQEND
  8
0
  0
SOLID
  8
0
 62
    15
 10
2.500080
 20
3.963960
 11
3.238840
 21
3.964400
 12
2.542320
 22
3.953400
 13
3.281080
 23
3.953840
  0
POLYLINE
  8
0
  6
CONTINUOUS
 66
     1
 40
0.000000
 41
0.000000
  0
VERTEX
  8
0
  6
CONTINUOUS
 10
2.500080
 20
3.963960
  0
VERTEX
  8
0
  6
CONTINUOUS
 10
3.238840
 20
3.964400
  0
VERTEX
  8
0
  6
CONTINUOUS
 10
3.281080
 20
3.953840
  0
VERTEX
  8
0
  6
CONTINUOUS
 10
2.542320
 20
3.953400
  0
VERTEX
  8
0
  6
CONTINUOUS
 10
2.500080
 20
3.963960
  0
SEQEND
  8
0
  0
SOLID
  8
0
 62
    15
 10
2.542320
 20
3.953400
 11
3.281080
 21
3.953840
 12
2.582800
 22
3.939320
 13
3.321560
 23
3.939760
  0
POLYLINE
  8
0
  6
CONTINUOUS
 66
     1
 40
0.000000
 41
0.000000
  0
VERTEX
  8
0
  6
CONTINUOUS
 10
2.542320
 20
3.953400
  0
VERTEX
  8
0
  6
CONTINUOUS
 10
3.281080
 20
3.953840
  0
VERTEX
  8
0
  6
CONTINUOUS
 10
3.321560
 20
3.939760
  0
VERTEX
  8
0
  6
CONTINUOUS
 10
2.582800
 20
3.939320
  0
VERTEX
  8
0
  6
CONTINUOUS
 10
2.542320
 20
3.953400
  0
SEQEND
  8
0
  0
SOLID
  8
0
 62
    15
 10
2.582800
 20
3.939320
 11
3.321560
 21
3.939760
 12
2.621520
 22
3.921280
 13
3.360280
 23
3.921720
  0
POLYLINE
  8
0
  6
CONTINUOUS
 66
     1
 40
0.000000
 41
0.000000
  0
VERTEX
  8
0
  6
CONTINUOUS
 10
2.582800
 20
3.939320
  0
VERTEX
  8
0
  6
CONTINUOUS
 10
3.321560
 20
3.939760
  0
VERTEX
  8
0
  6
CONTINUOUS
 10
3.360280
 20
3.921720
  0
VERTEX
  8
0
  6
CONTINUOUS
 10
2.621520
 20
3.921280
  0
VERTEX
  8
0
  6
CONTINUOUS
 10
2.582800
 20
3.939320
  0
SEQEND
  8
0
  0
SOLID
  8
0
 62
    15
 10
2.621520
 20
3.921280
 11
3.360280
 21
3.921720
 12
2.657600
 22
3.899720
 13
3.396360
 23
3.900160
  0
POLYLINE
  8
0
  6
CONTINUOUS
 66
     1
 40
0.000000
 41
0.000000
  0
VERTEX
  8
0
  6
CONTINUOUS
 10
2.621520
 20
3.921280
  0
VERTEX
  8
0
  6
CONTINUOUS
 10
3.360280
 20
3.921720
  0
VERTEX
  8
0
  6
CONTINUOUS
 10
3.396360
 20
3.900160
  0
VERTEX
  8
0
  6
CONTINUOUS
 10
2.657600
 20
3.899720
  0
VERTEX
  8
0
  6
CONTINUOUS
 10
2.621520
 20
3.921280
  0
SEQEND
  8
0
  0
SOLID
  8
0
 62
    15
 10
2.657600
 20
3.899720
 11
3.396360
 21
3.900160
 12
2.722720
 22
3.846920
 13
3.461480
 23
3.847360
  0
POLYLINE
  8
0
  6
CONTINUOUS
 66
     1
 40
0.000000
 41
0.000000
  0
VERTEX
  8
0
  6
CONTINUOUS
 10
2.657600
 20
3.899720
  0
VERTEX
  8
0
  6
CONTINUOUS
 10
3.396360
 20
3.900160
  0
VERTEX
  8
0
  6
CONTINUOUS
 10
3.461480
 20
3.847360
  0
VERTEX
  8
0
  6
CONTINUOUS
 10
2.722720
 20
3.846920
  0
VERTEX
  8
0
  6
CONTINUOUS
 10
2.657600
 20
3.899720
  0
SEQEND
  8
0
  0
SOLID
  8
0
 62
    15
 10
2.722720
 20
3.846920
 11
3.461480
 21
3.847360
 12
2.775960
 22
3.783120
 13
3.514720
 23
3.783560
  0
POLYLINE
  8
0
  6
CONTINUOUS
 66
     1
 40
0.000000
 41
0.000000
  0
VERTEX
  8
0
  6
CONTINUOUS
 10
2.722720
 20
3.846920
  0
VERTEX
  8
0
  6
CONTINUOUS
 10
3.461480
 20
3.847360
  0
VERTEX
  8
0
  6
CONTINUOUS
 10
3.514720
 20
3.783560
  0
VERTEX
  8
0
  6
CONTINUOUS
 10
2.775960
 20
3.783120
  0
VERTEX
  8
0
  6
CONTINUOUS
 10
2.722720
 20
3.846920
  0
SEQEND
  8
0
  0
SOLID
  8
0
 62
    15
 10
2.775960
 20
3.783120
 11
3.514720
 21
3.783560
 12
2.797960
 22
3.747480
 13
3.536720
 23
3.747920
  0
POLYLINE
  8
0
  6
CONTINUOUS
 66
     1
 40
0.000000
 41
0.000000
  0
VERTEX
  8
0
  6
CONTINUOUS
 10
2.775960
 20
3.783120
  0
VERTEX
  8
0
  6
CONTINUOUS
 10
3.514720
 20
3.783560
  0
VERTEX
  8
0
  6
CONTINUOUS
 10
3.536720
 20
3.747920
  0
VERTEX
  8
0
  6
CONTINUOUS
 10
2.797960
 20
3.747480
  0
VERTEX
  8
0
  6
CONTINUOUS
 10
2.775960
 20
3.783120
  0
SEQEND
  8
0
  0
SOLID
  8
0
 62
    15
 10
2.797960
 20
3.747480
 11
3.536720
 21
3.747920
 12
2.816000
 22
3.709640
 13
3.554760
 23
3.710080
  0
POLYLINE
  8
0
  6
CONTINUOUS
 66
     1
 40
0.000000
 41
0.000000
  0
VERTEX
  8
0
  6
CONTINUOUS
 10
2.797960
 20
3.747480
  0
VERTEX
  8
0
  6
CONTINUOUS
 10
3.536720
 20
3.747920
  0
VERTEX
  8
0
  6
CONTINUOUS
 10
3.554760
 20
3.710080
  0
VERTEX
  8
0
  6
CONTINUOUS
 10
2.816000
 20
3.709640
  0
VERTEX
  8
0
  6
CONTINUOUS
 10
2.797960
 20
3.747480
  0
SEQEND
  8
0
  0
SOLID
  8
0
 62
    15
 10
2.816000
 20
3.709640
 11
3.554760
 21
3.710080
 12
2.830520
 22
3.670040
 13
3.569720
 23
3.670480
  0
POLYLINE
  8
0
  6
CONTINUOUS
 66
     1
 40
0.000000
 41
0.000000
  0
VERTEX
  8
0
  6
CONTINUOUS
 10
2.816000
 20
3.709640
  0
VERTEX
  8
0
  6
CONTINUOUS
 10
3.554760
 20
3.710080
  0
VERTEX
  8
0
  6
CONTINUOUS
 10
3.569720
 20
3.670480
  0
VERTEX
  8
0
  6
CONTINUOUS
 10
2.830520
 20
3.670040
  0
VERTEX
  8
0
  6
CONTINUOUS
 10
2.816000
 20
3.709640
  0
SEQEND
  8
0
  0
SOLID
  8
0
 62
    15
 10
2.830520
 20
3.670040
 11
3.569720
 21
3.670480
 12
2.841520
 22
3.628680
 13
3.580280
 23
3.629120
  0
POLYLINE
  8
0
  6
CONTINUOUS
 66
     1
 40
0.000000
 41
0.000000
  0
VERTEX
  8
0
  6
CONTINUOUS
 10
2.830520
 20
3.670040
  0
VERTEX
  8
0
  6
CONTINUOUS
 10
3.569720
 20
3.670480
  0
VERTEX
  8
0
  6
CONTINUOUS
 10
3.580280
 20
3.629120
  0
VERTEX
  8
0
  6
CONTINUOUS
 10
2.841520
 20
3.628680
  0
VERTEX
  8
0
  6
CONTINUOUS
 10
2.830520
 20
3.670040
  0
SEQEND
  8
0
  0
SOLID
  8
0
 62
    15
 10
2.841520
 20
3.628680
 11
3.580280
 21
3.629120
 12
2.848120
 22
3.585560
 13
3.586880
 23
3.586000
  0
POLYLINE
  8
0
  6
CONTINUOUS
 66
     1
 40
0.000000
 41
0.000000
  0
VERTEX
  8
0
  6
CONTINUOUS
 10
2.841520
 20
3.628680
  0
VERTEX
  8
0
  6
CONTINUOUS
 10
3.580280
 20
3.629120
  0
VERTEX
  8
0
  6
CONTINUOUS
 10
3.586880
 20
3.586000
  0
VERTEX
  8
0
  6
CONTINUOUS
 10
2.848120
 20
3.585560
  0
VERTEX
  8
0
  6
CONTINUOUS
 10
2.841520
 20
3.628680
  0
SEQEND
  8
0
  0
SOLID
  8
0
 62
    15
 10
2.410320
 20
3.972320
 11
3.149080
 21
3.972760
 12
2.456080
 22
3.970560
 13
3.194840
 23
3.971000
  0
POLYLINE
  8
0
  6
CONTINUOUS
 66
     1
 40
0.000000
 41
0.000000
  0
VERTEX
  8
0
  6
CONTINUOUS
 10
2.410320
 20
3.972320
  0
VERTEX
  8
0
  6
CONTINUOUS
 10
3.149080
 20
3.972760
  0
VERTEX
  8
0
  6
CONTINUOUS
 10
3.194840
 20
3.971000
  0
VERTEX
  8
0
  6
CONTINUOUS
 10
2.456080
 20
3.970560
  0
VERTEX
  8
0
  6
CONTINUOUS
 10
2.410320
 20
3.972320
  0
SEQEND
  8
0
  0
SOLID
  8
0
 62
    15
 10
2.850320
 20
3.541560
 11
3.589080
 21
3.542000
 12
2.848120
 22
3.497120
 13
3.586880
 23
3.497560
  0
POLYLINE
  8
0
  6
CONTINUOUS
 66
     1
 40
0.000000
 41
0.000000
  0
VERTEX
  8
0
  6
CONTINUOUS
 10
2.850320
 20
3.541560
  0
VERTEX
  8
0
  6
CONTINUOUS
 10
3.589080
 20
3.542000
  0
VERTEX
  8
0
  6
CONTINUOUS
 10
3.586880
 20
3.497560
  0
VERTEX
  8
0
  6
CONTINUOUS
 10
2.848120
 20
3.497120
  0
VERTEX
  8
0
  6
CONTINUOUS
 10
2.850320
 20
3.541560
  0
SEQEND
  8
0
  0
SOLID
  8
0
 62
    15
 10
2.848120
 20
3.497120
 11
3.586880
 21
3.497560
 12
2.841520
 22
3.454440
 13
3.580280
 23
3.454880
  0
POLYLINE
  8
0
  6
CONTINUOUS
 66
     1
 40
0.000000
 41
0.000000
  0
VERTEX
  8
0
  6
CONTINUOUS
 10
2.848120
 20
3.497120
  0
VERTEX
  8
0
  6
CONTINUOUS
 10
3.586880
 20
3.497560
  0
VERTEX
  8
0
  6
CONTINUOUS
 10
3.580280
 20
3.454880
  0
VERTEX
  8
0
  6
CONTINUOUS
 10
2.841520
 20
3.454440
  0
VERTEX
  8
0
  6
CONTINUOUS
 10
2.848120
 20
3.497120
  0
SEQEND
  8
0
  0
SOLID
  8
0
 62
    15
 10
2.841520
 20
3.454440
 11
3.580280
 21
3.454880
 12
2.830960
 22
3.413080
 13
3.569720
 23
3.413520
  0
POLYLINE
  8
0
  6
CONTINUOUS
 66
     1
 40
0.000000
 41
0.000000
  0
VERTEX
  8
0
  6
CONTINUOUS
 10
2.841520
 20
3.454440
  0
VERTEX
  8
0
  6
CONTINUOUS
 10
3.580280
 20
3.454880
  0
VERTEX
  8
0
  6
CONTINUOUS
 10
3.569720
 20
3.413520
  0
VERTEX
  8
0
  6
CONTINUOUS
 10
2.830960
 20
3.413080
  0
VERTEX
  8
0
  6
CONTINUOUS
 10
2.841520
 20
3.454440
  0
SEQEND
  8
0
  0
SOLID
  8
0
 62
    15
 10
2.830960
 20
3.413080
 11
3.569720
 21
3.413520
 12
2.816440
 22
3.373040
 13
3.555200
 23
3.373480
  0
POLYLINE
  8
0
  6
CONTINUOUS
 66
     1
 40
0.000000
 41
0.000000
  0
VERTEX
  8
0
  6
CONTINUOUS
 10
2.830960
 20
3.413080
  0
VERTEX
  8
0
  6
CONTINUOUS
 10
3.569720
 20
3.413520
  0
VERTEX
  8
0
  6
CONTINUOUS
 10
3.555200
 20
3.373480
  0
VERTEX
  8
0
  6
CONTINUOUS
 10
2.816440
 20
3.373040
  0
VERTEX
  8
0
  6
CONTINUOUS
 10
2.830960
 20
3.413080
  0
SEQEND
  8
0
  0
SOLID
  8
0
 62
    15
 10
2.816440
 20
3.373040
 11
3.555200
 21
3.373480
 12
2.797960
 22
3.335640
 13
3.536720
 23
3.336080
  0
POLYLINE
  8
0
  6
CONTINUOUS
 66
     1
 40
0.000000
 41
0.000000
  0
VERTEX
  8
0
  6
CONTINUOUS
 10
2.816440
 20
3.373040
  0
VERTEX
  8
0
  6
CONTINUOUS
 10
3.555200
 20
3.373480
  0
VERTEX
  8
0
  6
CONTINUOUS
 10
3.536720
 20
3.336080
  0
VERTEX
  8
0
  6
CONTINUOUS
 10
2.797960
 20
3.335640
  0
VERTEX
  8
0
  6
CONTINUOUS
 10
2.816440
 20
3.373040
  0
SEQEND
  8
0
  0
SOLID
  8
0
 62
    15
 10
2.797960
 20
3.335640
 11
3.536720
 21
3.336080
 12
2.776400
 22
3.299560
 13
3.515160
 23
3.300000
  0
POLYLINE
  8
0
  6
CONTINUOUS
 66
     1
 40
0.000000
 41
0.000000
  0
VERTEX
  8
0
  6
CONTINUOUS
 10
2.797960
 20
3.335640
  0
VERTEX
  8
0
  6
CONTINUOUS
 10
3.536720
 20
3.336080
  0
VERTEX
  8
0
  6
CONTINUOUS
 10
3.515160
 20
3.300000
  0
VERTEX
  8
0
  6
CONTINUOUS
 10
2.776400
 20
3.299560
  0
VERTEX
  8
0
  6
CONTINUOUS
 10
2.797960
 20
3.335640
  0
SEQEND
  8
0
  0
SOLID
  8
0
 62
    15
 10
2.776400
 20
3.299560
 11
3.515160
 21
3.300000
 12
2.723600
 22
3.235760
 13
3.462360
 23
3.236200
  0
POLYLINE
  8
0
  6
CONTINUOUS
 66
     1
 40
0.000000
 41
0.000000
  0
VERTEX
  8
0
  6
CONTINUOUS
 10
2.776400
 20
3.299560
  0
VERTEX
  8
0
  6
CONTINUOUS
 10
3.515160
 20
3.300000
  0
VERTEX
  8
0
  6
CONTINUOUS
 10
3.462360
 20
3.236200
  0
VERTEX
  8
0
  6
CONTINUOUS
 10
2.723600
 20
3.235760
  0
VERTEX
  8
0
  6
CONTINUOUS
 10
2.776400
 20
3.299560
  0
SEQEND
  8
0
  0
SOLID
  8
0
 62
    15
 10
2.723600
 20
3.235760
 11
3.462360
 21
3.236200
 12
2.659800
 22
3.182960
 13
3.398560
 23
3.183400
  0
POLYLINE
  8
0
  6
CONTINUOUS
 66
     1
 40
0.000000
 41
0.000000
  0
VERTEX
  8
0
  6
CONTINUOUS
 10
2.723600
 20
3.235760
  0
VERTEX
  8
0
  6
CONTINUOUS
 10
3.462360
 20
3.236200
  0
VERTEX
  8
0
  6
CONTINUOUS
 10
3.398560
 20
3.183400
  0
VERTEX
  8
0
  6
CONTINUOUS
 10
2.659800
 20
3.182960
  0
VERTEX
  8
0
  6
CONTINUOUS
 10
2.723600
 20
3.235760
  0
SEQEND
  8
0
  0
SOLID
  8
0
 62
    15
 10
2.659800
 20
3.182960
 11
3.398560
 21
3.183400
 12
2.623720
 22
3.161400
 13
3.362920
 23
3.161840
  0
POLYLINE
  8
0
  6
CONTINUOUS
 66
     1
 40
0.000000
 41
0.000000
  0
VERTEX
  8
0
  6
CONTINUOUS
 10
2.659800
 20
3.182960
  0
VERTEX
  8
0
  6
CONTINUOUS
 10
3.398560
 20
3.183400
  0
VERTEX
  8
0
  6
CONTINUOUS
 10
3.362920
 20
3.161840
  0
VERTEX
  8
0
  6
CONTINUOUS
 10
2.623720
 20
3.161400
  0
VERTEX
  8
0
  6
CONTINUOUS
 10
2.659800
 20
3.182960
  0
SEQEND
  8
0
  0
SOLID
  8
0
 62
    15
 10
2.623720
 20
3.161400
 11
3.362920
 21
3.161840
 12
2.586320
 22
3.143360
 13
3.325080
 23
3.143360
  0
POLYLINE
  8
0
  6
CONTINUOUS
 66
     1
 40
0.000000
 41
0.000000
  0
VERTEX
  8
0
  6
CONTINUOUS
 10
2.623720
 20
3.161400
  0
VERTEX
  8
0
  6
CONTINUOUS
 10
3.362920
 20
3.161840
  0
VERTEX
  8
0
  6
CONTINUOUS
 10
3.325080
 20
3.143360
  0
VERTEX
  8
0
  6
CONTINUOUS
 10
2.586320
 20
3.143360
  0
VERTEX
  8
0
  6
CONTINUOUS
 10
2.623720
 20
3.161400
  0
SEQEND
  8
0
  0
SOLID
  8
0
 62
    15
 10
2.586320
 20
3.143360
 11
3.325080
 21
3.143360
 12
2.546280
 22
3.128400
 13
3.285480
 23
3.128840
  0
POLYLINE
  8
0
  6
CONTINUOUS
 66
     1
 40
0.000000
 41
0.000000
  0
VERTEX
  8
0
  6
CONTINUOUS
 10
2.586320
 20
3.143360
  0
VERTEX
  8
0
  6
CONTINUOUS
 10
3.325080
 20
3.143360
  0
VERTEX
  8
0
  6
CONTINUOUS
 10
3.285480
 20
3.128840
  0
VERTEX
  8
0
  6
CONTINUOUS
 10
2.546280
 20
3.128400
  0
VERTEX
  8
0
  6
CONTINUOUS
 10
2.586320
 20
3.143360
  0
SEQEND
  8
0
  0
SOLID
  8
0
 62
    15
 10
2.546280
 20
3.128400
 11
3.285480
 21
3.128840
 12
2.504920
 22
3.117840
 13
3.243680
 23
3.118280
  0
POLYLINE
  8
0
  6
CONTINUOUS
 66
     1
 40
0.000000
 41
0.000000
  0
VERTEX
  8
0
  6
CONTINUOUS
 10
2.546280
 20
3.128400
  0
VERTEX
  8
0
  6
CONTINUOUS
 10
3.285480
 20
3.128840
  0
VERTEX
  8
0
  6
CONTINUOUS
 10
3.243680
 20
3.118280
  0
VERTEX
  8
0
  6
CONTINUOUS
 10
2.504920
 20
3.117840
  0
VERTEX
  8
0
  6
CONTINUOUS
 10
2.546280
 20
3.128400
  0
SEQEND
  8
0
  0
SOLID
  8
0
 62
    15
 10
2.504920
 20
3.117840
 11
3.243680
 21
3.118280
 12
2.462240
 22
3.111240
 13
3.201000
 23
3.111680
  0
POLYLINE
  8
0
  6
CONTINUOUS
 66
     1
 40
0.000000
 41
0.000000
  0
VERTEX
  8
0
  6
CONTINUOUS
 10
2.504920
 20
3.117840
  0
VERTEX
  8
0
  6
CONTINUOUS
 10
3.243680
 20
3.118280
  0
VERTEX
  8
0
  6
CONTINUOUS
 10
3.201000
 20
3.111680
  0
VERTEX
  8
0
  6
CONTINUOUS
 10
2.462240
 20
3.111240
  0
VERTEX
  8
0
  6
CONTINUOUS
 10
2.504920
 20
3.117840
  0
SEQEND
  8
0
  0
SOLID
  8
0
 62
    15
 10
2.462240
 20
3.111240
 11
3.201000
 21
3.111680
 12
2.417800
 22
3.109040
 13
3.156560
 23
3.109480
  0
POLYLINE
  8
0
  6
CONTINUOUS
 66
     1
 40
0.000000
 41
0.000000
  0
VERTEX
  8
0
  6
CONTINUOUS
 10
2.462240
 20
3.111240
  0
VERTEX
  8
0
  6
CONTINUOUS
 10
3.201000
 20
3.111680
  0
VERTEX
  8
0
  6
CONTINUOUS
 10
3.156560
 20
3.109480
  0
VERTEX
  8
0
  6
CONTINUOUS
 10
2.417800
 20
3.109040
  0
VERTEX
  8
0
  6
CONTINUOUS
 10
2.462240
 20
3.111240
  0
SEQEND
  8
0
  0
POLYLINE
  8
0
  6
CONTINUOUS
 66
     1
 40
0.000000
 41
0.000000
  0
VERTEX
  8
0
  6
CONTINUOUS
 10
2.408560
 20
3.109040
  0
VERTEX
  8
0
  6
CONTINUOUS
 10
2.408560
 20
3.629560
  0
VERTEX
  8
0
  6
CONTINUOUS
 10
1.650000
 20
3.629560
  0
VERTEX
  8
0
  6
CONTINUOUS
 10
1.650000
 20
3.972320
  0
VERTEX
  8
0
  6
CONTINUOUS
 10
2.410320
 20
3.972320
  0
VERTEX
  8
0
  6
CONTINUOUS
 10
2.456080
 20
3.970560
  0
VERTEX
  8
0
  6
CONTINUOUS
 10
2.500080
 20
3.963960
  0
VERTEX
  8
0
  6
CONTINUOUS
 10
2.542320
 20
3.953400
  0
VERTEX
  8
0
  6
CONTINUOUS
 10
2.582800
 20
3.939320
  0
VERTEX
  8
0
  6
CONTINUOUS
 10
2.621520
 20
3.921280
  0
VERTEX
  8
0
  6
CONTINUOUS
 10
2.657600
 20
3.899720
  0
VERTEX
  8
0
  6
CONTINUOUS
 10
2.722720
 20
3.846920
  0
VERTEX
  8
0
  6
CONTINUOUS
 10
2.775960
 20
3.783120
  0
VERTEX
  8
0
  6
CONTINUOUS
 10
2.797960
 20
3.747480
  0
VERTEX
  8
0
  6
CONTINUOUS
 10
2.816000
 20
3.709640
  0
VERTEX
  8
0
  6
CONTINUOUS
 10
2.830520
 20
3.670040
  0
VERTEX
  8
0
  6
CONTINUOUS
 10
2.841520
 20
3.628680
  0
VERTEX
  8
0
  6
CONTINUOUS
 10
2.848120
 20
3.585560
  0
VERTEX
  8
0
  6
CONTINUOUS
 10
2.850320
 20
3.541560
  0
VERTEX
  8
0
  6
CONTINUOUS
 10
2.848120
 20
3.497120
  0
VERTEX
  8
0
  6
CONTINUOUS
 10
2.841520
 20
3.454440
  0
VERTEX
  8
0
  6
CONTINUOUS
 10
2.830960
 20
3.413080
  0
VERTEX
  8
0
  6
CONTINUOUS
 10
2.816440
 20
3.373040
  0
VERTEX
  8
0
  6
CONTINUOUS
 10
2.797960
 20
3.335640
  0
VERTEX
  8
0
  6
CONTINUOUS
 10
2.776400
 20
3.299560
  0
VERTEX
  8
0
  6
CONTINUOUS
 10
2.723600
 20
3.235760
  0
VERTEX
  8
0
  6
CONTINUOUS
 10
2.659800
 20
3.182960
  0
VERTEX
  8
0
  6
CONTINUOUS
 10
2.623720
 20
3.161400
  0
VERTEX
  8
0
  6
CONTINUOUS
 10
2.586320
 20
3.143360
  0
VERTEX
  8
0
  6
CONTINUOUS
 10
2.546280
 20
3.128400
  0
VERTEX
  8
0
  6
CONTINUOUS
 10
2.504920
 20
3.117840
  0
VERTEX
  8
0
  6
CONTINUOUS
 10
2.462240
 20
3.111240
  0
VERTEX
  8
0
  6
CONTINUOUS
 10
2.417800
 20
3.109040
  0
VERTEX
  8
0
  6
CONTINUOUS
 10
2.408560
 20
3.109040
  0
SEQEND
  8
0
  0
TEXT
  8
0
 10
1.736240
 20
3.734280
 40
0.138164
  1
739
 41
1.000000
  7
SN0
 71
     0
 72
     5
 11
2.013324
 21
3.734280
  0
TEXT
  8
0
 10
1.747240
 20
1.307240
 40
0.138164
  1
924
 41
1.000000
  7
SN0
 71
     0
 72
     5
 11
2.024324
 21
1.307240
  0
ENDSEC
  0
EOF
