  0
SECTION
  2
HEADER
  9
$ACADVER
  1
AC1006
  9
$EXTMIN
 10
2.918520
 20
0.632280
  9
$EXTMAX
 10
7.251200
 20
3.506360
  9
$LTSCALE
 40
0.044000
  9
$PDMODE
 70
    35
  9
$PDSIZE
 40
0.035200
  0
ENDSEC
  0
SECTION
  2
TABLES
  0
TABLE
  2
LTYPE
 70
     9
  0
LTYPE
  2
CONTINUOUS
 70
    64
  3
Solid line
 72
    65
 73
     0
 40
0.000000
  0
LTYPE
  2
DASHED
 70
    64
  3
__ __ __ __ __ __ __ __ __ __ __ __ __ __ __
 72
    65
 73
     2
 40
0.000330
 49
0.000220
 49
-0.000110
  0
LTYPE
  2
HIDDEN
 70
    64
  3
 _ _ _ _ _ _ _ _ _ _ _ _ _ _ _ _ _ _ _ _ _ _
 72
    65
 73
     2
 40
0.000165
 49
0.000110
 49
-0.000055
  0
LTYPE
  2
CENTER
 70
    64
  3
____ _ ____ _ ____ _ ____ _ ____ _ ____ _ ____
 72
    65
 73
     4
 40
0.000880
 49
0.000550
 49
-0.000110
 49
0.000110
 49
-0.000110
  0
LTYPE
  2
PHANTOM
 70
    64
  3
_____ _ _ _____ _ _ _____ _ _ _____ _ _ ____
 72
    65
 73
     6
 40
0.001100
 49
0.000550
 49
-0.000110
 49
0.000110
 49
-0.000110
 49
0.000110
 49
-0.000110
  0
LTYPE
  2
DOT
 70
    64
  3
...............................................
 72
    65
 73
     2
 40
0.000110
 49
0.000000
 49
-0.000110
  0
LTYPE
  2
DASHDOT
 70
    64
  3
__ . __ . __ . __ . __ . __ . __ . __ . __ . __
 72
    65
 73
     4
 40
0.000440
 49
0.000220
 49
-0.000110
 49
0.000000
 49
-0.000110
  0
LTYPE
  2
BORDER
 70
    64
  3
__ __ . __ __ . __ __ . __ __ . __ __ . __ __
 72
    65
 73
     6
 40
0.000770
 49
0.000220
 49
-0.000110
 49
0.000220
 49
-0.000110
 49
0.000000
 49
-0.000110
  0
LTYPE
  2
DIVIDE
 70
    64
  3
__ . . __ . . __ . . __ . . __ . . __ . . __
 72
    65
 73
     6
 40
0.000550
 49
0.000220
 49
-0.000110
 49
0.000000
 49
-0.000110
 49
0.000000
 49
-0.000110
  0
LTYPE
  2
DOTDOT
 70
    64
  3
 . .  . .  . .  . .  . .  . . 
 72
    65
 73
     5
 40
0.000242
 49
-0.000110
 49
0.000000
 49
-0.000110
 49
0.000000
 49
-0.000110
  0
ENDTAB
  0
TABLE
  2
STYLE
 70
     2
  0
STYLE
 70
     0
  2
SN0
 40
0.000000
 41
0.000440
 50
0.000000
 71
     0
 42
0.000000
  3
ROMAND
  0
STYLE
 70
    68
  2
SV0
 40
0.000000
 41
0.000440
 50
0.000000
 71
     0
 42
0.000000
  3
ROMAND
  0
ENDTAB
  0
TABLE
  2
LAYER
 70
     3
  0
LAYER
  2
FOREGROUND
 70
    64
 62
     7
  6
CONTINUOUS
  0
LAYER
  2
BACKGROUND
 70
    65
 62
    -7
  6
CONTINUOUS
  0
LAYER
  2
0
 70
    64
 62
     7
  6
CONTINUOUS
  0
ENDTAB
  0
ENDSEC
  0
SECTION
  2
ENTITIES
  0
POLYLINE
  8
FOREGROUND
  6
CONTINUOUS
 66
     1
 40
0.000000
 41
0.000000
  0
VERTEX
  8
FOREGROUND
  6
CONTINUOUS
 10
0.000000
 20
4.138640
  0
VERTEX
  8
FOREGROUND
  6
CONTINUOUS
 10
8.499920
 20
4.138640
  0
VERTEX
  8
FOREGROUND
  6
CONTINUOUS
 10
8.499920
 20
-6.861360
  0
VERTEX
  8
FOREGROUND
  6
CONTINUOUS
 10
0.000000
 20
-6.861360
  0
VERTEX
  8
FOREGROUND
  6
CONTINUOUS
 10
0.000000
 20
4.138640
  0
SEQEND
  8
0
  0
POLYLINE
  8
FOREGROUND
  6
CONTINUOUS
 66
     1
 40
0.000000
 41
0.000000
  0
VERTEX
  8
FOREGROUND
  6
CONTINUOUS
 10
0.000000
 20
4.138640
  0
VERTEX
  8
FOREGROUND
  6
CONTINUOUS
 10
8.499920
 20
4.138640
  0
VERTEX
  8
FOREGROUND
  6
CONTINUOUS
 10
8.499920
 20
-6.861360
  0
VERTEX
  8
FOREGROUND
  6
CONTINUOUS
 10
0.000000
 20
-6.861360
  0
VERTEX
  8
FOREGROUND
  6
CONTINUOUS
 10
0.000000
 20
4.138640
  0
SEQEND
  8
0
  0
POLYLINE
  8
0
  6
CONTINUOUS
 66
     1
 40
0.014080
 41
0.014080
  0
VERTEX
  8
0
  6
CONTINUOUS
 10
6.507600
 20
3.497560
  0
VERTEX
  8
0
  6
CONTINUOUS
 10
6.553360
 20
3.496240
  0
VERTEX
  8
0
  6
CONTINUOUS
 10
6.618920
 20
3.489640
  0
VERTEX
  8
0
  6
CONTINUOUS
 10
6.660720
 20
3.482160
  0
VERTEX
  8
0
  6
CONTINUOUS
 10
6.720560
 20
3.466320
  0
VERTEX
  8
0
  6
CONTINUOUS
 10
6.758840
 20
3.453120
  0
VERTEX
  8
0
  6
CONTINUOUS
 10
6.795360
 20
3.438160
  0
VERTEX
  8
0
  6
CONTINUOUS
 10
6.830560
 20
3.421000
  0
VERTEX
  8
0
  6
CONTINUOUS
 10
6.864440
 20
3.402080
  0
VERTEX
  8
0
  6
CONTINUOUS
 10
6.896560
 20
3.381840
  0
VERTEX
  8
0
  6
CONTINUOUS
 10
6.956400
 20
3.336080
  0
VERTEX
  8
0
  6
CONTINUOUS
 10
6.984120
 20
3.311000
  0
VERTEX
  8
0
  6
CONTINUOUS
 10
7.035600
 20
3.257320
  0
VERTEX
  8
0
  6
CONTINUOUS
 10
7.080920
 20
3.199240
  0
VERTEX
  8
0
  6
CONTINUOUS
 10
7.120960
 20
3.138080
  0
VERTEX
  8
0
  6
CONTINUOUS
 10
7.154840
 20
3.074280
  0
VERTEX
  8
0
  6
CONTINUOUS
 10
7.183440
 20
3.008720
  0
VERTEX
  8
0
  6
CONTINUOUS
 10
7.195760
 20
2.975720
  0
VERTEX
  8
0
  6
CONTINUOUS
 10
7.216000
 20
2.909280
  0
VERTEX
  8
0
  6
CONTINUOUS
 10
7.230520
 20
2.843720
  0
VERTEX
  8
0
  6
CONTINUOUS
 10
7.239760
 20
2.779040
  0
VERTEX
  8
0
  6
CONTINUOUS
 10
7.243720
 20
2.717000
  0
VERTEX
  8
0
  6
CONTINUOUS
 10
7.241960
 20
2.665080
  0
VERTEX
  8
0
  6
CONTINUOUS
 10
7.234480
 20
2.610960
  0
VERTEX
  8
0
  6
CONTINUOUS
 10
7.222600
 20
2.556400
  0
VERTEX
  8
0
  6
CONTINUOUS
 10
7.206760
 20
2.501840
  0
VERTEX
  8
0
  6
CONTINUOUS
 10
7.176840
 20
2.423520
  0
VERTEX
  8
0
  6
CONTINUOUS
 10
7.142080
 20
2.352240
  0
VERTEX
  8
0
  6
CONTINUOUS
 10
7.111720
 20
2.301200
  0
VERTEX
  8
0
  6
CONTINUOUS
 10
7.099840
 20
2.270400
  0
VERTEX
  8
0
  6
CONTINUOUS
 10
7.095000
 20
2.248400
  0
VERTEX
  8
0
  6
CONTINUOUS
 10
7.092360
 20
2.225960
  0
VERTEX
  8
0
  6
CONTINUOUS
 10
7.091920
 20
2.202640
  0
VERTEX
  8
0
  6
CONTINUOUS
 10
7.094120
 20
2.179320
  0
VERTEX
  8
0
  6
CONTINUOUS
 10
7.098080
 20
2.155560
  0
VERTEX
  8
0
  6
CONTINUOUS
 10
7.104680
 20
2.132240
  0
VERTEX
  8
0
  6
CONTINUOUS
 10
7.113040
 20
2.108920
  0
VERTEX
  8
0
  6
CONTINUOUS
 10
7.123600
 20
2.086480
  0
VERTEX
  8
0
  6
CONTINUOUS
 10
7.151320
 20
2.043800
  0
VERTEX
  8
0
  6
CONTINUOUS
 10
7.177720
 20
2.014760
  0
VERTEX
  8
0
  6
CONTINUOUS
 10
7.208080
 20
1.989240
  0
VERTEX
  8
0
  6
CONTINUOUS
 10
7.230960
 20
1.974720
  0
VERTEX
  8
0
  6
CONTINUOUS
 10
7.230960
 20
1.492480
  0
VERTEX
  8
0
  6
CONTINUOUS
 10
7.227000
 20
1.489400
  0
VERTEX
  8
0
  6
CONTINUOUS
 10
5.722200
 20
1.489400
  0
VERTEX
  8
0
  6
CONTINUOUS
 10
5.722200
 20
1.971640
  0
VERTEX
  8
0
  6
CONTINUOUS
 10
5.755640
 20
1.994520
  0
VERTEX
  8
0
  6
CONTINUOUS
 10
5.785120
 20
2.021360
  0
VERTEX
  8
0
  6
CONTINUOUS
 10
5.801840
 20
2.040720
  0
VERTEX
  8
0
  6
CONTINUOUS
 10
5.816800
 20
2.061840
  0
VERTEX
  8
0
  6
CONTINUOUS
 10
5.829560
 20
2.083400
  0
VERTEX
  8
0
  6
CONTINUOUS
 10
5.840560
 20
2.106280
  0
VERTEX
  8
0
  6
CONTINUOUS
 10
5.848920
 20
2.129160
  0
VERTEX
  8
0
  6
CONTINUOUS
 10
5.855520
 20
2.152920
  0
VERTEX
  8
0
  6
CONTINUOUS
 10
5.859480
 20
2.176240
  0
VERTEX
  8
0
  6
CONTINUOUS
 10
5.861680
 20
2.200000
  0
VERTEX
  8
0
  6
CONTINUOUS
 10
5.861240
 20
2.222880
  0
VERTEX
  8
0
  6
CONTINUOUS
 10
5.856400
 20
2.256320
  0
VERTEX
  8
0
  6
CONTINUOUS
 10
5.850240
 20
2.277880
  0
VERTEX
  8
0
  6
CONTINUOUS
 10
5.836600
 20
2.307800
  0
VERTEX
  8
0
  6
CONTINUOUS
 10
5.811520
 20
2.349160
  0
VERTEX
  8
0
  6
CONTINUOUS
 10
5.787760
 20
2.395800
  0
VERTEX
  8
0
  6
CONTINUOUS
 10
5.765760
 20
2.445960
  0
VERTEX
  8
0
  6
CONTINUOUS
 10
5.738040
 20
2.526040
  0
VERTEX
  8
0
  6
CONTINUOUS
 10
5.723960
 20
2.580600
  0
VERTEX
  8
0
  6
CONTINUOUS
 10
5.714280
 20
2.635160
  0
VERTEX
  8
0
  6
CONTINUOUS
 10
5.711200
 20
2.662000
  0
VERTEX
  8
0
  6
CONTINUOUS
 10
5.709440
 20
2.714360
  0
VERTEX
  8
0
  6
CONTINUOUS
 10
5.713400
 20
2.776400
  0
VERTEX
  8
0
  6
CONTINUOUS
 10
5.722640
 20
2.840640
  0
VERTEX
  8
0
  6
CONTINUOUS
 10
5.729240
 20
2.873640
  0
VERTEX
  8
0
  6
CONTINUOUS
 10
5.746840
 20
2.939640
  0
VERTEX
  8
0
  6
CONTINUOUS
 10
5.769720
 20
3.005640
  0
VERTEX
  8
0
  6
CONTINUOUS
 10
5.798320
 20
3.071200
  0
VERTEX
  8
0
  6
CONTINUOUS
 10
5.832640
 20
3.135000
  0
VERTEX
  8
0
  6
CONTINUOUS
 10
5.872240
 20
3.196160
  0
VERTEX
  8
0
  6
CONTINUOUS
 10
5.894240
 20
3.225640
  0
VERTEX
  8
0
  6
CONTINUOUS
 10
5.942640
 20
3.281520
  0
VERTEX
  8
0
  6
CONTINUOUS
 10
5.969040
 20
3.307920
  0
VERTEX
  8
0
  6
CONTINUOUS
 10
5.996760
 20
3.333000
  0
VERTEX
  8
0
  6
CONTINUOUS
 10
6.026240
 20
3.356760
  0
VERTEX
  8
0
  6
CONTINUOUS
 10
6.056600
 20
3.378760
  0
VERTEX
  8
0
  6
CONTINUOUS
 10
6.089160
 20
3.399440
  0
VERTEX
  8
0
  6
CONTINUOUS
 10
6.122600
 20
3.417920
  0
VERTEX
  8
0
  6
CONTINUOUS
 10
6.157800
 20
3.435080
  0
VERTEX
  8
0
  6
CONTINUOUS
 10
6.213240
 20
3.457080
  0
VERTEX
  8
0
  6
CONTINUOUS
 10
6.272200
 20
3.474240
  0
VERTEX
  8
0
  6
CONTINUOUS
 10
6.313120
 20
3.483040
  0
VERTEX
  8
0
  6
CONTINUOUS
 10
6.355800
 20
3.489200
  0
VERTEX
  8
0
  6
CONTINUOUS
 10
6.399800
 20
3.493160
  0
VERTEX
  8
0
  6
CONTINUOUS
 10
6.507600
 20
3.497560
  0
SEQEND
  8
0
  0
SOLID
  8
0
 62
    15
 10
4.374920
 20
2.032360
 11
5.008080
 21
2.407240
 12
4.326080
 22
1.944360
 13
4.959240
 23
2.319240
  0
POLYLINE
  8
0
  6
CONTINUOUS
 66
     1
 40
0.000000
 41
0.000000
  0
VERTEX
  8
0
  6
CONTINUOUS
 10
4.374920
 20
2.032360
  0
VERTEX
  8
0
  6
CONTINUOUS
 10
5.008080
 20
2.407240
  0
VERTEX
  8
0
  6
CONTINUOUS
 10
4.959240
 20
2.319240
  0
VERTEX
  8
0
  6
CONTINUOUS
 10
4.326080
 20
1.944360
  0
VERTEX
  8
0
  6
CONTINUOUS
 10
4.374920
 20
2.032360
  0
SEQEND
  8
0
  0
SOLID
  8
0
 62
    15
 10
3.806880
 20
3.125760
 11
4.439600
 21
3.500640
 12
3.890480
 22
3.110800
 13
4.523640
 23
3.485680
  0
POLYLINE
  8
0
  6
CONTINUOUS
 66
     1
 40
0.000000
 41
0.000000
  0
VERTEX
  8
0
  6
CONTINUOUS
 10
3.806880
 20
3.125760
  0
VERTEX
  8
0
  6
CONTINUOUS
 10
4.439600
 20
3.500640
  0
VERTEX
  8
0
  6
CONTINUOUS
 10
4.523640
 20
3.485680
  0
VERTEX
  8
0
  6
CONTINUOUS
 10
3.890480
 20
3.110800
  0
VERTEX
  8
0
  6
CONTINUOUS
 10
3.806880
 20
3.125760
  0
SEQEND
  8
0
  0
SOLID
  8
0
 62
    15
 10
3.890480
 20
3.110800
 11
4.523640
 21
3.485680
 12
3.968360
 22
3.087040
 13
4.601080
 23
3.461480
  0
POLYLINE
  8
0
  6
CONTINUOUS
 66
     1
 40
0.000000
 41
0.000000
  0
VERTEX
  8
0
  6
CONTINUOUS
 10
3.890480
 20
3.110800
  0
VERTEX
  8
0
  6
CONTINUOUS
 10
4.523640
 20
3.485680
  0
VERTEX
  8
0
  6
CONTINUOUS
 10
4.601080
 20
3.461480
  0
VERTEX
  8
0
  6
CONTINUOUS
 10
3.968360
 20
3.087040
  0
VERTEX
  8
0
  6
CONTINUOUS
 10
3.890480
 20
3.110800
  0
SEQEND
  8
0
  0
SOLID
  8
0
 62
    15
 10
3.968360
 20
3.087040
 11
4.601080
 21
3.461480
 12
4.040080
 22
3.054920
 13
4.672800
 23
3.429360
  0
POLYLINE
  8
0
  6
CONTINUOUS
 66
     1
 40
0.000000
 41
0.000000
  0
VERTEX
  8
0
  6
CONTINUOUS
 10
3.968360
 20
3.087040
  0
VERTEX
  8
0
  6
CONTINUOUS
 10
4.601080
 20
3.461480
  0
VERTEX
  8
0
  6
CONTINUOUS
 10
4.672800
 20
3.429360
  0
VERTEX
  8
0
  6
CONTINUOUS
 10
4.040080
 20
3.054920
  0
VERTEX
  8
0
  6
CONTINUOUS
 10
3.968360
 20
3.087040
  0
SEQEND
  8
0
  0
SOLID
  8
0
 62
    15
 10
4.040080
 20
3.054920
 11
4.672800
 21
3.429360
 12
4.105640
 22
3.015320
 13
4.738800
 23
3.389760
  0
POLYLINE
  8
0
  6
CONTINUOUS
 66
     1
 40
0.000000
 41
0.000000
  0
VERTEX
  8
0
  6
CONTINUOUS
 10
4.040080
 20
3.054920
  0
VERTEX
  8
0
  6
CONTINUOUS
 10
4.672800
 20
3.429360
  0
VERTEX
  8
0
  6
CONTINUOUS
 10
4.738800
 20
3.389760
  0
VERTEX
  8
0
  6
CONTINUOUS
 10
4.105640
 20
3.015320
  0
VERTEX
  8
0
  6
CONTINUOUS
 10
4.040080
 20
3.054920
  0
SEQEND
  8
0
  0
SOLID
  8
0
 62
    15
 10
4.105640
 20
3.015320
 11
4.738800
 21
3.389760
 12
4.165920
 22
2.969560
 13
4.798640
 23
3.344000
  0
POLYLINE
  8
0
  6
CONTINUOUS
 66
     1
 40
0.000000
 41
0.000000
  0
VERTEX
  8
0
  6
CONTINUOUS
 10
4.105640
 20
3.015320
  0
VERTEX
  8
0
  6
CONTINUOUS
 10
4.738800
 20
3.389760
  0
VERTEX
  8
0
  6
CONTINUOUS
 10
4.798640
 20
3.344000
  0
VERTEX
  8
0
  6
CONTINUOUS
 10
4.165920
 20
2.969560
  0
VERTEX
  8
0
  6
CONTINUOUS
 10
4.105640
 20
3.015320
  0
SEQEND
  8
0
  0
SOLID
  8
0
 62
    15
 10
4.165920
 20
2.969560
 11
4.798640
 21
3.344000
 12
4.220040
 22
2.918080
 13
4.852760
 23
3.292960
  0
POLYLINE
  8
0
  6
CONTINUOUS
 66
     1
 40
0.000000
 41
0.000000
  0
VERTEX
  8
0
  6
CONTINUOUS
 10
4.165920
 20
2.969560
  0
VERTEX
  8
0
  6
CONTINUOUS
 10
4.798640
 20
3.344000
  0
VERTEX
  8
0
  6
CONTINUOUS
 10
4.852760
 20
3.292960
  0
VERTEX
  8
0
  6
CONTINUOUS
 10
4.220040
 20
2.918080
  0
VERTEX
  8
0
  6
CONTINUOUS
 10
4.165920
 20
2.969560
  0
SEQEND
  8
0
  0
SOLID
  8
0
 62
    15
 10
4.220040
 20
2.918080
 11
4.852760
 21
3.292960
 12
4.268440
 22
2.862200
 13
4.901160
 23
3.237080
  0
POLYLINE
  8
0
  6
CONTINUOUS
 66
     1
 40
0.000000
 41
0.000000
  0
VERTEX
  8
0
  6
CONTINUOUS
 10
4.220040
 20
2.918080
  0
VERTEX
  8
0
  6
CONTINUOUS
 10
4.852760
 20
3.292960
  0
VERTEX
  8
0
  6
CONTINUOUS
 10
4.901160
 20
3.237080
  0
VERTEX
  8
0
  6
CONTINUOUS
 10
4.268440
 20
2.862200
  0
VERTEX
  8
0
  6
CONTINUOUS
 10
4.220040
 20
2.918080
  0
SEQEND
  8
0
  0
SOLID
  8
0
 62
    15
 10
4.268440
 20
2.862200
 11
4.901160
 21
3.237080
 12
4.348080
 22
2.739880
 13
4.980800
 23
3.114320
  0
POLYLINE
  8
0
  6
CONTINUOUS
 66
     1
 40
0.000000
 41
0.000000
  0
VERTEX
  8
0
  6
CONTINUOUS
 10
4.268440
 20
2.862200
  0
VERTEX
  8
0
  6
CONTINUOUS
 10
4.901160
 20
3.237080
  0
VERTEX
  8
0
  6
CONTINUOUS
 10
4.980800
 20
3.114320
  0
VERTEX
  8
0
  6
CONTINUOUS
 10
4.348080
 20
2.739880
  0
VERTEX
  8
0
  6
CONTINUOUS
 10
4.268440
 20
2.862200
  0
SEQEND
  8
0
  0
SOLID
  8
0
 62
    15
 10
4.348080
 20
2.739880
 11
4.980800
 21
3.114320
 12
4.405280
 22
2.609200
 13
5.038000
 23
2.983640
  0
POLYLINE
  8
0
  6
CONTINUOUS
 66
     1
 40
0.000000
 41
0.000000
  0
VERTEX
  8
0
  6
CONTINUOUS
 10
4.348080
 20
2.739880
  0
VERTEX
  8
0
  6
CONTINUOUS
 10
4.980800
 20
3.114320
  0
VERTEX
  8
0
  6
CONTINUOUS
 10
5.038000
 20
2.983640
  0
VERTEX
  8
0
  6
CONTINUOUS
 10
4.405280
 20
2.609200
  0
VERTEX
  8
0
  6
CONTINUOUS
 10
4.348080
 20
2.739880
  0
SEQEND
  8
0
  0
SOLID
  8
0
 62
    15
 10
4.405280
 20
2.609200
 11
5.038000
 21
2.983640
 12
4.440040
 22
2.477200
 13
5.073200
 23
2.851640
  0
POLYLINE
  8
0
  6
CONTINUOUS
 66
     1
 40
0.000000
 41
0.000000
  0
VERTEX
  8
0
  6
CONTINUOUS
 10
4.405280
 20
2.609200
  0
VERTEX
  8
0
  6
CONTINUOUS
 10
5.038000
 20
2.983640
  0
VERTEX
  8
0
  6
CONTINUOUS
 10
5.073200
 20
2.851640
  0
VERTEX
  8
0
  6
CONTINUOUS
 10
4.440040
 20
2.477200
  0
VERTEX
  8
0
  6
CONTINUOUS
 10
4.405280
 20
2.609200
  0
SEQEND
  8
0
  0
SOLID
  8
0
 62
    15
 10
4.440040
 20
2.477200
 11
5.073200
 21
2.851640
 12
4.453240
 22
2.350480
 13
5.085960
 23
2.725360
  0
POLYLINE
  8
0
  6
CONTINUOUS
 66
     1
 40
0.000000
 41
0.000000
  0
VERTEX
  8
0
  6
CONTINUOUS
 10
4.440040
 20
2.477200
  0
VERTEX
  8
0
  6
CONTINUOUS
 10
5.073200
 20
2.851640
  0
VERTEX
  8
0
  6
CONTINUOUS
 10
5.085960
 20
2.725360
  0
VERTEX
  8
0
  6
CONTINUOUS
 10
4.453240
 20
2.350480
  0
VERTEX
  8
0
  6
CONTINUOUS
 10
4.440040
 20
2.477200
  0
SEQEND
  8
0
  0
SOLID
  8
0
 62
    15
 10
4.453240
 20
2.350480
 11
5.085960
 21
2.725360
 12
4.444000
 22
2.244440
 13
5.076720
 23
2.619320
  0
POLYLINE
  8
0
  6
CONTINUOUS
 66
     1
 40
0.000000
 41
0.000000
  0
VERTEX
  8
0
  6
CONTINUOUS
 10
4.453240
 20
2.350480
  0
VERTEX
  8
0
  6
CONTINUOUS
 10
5.085960
 20
2.725360
  0
VERTEX
  8
0
  6
CONTINUOUS
 10
5.076720
 20
2.619320
  0
VERTEX
  8
0
  6
CONTINUOUS
 10
4.444000
 20
2.244440
  0
VERTEX
  8
0
  6
CONTINUOUS
 10
4.453240
 20
2.350480
  0
SEQEND
  8
0
  0
SOLID
  8
0
 62
    15
 10
4.444000
 20
2.244440
 11
5.076720
 21
2.619320
 12
4.416280
 22
2.135320
 13
5.049000
 23
2.510200
  0
POLYLINE
  8
0
  6
CONTINUOUS
 66
     1
 40
0.000000
 41
0.000000
  0
VERTEX
  8
0
  6
CONTINUOUS
 10
4.444000
 20
2.244440
  0
VERTEX
  8
0
  6
CONTINUOUS
 10
5.076720
 20
2.619320
  0
VERTEX
  8
0
  6
CONTINUOUS
 10
5.049000
 20
2.510200
  0
VERTEX
  8
0
  6
CONTINUOUS
 10
4.416280
 20
2.135320
  0
VERTEX
  8
0
  6
CONTINUOUS
 10
4.444000
 20
2.244440
  0
SEQEND
  8
0
  0
SOLID
  8
0
 62
    15
 10
4.416280
 20
2.135320
 11
5.049000
 21
2.510200
 12
4.374920
 22
2.032360
 13
5.008080
 23
2.407240
  0
POLYLINE
  8
0
  6
CONTINUOUS
 66
     1
 40
0.000000
 41
0.000000
  0
VERTEX
  8
0
  6
CONTINUOUS
 10
4.416280
 20
2.135320
  0
VERTEX
  8
0
  6
CONTINUOUS
 10
5.049000
 20
2.510200
  0
VERTEX
  8
0
  6
CONTINUOUS
 10
5.008080
 20
2.407240
  0
VERTEX
  8
0
  6
CONTINUOUS
 10
4.374920
 20
2.032360
  0
VERTEX
  8
0
  6
CONTINUOUS
 10
4.416280
 20
2.135320
  0
SEQEND
  8
0
  0
SOLID
  8
0
 62
    15
 10
3.717120
 20
3.131040
 11
4.349840
 21
3.505920
 12
3.806880
 22
3.125760
 13
4.439600
 23
3.500640
  0
POLYLINE
  8
0
  6
CONTINUOUS
 66
     1
 40
0.000000
 41
0.000000
  0
VERTEX
  8
0
  6
CONTINUOUS
 10
3.717120
 20
3.131040
  0
VERTEX
  8
0
  6
CONTINUOUS
 10
4.349840
 20
3.505920
  0
VERTEX
  8
0
  6
CONTINUOUS
 10
4.439600
 20
3.500640
  0
VERTEX
  8
0
  6
CONTINUOUS
 10
3.806880
 20
3.125760
  0
VERTEX
  8
0
  6
CONTINUOUS
 10
3.717120
 20
3.131040
  0
SEQEND
  8
0
  0
SOLID
  8
0
 62
    15
 10
4.326080
 20
1.944360
 11
4.959240
 21
2.319240
 12
4.308920
 22
1.903880
 13
4.942080
 23
2.278760
  0
POLYLINE
  8
0
  6
CONTINUOUS
 66
     1
 40
0.000000
 41
0.000000
  0
VERTEX
  8
0
  6
CONTINUOUS
 10
4.326080
 20
1.944360
  0
VERTEX
  8
0
  6
CONTINUOUS
 10
4.959240
 20
2.319240
  0
VERTEX
  8
0
  6
CONTINUOUS
 10
4.942080
 20
2.278760
  0
VERTEX
  8
0
  6
CONTINUOUS
 10
4.308920
 20
1.903880
  0
VERTEX
  8
0
  6
CONTINUOUS
 10
4.326080
 20
1.944360
  0
SEQEND
  8
0
  0
SOLID
  8
0
 62
    15
 10
4.308920
 20
1.903880
 11
4.942080
 21
2.278760
 12
4.301440
 22
1.859440
 13
4.934600
 23
2.234320
  0
POLYLINE
  8
0
  6
CONTINUOUS
 66
     1
 40
0.000000
 41
0.000000
  0
VERTEX
  8
0
  6
CONTINUOUS
 10
4.308920
 20
1.903880
  0
VERTEX
  8
0
  6
CONTINUOUS
 10
4.942080
 20
2.278760
  0
VERTEX
  8
0
  6
CONTINUOUS
 10
4.934600
 20
2.234320
  0
VERTEX
  8
0
  6
CONTINUOUS
 10
4.301440
 20
1.859440
  0
VERTEX
  8
0
  6
CONTINUOUS
 10
4.308920
 20
1.903880
  0
SEQEND
  8
0
  0
SOLID
  8
0
 62
    15
 10
4.301440
 20
1.859440
 11
4.934600
 21
2.234320
 12
4.303200
 22
1.812800
 13
4.936360
 23
2.187680
  0
POLYLINE
  8
0
  6
CONTINUOUS
 66
     1
 40
0.000000
 41
0.000000
  0
VERTEX
  8
0
  6
CONTINUOUS
 10
4.301440
 20
1.859440
  0
VERTEX
  8
0
  6
CONTINUOUS
 10
4.934600
 20
2.234320
  0
VERTEX
  8
0
  6
CONTINUOUS
 10
4.936360
 20
2.187680
  0
VERTEX
  8
0
  6
CONTINUOUS
 10
4.303200
 20
1.812800
  0
VERTEX
  8
0
  6
CONTINUOUS
 10
4.301440
 20
1.859440
  0
SEQEND
  8
0
  0
SOLID
  8
0
 62
    15
 10
4.303200
 20
1.812800
 11
4.936360
 21
2.187680
 12
4.313760
 22
1.765720
 13
4.946920
 23
2.140600
  0
POLYLINE
  8
0
  6
CONTINUOUS
 66
     1
 40
0.000000
 41
0.000000
  0
VERTEX
  8
0
  6
CONTINUOUS
 10
4.303200
 20
1.812800
  0
VERTEX
  8
0
  6
CONTINUOUS
 10
4.936360
 20
2.187680
  0
VERTEX
  8
0
  6
CONTINUOUS
 10
4.946920
 20
2.140600
  0
VERTEX
  8
0
  6
CONTINUOUS
 10
4.313760
 20
1.765720
  0
VERTEX
  8
0
  6
CONTINUOUS
 10
4.303200
 20
1.812800
  0
SEQEND
  8
0
  0
SOLID
  8
0
 62
    15
 10
4.313760
 20
1.765720
 11
4.946920
 21
2.140600
 12
4.333120
 22
1.719960
 13
4.966280
 23
2.094840
  0
POLYLINE
  8
0
  6
CONTINUOUS
 66
     1
 40
0.000000
 41
0.000000
  0
VERTEX
  8
0
  6
CONTINUOUS
 10
4.313760
 20
1.765720
  0
VERTEX
  8
0
  6
CONTINUOUS
 10
4.946920
 20
2.140600
  0
VERTEX
  8
0
  6
CONTINUOUS
 10
4.966280
 20
2.094840
  0
VERTEX
  8
0
  6
CONTINUOUS
 10
4.333120
 20
1.719960
  0
VERTEX
  8
0
  6
CONTINUOUS
 10
4.313760
 20
1.765720
  0
SEQEND
  8
0
  0
SOLID
  8
0
 62
    15
 10
4.333120
 20
1.719960
 11
4.966280
 21
2.094840
 12
4.360840
 22
1.677280
 13
4.994000
 23
2.052160
  0
POLYLINE
  8
0
  6
CONTINUOUS
 66
     1
 40
0.000000
 41
0.000000
  0
VERTEX
  8
0
  6
CONTINUOUS
 10
4.333120
 20
1.719960
  0
VERTEX
  8
0
  6
CONTINUOUS
 10
4.966280
 20
2.094840
  0
VERTEX
  8
0
  6
CONTINUOUS
 10
4.994000
 20
2.052160
  0
VERTEX
  8
0
  6
CONTINUOUS
 10
4.360840
 20
1.677280
  0
VERTEX
  8
0
  6
CONTINUOUS
 10
4.333120
 20
1.719960
  0
SEQEND
  8
0
  0
SOLID
  8
0
 62
    15
 10
4.360840
 20
1.677280
 11
4.994000
 21
2.052160
 12
4.396480
 22
1.639440
 13
5.029640
 23
2.014320
  0
POLYLINE
  8
0
  6
CONTINUOUS
 66
     1
 40
0.000000
 41
0.000000
  0
VERTEX
  8
0
  6
CONTINUOUS
 10
4.360840
 20
1.677280
  0
VERTEX
  8
0
  6
CONTINUOUS
 10
4.994000
 20
2.052160
  0
VERTEX
  8
0
  6
CONTINUOUS
 10
5.029640
 20
2.014320
  0
VERTEX
  8
0
  6
CONTINUOUS
 10
4.396480
 20
1.639440
  0
VERTEX
  8
0
  6
CONTINUOUS
 10
4.360840
 20
1.677280
  0
SEQEND
  8
0
  0
SOLID
  8
0
 62
    15
 10
4.396480
 20
1.639440
 11
5.029640
 21
2.014320
 12
4.440480
 22
1.608200
 13
5.073640
 23
1.983080
  0
POLYLINE
  8
0
  6
CONTINUOUS
 66
     1
 40
0.000000
 41
0.000000
  0
VERTEX
  8
0
  6
CONTINUOUS
 10
4.396480
 20
1.639440
  0
VERTEX
  8
0
  6
CONTINUOUS
 10
5.029640
 20
2.014320
  0
VERTEX
  8
0
  6
CONTINUOUS
 10
5.073640
 20
1.983080
  0
VERTEX
  8
0
  6
CONTINUOUS
 10
4.440480
 20
1.608200
  0
VERTEX
  8
0
  6
CONTINUOUS
 10
4.396480
 20
1.639440
  0
SEQEND
  8
0
  0
SOLID
  8
0
 62
    15
 10
4.440480
 20
1.608200
 11
5.073640
 21
1.983080
 12
4.440480
 22
1.125960
 13
5.073640
 23
1.500840
  0
POLYLINE
  8
0
  6
CONTINUOUS
 66
     1
 40
0.000000
 41
0.000000
  0
VERTEX
  8
0
  6
CONTINUOUS
 10
4.440480
 20
1.608200
  0
VERTEX
  8
0
  6
CONTINUOUS
 10
5.073640
 20
1.983080
  0
VERTEX
  8
0
  6
CONTINUOUS
 10
5.073640
 20
1.500840
  0
VERTEX
  8
0
  6
CONTINUOUS
 10
4.440480
 20
1.125960
  0
VERTEX
  8
0
  6
CONTINUOUS
 10
4.440480
 20
1.608200
  0
SEQEND
  8
0
  0
SOLID
  8
0
 62
    15
 10
4.440480
 20
1.125960
 11
5.073640
 21
1.500840
 12
4.436520
 22
1.122880
 13
5.069680
 23
1.497760
  0
POLYLINE
  8
0
  6
CONTINUOUS
 66
     1
 40
0.000000
 41
0.000000
  0
VERTEX
  8
0
  6
CONTINUOUS
 10
4.440480
 20
1.125960
  0
VERTEX
  8
0
  6
CONTINUOUS
 10
5.073640
 20
1.500840
  0
VERTEX
  8
0
  6
CONTINUOUS
 10
5.069680
 20
1.497760
  0
VERTEX
  8
0
  6
CONTINUOUS
 10
4.436520
 20
1.122880
  0
VERTEX
  8
0
  6
CONTINUOUS
 10
4.440480
 20
1.125960
  0
SEQEND
  8
0
  0
SOLID
  8
0
 62
    15
 10
3.332120
 20
3.051840
 11
3.965280
 21
3.426280
 12
3.403840
 22
3.083960
 13
4.037000
 23
3.458400
  0
POLYLINE
  8
0
  6
CONTINUOUS
 66
     1
 40
0.000000
 41
0.000000
  0
VERTEX
  8
0
  6
CONTINUOUS
 10
3.332120
 20
3.051840
  0
VERTEX
  8
0
  6
CONTINUOUS
 10
3.965280
 20
3.426280
  0
VERTEX
  8
0
  6
CONTINUOUS
 10
4.037000
 20
3.458400
  0
VERTEX
  8
0
  6
CONTINUOUS
 10
3.403840
 20
3.083960
  0
VERTEX
  8
0
  6
CONTINUOUS
 10
3.332120
 20
3.051840
  0
SEQEND
  8
0
  0
SOLID
  8
0
 62
    15
 10
3.403840
 20
3.083960
 11
4.037000
 21
3.458400
 12
3.481720
 22
3.107720
 13
4.114440
 23
3.482600
  0
POLYLINE
  8
0
  6
CONTINUOUS
 66
     1
 40
0.000000
 41
0.000000
  0
VERTEX
  8
0
  6
CONTINUOUS
 10
3.403840
 20
3.083960
  0
VERTEX
  8
0
  6
CONTINUOUS
 10
4.037000
 20
3.458400
  0
VERTEX
  8
0
  6
CONTINUOUS
 10
4.114440
 20
3.482600
  0
VERTEX
  8
0
  6
CONTINUOUS
 10
3.481720
 20
3.107720
  0
VERTEX
  8
0
  6
CONTINUOUS
 10
3.403840
 20
3.083960
  0
SEQEND
  8
0
  0
SOLID
  8
0
 62
    15
 10
3.481720
 20
3.107720
 11
4.114440
 21
3.482600
 12
3.565320
 22
3.123120
 13
4.198480
 23
3.497560
  0
POLYLINE
  8
0
  6
CONTINUOUS
 66
     1
 40
0.000000
 41
0.000000
  0
VERTEX
  8
0
  6
CONTINUOUS
 10
3.481720
 20
3.107720
  0
VERTEX
  8
0
  6
CONTINUOUS
 10
4.114440
 20
3.482600
  0
VERTEX
  8
0
  6
CONTINUOUS
 10
4.198480
 20
3.497560
  0
VERTEX
  8
0
  6
CONTINUOUS
 10
3.565320
 20
3.123120
  0
VERTEX
  8
0
  6
CONTINUOUS
 10
3.481720
 20
3.107720
  0
SEQEND
  8
0
  0
SOLID
  8
0
 62
    15
 10
3.565320
 20
3.123120
 11
4.198480
 21
3.497560
 12
3.655080
 22
3.127960
 13
4.288240
 23
3.502840
  0
POLYLINE
  8
0
  6
CONTINUOUS
 66
     1
 40
0.000000
 41
0.000000
  0
VERTEX
  8
0
  6
CONTINUOUS
 10
3.565320
 20
3.123120
  0
VERTEX
  8
0
  6
CONTINUOUS
 10
4.198480
 20
3.497560
  0
VERTEX
  8
0
  6
CONTINUOUS
 10
4.288240
 20
3.502840
  0
VERTEX
  8
0
  6
CONTINUOUS
 10
3.655080
 20
3.127960
  0
VERTEX
  8
0
  6
CONTINUOUS
 10
3.565320
 20
3.123120
  0
SEQEND
  8
0
  0
SOLID
  8
0
 62
    15
 10
3.655080
 20
3.127960
 11
4.288240
 21
3.502840
 12
3.717120
 22
3.131040
 13
4.349840
 23
3.505920
  0
POLYLINE
  8
0
  6
CONTINUOUS
 66
     1
 40
0.000000
 41
0.000000
  0
VERTEX
  8
0
  6
CONTINUOUS
 10
3.655080
 20
3.127960
  0
VERTEX
  8
0
  6
CONTINUOUS
 10
4.288240
 20
3.502840
  0
VERTEX
  8
0
  6
CONTINUOUS
 10
4.349840
 20
3.505920
  0
VERTEX
  8
0
  6
CONTINUOUS
 10
3.717120
 20
3.131040
  0
VERTEX
  8
0
  6
CONTINUOUS
 10
3.655080
 20
3.127960
  0
SEQEND
  8
0
  0
POLYLINE
  8
0
  6
CONTINUOUS
 66
     1
 40
0.000000
 41
0.000000
  0
VERTEX
  8
0
  6
CONTINUOUS
 10
3.717120
 20
3.131040
  0
VERTEX
  8
0
  6
CONTINUOUS
 10
3.806880
 20
3.125760
  0
VERTEX
  8
0
  6
CONTINUOUS
 10
3.890480
 20
3.110800
  0
VERTEX
  8
0
  6
CONTINUOUS
 10
3.968360
 20
3.087040
  0
VERTEX
  8
0
  6
CONTINUOUS
 10
4.040080
 20
3.054920
  0
VERTEX
  8
0
  6
CONTINUOUS
 10
4.105640
 20
3.015320
  0
VERTEX
  8
0
  6
CONTINUOUS
 10
4.165920
 20
2.969560
  0
VERTEX
  8
0
  6
CONTINUOUS
 10
4.220040
 20
2.918080
  0
VERTEX
  8
0
  6
CONTINUOUS
 10
4.268440
 20
2.862200
  0
VERTEX
  8
0
  6
CONTINUOUS
 10
4.348080
 20
2.739880
  0
VERTEX
  8
0
  6
CONTINUOUS
 10
4.405280
 20
2.609200
  0
VERTEX
  8
0
  6
CONTINUOUS
 10
4.440040
 20
2.477200
  0
VERTEX
  8
0
  6
CONTINUOUS
 10
4.453240
 20
2.350480
  0
VERTEX
  8
0
  6
CONTINUOUS
 10
4.444000
 20
2.244440
  0
VERTEX
  8
0
  6
CONTINUOUS
 10
4.416280
 20
2.135320
  0
VERTEX
  8
0
  6
CONTINUOUS
 10
4.374920
 20
2.032360
  0
VERTEX
  8
0
  6
CONTINUOUS
 10
4.326080
 20
1.944360
  0
VERTEX
  8
0
  6
CONTINUOUS
 10
4.308920
 20
1.903880
  0
VERTEX
  8
0
  6
CONTINUOUS
 10
4.301440
 20
1.859440
  0
VERTEX
  8
0
  6
CONTINUOUS
 10
4.303200
 20
1.812800
  0
VERTEX
  8
0
  6
CONTINUOUS
 10
4.313760
 20
1.765720
  0
VERTEX
  8
0
  6
CONTINUOUS
 10
4.333120
 20
1.719960
  0
VERTEX
  8
0
  6
CONTINUOUS
 10
4.360840
 20
1.677280
  0
VERTEX
  8
0
  6
CONTINUOUS
 10
4.396480
 20
1.639440
  0
VERTEX
  8
0
  6
CONTINUOUS
 10
4.440480
 20
1.608200
  0
VERTEX
  8
0
  6
CONTINUOUS
 10
4.440480
 20
1.125960
  0
VERTEX
  8
0
  6
CONTINUOUS
 10
4.436520
 20
1.122880
  0
VERTEX
  8
0
  6
CONTINUOUS
 10
2.931720
 20
1.122880
  0
VERTEX
  8
0
  6
CONTINUOUS
 10
2.931720
 20
1.605120
  0
VERTEX
  8
0
  6
CONTINUOUS
 10
2.975280
 20
1.636800
  0
VERTEX
  8
0
  6
CONTINUOUS
 10
3.011360
 20
1.674640
  0
VERTEX
  8
0
  6
CONTINUOUS
 10
3.039080
 20
1.717320
  0
VERTEX
  8
0
  6
CONTINUOUS
 10
3.058440
 20
1.762640
  0
VERTEX
  8
0
  6
CONTINUOUS
 10
3.069000
 20
1.809720
  0
VERTEX
  8
0
  6
CONTINUOUS
 10
3.070760
 20
1.856360
  0
VERTEX
  8
0
  6
CONTINUOUS
 10
3.062840
 20
1.900800
  0
VERTEX
  8
0
  6
CONTINUOUS
 10
3.045680
 20
1.941720
  0
VERTEX
  8
0
  6
CONTINUOUS
 10
2.997280
 20
2.029280
  0
VERTEX
  8
0
  6
CONTINUOUS
 10
2.955920
 20
2.132240
  0
VERTEX
  8
0
  6
CONTINUOUS
 10
2.928200
 20
2.241360
  0
VERTEX
  8
0
  6
CONTINUOUS
 10
2.918960
 20
2.347840
  0
VERTEX
  8
0
  6
CONTINUOUS
 10
2.932160
 20
2.474120
  0
VERTEX
  8
0
  6
CONTINUOUS
 10
2.966920
 20
2.606120
  0
VERTEX
  8
0
  6
CONTINUOUS
 10
3.024120
 20
2.736800
  0
VERTEX
  8
0
  6
CONTINUOUS
 10
3.103760
 20
2.859120
  0
VERTEX
  8
0
  6
CONTINUOUS
 10
3.152160
 20
2.915440
  0
VERTEX
  8
0
  6
CONTINUOUS
 10
3.206280
 20
2.966480
  0
VERTEX
  8
0
  6
CONTINUOUS
 10
3.266120
 20
3.012240
  0
VERTEX
  8
0
  6
CONTINUOUS
 10
3.332120
 20
3.051840
  0
VERTEX
  8
0
  6
CONTINUOUS
 10
3.403840
 20
3.083960
  0
VERTEX
  8
0
  6
CONTINUOUS
 10
3.481720
 20
3.107720
  0
VERTEX
  8
0
  6
CONTINUOUS
 10
3.565320
 20
3.123120
  0
VERTEX
  8
0
  6
CONTINUOUS
 10
3.717120
 20
3.131040
  0
SEQEND
  8
0
  0
TEXT
  8
0
 10
3.707440
 20
0.868120
 40
0.138019
  1
BA  923
 41
1.000000
  7
SN0
 71
     0
 72
     5
 11
4.296468
 21
0.868120
  0
TEXT
  8
0
 10
3.621200
 20
0.676720
 40
0.138019
  1
1-1/2" x 2"
 41
1.000000
  7
SN0
 71
     0
 72
     5
 11
4.382235
 21
0.676720
  0
ENDSEC
  0
EOF
