  0
SECTION
  2
HEADER
  9
$ACADVER
  1
AC1006
  9
$EXTMIN
 10
1.829960
 20
0.747120
  9
$EXTMAX
 10
7.136800
 20
3.000360
  9
$LTSCALE
 40
0.044000
  9
$PDMODE
 70
    35
  9
$PDSIZE
 40
0.035200
  0
ENDSEC
  0
SECTION
  2
TABLES
  0
TABLE
  2
LTYPE
 70
     9
  0
LTYPE
  2
CONTINUOUS
 70
    64
  3
Solid line
 72
    65
 73
     0
 40
0.000000
  0
LTYPE
  2
DASHED
 70
    64
  3
__ __ __ __ __ __ __ __ __ __ __ __ __ __ __
 72
    65
 73
     2
 40
0.000330
 49
0.000220
 49
-0.000110
  0
LTYPE
  2
HIDDEN
 70
    64
  3
 _ _ _ _ _ _ _ _ _ _ _ _ _ _ _ _ _ _ _ _ _ _
 72
    65
 73
     2
 40
0.000165
 49
0.000110
 49
-0.000055
  0
LTYPE
  2
CENTER
 70
    64
  3
____ _ ____ _ ____ _ ____ _ ____ _ ____ _ ____
 72
    65
 73
     4
 40
0.000880
 49
0.000550
 49
-0.000110
 49
0.000110
 49
-0.000110
  0
LTYPE
  2
PHANTOM
 70
    64
  3
_____ _ _ _____ _ _ _____ _ _ _____ _ _ ____
 72
    65
 73
     6
 40
0.001100
 49
0.000550
 49
-0.000110
 49
0.000110
 49
-0.000110
 49
0.000110
 49
-0.000110
  0
LTYPE
  2
DOT
 70
    64
  3
...............................................
 72
    65
 73
     2
 40
0.000110
 49
0.000000
 49
-0.000110
  0
LTYPE
  2
DASHDOT
 70
    64
  3
__ . __ . __ . __ . __ . __ . __ . __ . __ . __
 72
    65
 73
     4
 40
0.000440
 49
0.000220
 49
-0.000110
 49
0.000000
 49
-0.000110
  0
LTYPE
  2
BORDER
 70
    64
  3
__ __ . __ __ . __ __ . __ __ . __ __ . __ __
 72
    65
 73
     6
 40
0.000770
 49
0.000220
 49
-0.000110
 49
0.000220
 49
-0.000110
 49
0.000000
 49
-0.000110
  0
LTYPE
  2
DIVIDE
 70
    64
  3
__ . . __ . . __ . . __ . . __ . . __ . . __
 72
    65
 73
     6
 40
0.000550
 49
0.000220
 49
-0.000110
 49
0.000000
 49
-0.000110
 49
0.000000
 49
-0.000110
  0
LTYPE
  2
DOTDOT
 70
    64
  3
 . .  . .  . .  . .  . .  . . 
 72
    65
 73
     5
 40
0.000242
 49
-0.000110
 49
0.000000
 49
-0.000110
 49
0.000000
 49
-0.000110
  0
ENDTAB
  0
TABLE
  2
STYLE
 70
     2
  0
STYLE
 70
     0
  2
SN0
 40
0.000000
 41
0.000440
 50
0.000000
 71
     0
 42
0.000000
  3
ROMAND
  0
STYLE
 70
    68
  2
SV0
 40
0.000000
 41
0.000440
 50
0.000000
 71
     0
 42
0.000000
  3
ROMAND
  0
ENDTAB
  0
TABLE
  2
LAYER
 70
     3
  0
LAYER
  2
FOREGROUND
 70
    64
 62
     7
  6
CONTINUOUS
  0
LAYER
  2
BACKGROUND
 70
    65
 62
    -7
  6
CONTINUOUS
  0
LAYER
  2
0
 70
    64
 62
     7
  6
CONTINUOUS
  0
ENDTAB
  0
ENDSEC
  0
SECTION
  2
ENTITIES
  0
POLYLINE
  8
FOREGROUND
  6
CONTINUOUS
 66
     1
 40
0.000000
 41
0.000000
  0
VERTEX
  8
FOREGROUND
  6
CONTINUOUS
 10
0.000000
 20
3.747480
  0
VERTEX
  8
FOREGROUND
  6
CONTINUOUS
 10
8.499920
 20
3.747480
  0
VERTEX
  8
FOREGROUND
  6
CONTINUOUS
 10
8.499920
 20
-7.252520
  0
VERTEX
  8
FOREGROUND
  6
CONTINUOUS
 10
0.000000
 20
-7.252520
  0
VERTEX
  8
FOREGROUND
  6
CONTINUOUS
 10
0.000000
 20
3.747480
  0
SEQEND
  8
0
  0
POLYLINE
  8
FOREGROUND
  6
CONTINUOUS
 66
     1
 40
0.000000
 41
0.000000
  0
VERTEX
  8
FOREGROUND
  6
CONTINUOUS
 10
0.000000
 20
3.747480
  0
VERTEX
  8
FOREGROUND
  6
CONTINUOUS
 10
8.499920
 20
3.747480
  0
VERTEX
  8
FOREGROUND
  6
CONTINUOUS
 10
8.499920
 20
-7.252520
  0
VERTEX
  8
FOREGROUND
  6
CONTINUOUS
 10
0.000000
 20
-7.252520
  0
VERTEX
  8
FOREGROUND
  6
CONTINUOUS
 10
0.000000
 20
3.747480
  0
SEQEND
  8
0
  0
SOLID
  8
0
 62
    15
 10
2.984960
 20
2.153800
 11
3.625160
 21
1.785960
 12
2.897840
 22
2.087360
 13
3.538040
 23
1.719520
  0
POLYLINE
  8
0
  6
CONTINUOUS
 66
     1
 40
0.000000
 41
0.000000
  0
VERTEX
  8
0
  6
CONTINUOUS
 10
2.984960
 20
2.153800
  0
VERTEX
  8
0
  6
CONTINUOUS
 10
3.625160
 20
1.785960
  0
VERTEX
  8
0
  6
CONTINUOUS
 10
3.538040
 20
1.719520
  0
VERTEX
  8
0
  6
CONTINUOUS
 10
2.897840
 20
2.087360
  0
VERTEX
  8
0
  6
CONTINUOUS
 10
2.984960
 20
2.153800
  0
SEQEND
  8
0
  0
SOLID
  8
0
 62
    15
 10
3.185600
 20
2.971320
 11
3.826240
 21
2.603480
 12
3.199240
 22
2.931720
 13
3.839880
 23
2.563880
  0
POLYLINE
  8
0
  6
CONTINUOUS
 66
     1
 40
0.000000
 41
0.000000
  0
VERTEX
  8
0
  6
CONTINUOUS
 10
3.185600
 20
2.971320
  0
VERTEX
  8
0
  6
CONTINUOUS
 10
3.826240
 20
2.603480
  0
VERTEX
  8
0
  6
CONTINUOUS
 10
3.839880
 20
2.563880
  0
VERTEX
  8
0
  6
CONTINUOUS
 10
3.199240
 20
2.931720
  0
VERTEX
  8
0
  6
CONTINUOUS
 10
3.185600
 20
2.971320
  0
SEQEND
  8
0
  0
SOLID
  8
0
 62
    15
 10
3.199240
 20
2.931720
 11
3.839880
 21
2.563880
 12
3.212000
 22
2.882440
 13
3.852200
 23
2.514600
  0
POLYLINE
  8
0
  6
CONTINUOUS
 66
     1
 40
0.000000
 41
0.000000
  0
VERTEX
  8
0
  6
CONTINUOUS
 10
3.199240
 20
2.931720
  0
VERTEX
  8
0
  6
CONTINUOUS
 10
3.839880
 20
2.563880
  0
VERTEX
  8
0
  6
CONTINUOUS
 10
3.852200
 20
2.514600
  0
VERTEX
  8
0
  6
CONTINUOUS
 10
3.212000
 20
2.882440
  0
VERTEX
  8
0
  6
CONTINUOUS
 10
3.199240
 20
2.931720
  0
SEQEND
  8
0
  0
SOLID
  8
0
 62
    15
 10
3.212000
 20
2.882440
 11
3.852200
 21
2.514600
 12
3.222120
 22
2.824800
 13
3.862320
 23
2.456960
  0
POLYLINE
  8
0
  6
CONTINUOUS
 66
     1
 40
0.000000
 41
0.000000
  0
VERTEX
  8
0
  6
CONTINUOUS
 10
3.212000
 20
2.882440
  0
VERTEX
  8
0
  6
CONTINUOUS
 10
3.852200
 20
2.514600
  0
VERTEX
  8
0
  6
CONTINUOUS
 10
3.862320
 20
2.456960
  0
VERTEX
  8
0
  6
CONTINUOUS
 10
3.222120
 20
2.824800
  0
VERTEX
  8
0
  6
CONTINUOUS
 10
3.212000
 20
2.882440
  0
SEQEND
  8
0
  0
SOLID
  8
0
 62
    15
 10
3.222120
 20
2.824800
 11
3.862320
 21
2.456960
 12
3.228280
 22
2.759680
 13
3.868920
 23
2.391840
  0
POLYLINE
  8
0
  6
CONTINUOUS
 66
     1
 40
0.000000
 41
0.000000
  0
VERTEX
  8
0
  6
CONTINUOUS
 10
3.222120
 20
2.824800
  0
VERTEX
  8
0
  6
CONTINUOUS
 10
3.862320
 20
2.456960
  0
VERTEX
  8
0
  6
CONTINUOUS
 10
3.868920
 20
2.391840
  0
VERTEX
  8
0
  6
CONTINUOUS
 10
3.228280
 20
2.759680
  0
VERTEX
  8
0
  6
CONTINUOUS
 10
3.222120
 20
2.824800
  0
SEQEND
  8
0
  0
SOLID
  8
0
 62
    15
 10
3.228280
 20
2.759680
 11
3.868920
 21
2.391840
 12
3.229600
 22
2.689720
 13
3.870240
 23
2.321880
  0
POLYLINE
  8
0
  6
CONTINUOUS
 66
     1
 40
0.000000
 41
0.000000
  0
VERTEX
  8
0
  6
CONTINUOUS
 10
3.228280
 20
2.759680
  0
VERTEX
  8
0
  6
CONTINUOUS
 10
3.868920
 20
2.391840
  0
VERTEX
  8
0
  6
CONTINUOUS
 10
3.870240
 20
2.321880
  0
VERTEX
  8
0
  6
CONTINUOUS
 10
3.229600
 20
2.689720
  0
VERTEX
  8
0
  6
CONTINUOUS
 10
3.228280
 20
2.759680
  0
SEQEND
  8
0
  0
SOLID
  8
0
 62
    15
 10
3.229600
 20
2.689720
 11
3.870240
 21
2.321880
 12
3.224760
 22
2.614920
 13
3.864960
 23
2.247080
  0
POLYLINE
  8
0
  6
CONTINUOUS
 66
     1
 40
0.000000
 41
0.000000
  0
VERTEX
  8
0
  6
CONTINUOUS
 10
3.229600
 20
2.689720
  0
VERTEX
  8
0
  6
CONTINUOUS
 10
3.870240
 20
2.321880
  0
VERTEX
  8
0
  6
CONTINUOUS
 10
3.864960
 20
2.247080
  0
VERTEX
  8
0
  6
CONTINUOUS
 10
3.224760
 20
2.614920
  0
VERTEX
  8
0
  6
CONTINUOUS
 10
3.229600
 20
2.689720
  0
SEQEND
  8
0
  0
SOLID
  8
0
 62
    15
 10
3.224760
 20
2.614920
 11
3.864960
 21
2.247080
 12
3.212000
 22
2.537480
 13
3.852200
 23
2.169640
  0
POLYLINE
  8
0
  6
CONTINUOUS
 66
     1
 40
0.000000
 41
0.000000
  0
VERTEX
  8
0
  6
CONTINUOUS
 10
3.224760
 20
2.614920
  0
VERTEX
  8
0
  6
CONTINUOUS
 10
3.864960
 20
2.247080
  0
VERTEX
  8
0
  6
CONTINUOUS
 10
3.852200
 20
2.169640
  0
VERTEX
  8
0
  6
CONTINUOUS
 10
3.212000
 20
2.537480
  0
VERTEX
  8
0
  6
CONTINUOUS
 10
3.224760
 20
2.614920
  0
SEQEND
  8
0
  0
SOLID
  8
0
 62
    15
 10
3.212000
 20
2.537480
 11
3.852200
 21
2.169640
 12
3.190000
 22
2.458280
 13
3.830200
 23
2.090440
  0
POLYLINE
  8
0
  6
CONTINUOUS
 66
     1
 40
0.000000
 41
0.000000
  0
VERTEX
  8
0
  6
CONTINUOUS
 10
3.212000
 20
2.537480
  0
VERTEX
  8
0
  6
CONTINUOUS
 10
3.852200
 20
2.169640
  0
VERTEX
  8
0
  6
CONTINUOUS
 10
3.830200
 20
2.090440
  0
VERTEX
  8
0
  6
CONTINUOUS
 10
3.190000
 20
2.458280
  0
VERTEX
  8
0
  6
CONTINUOUS
 10
3.212000
 20
2.537480
  0
SEQEND
  8
0
  0
SOLID
  8
0
 62
    15
 10
3.190000
 20
2.458280
 11
3.830200
 21
2.090440
 12
3.157880
 22
2.379080
 13
3.798080
 23
2.011240
  0
POLYLINE
  8
0
  6
CONTINUOUS
 66
     1
 40
0.000000
 41
0.000000
  0
VERTEX
  8
0
  6
CONTINUOUS
 10
3.190000
 20
2.458280
  0
VERTEX
  8
0
  6
CONTINUOUS
 10
3.830200
 20
2.090440
  0
VERTEX
  8
0
  6
CONTINUOUS
 10
3.798080
 20
2.011240
  0
VERTEX
  8
0
  6
CONTINUOUS
 10
3.157880
 20
2.379080
  0
VERTEX
  8
0
  6
CONTINUOUS
 10
3.190000
 20
2.458280
  0
SEQEND
  8
0
  0
SOLID
  8
0
 62
    15
 10
3.157880
 20
2.379080
 11
3.798080
 21
2.011240
 12
3.113440
 22
2.300760
 13
3.754080
 23
1.932920
  0
POLYLINE
  8
0
  6
CONTINUOUS
 66
     1
 40
0.000000
 41
0.000000
  0
VERTEX
  8
0
  6
CONTINUOUS
 10
3.157880
 20
2.379080
  0
VERTEX
  8
0
  6
CONTINUOUS
 10
3.798080
 20
2.011240
  0
VERTEX
  8
0
  6
CONTINUOUS
 10
3.754080
 20
1.932920
  0
VERTEX
  8
0
  6
CONTINUOUS
 10
3.113440
 20
2.300760
  0
VERTEX
  8
0
  6
CONTINUOUS
 10
3.157880
 20
2.379080
  0
SEQEND
  8
0
  0
SOLID
  8
0
 62
    15
 10
3.113440
 20
2.300760
 11
3.754080
 21
1.932920
 12
3.056680
 22
2.225520
 13
3.696880
 23
1.857680
  0
POLYLINE
  8
0
  6
CONTINUOUS
 66
     1
 40
0.000000
 41
0.000000
  0
VERTEX
  8
0
  6
CONTINUOUS
 10
3.113440
 20
2.300760
  0
VERTEX
  8
0
  6
CONTINUOUS
 10
3.754080
 20
1.932920
  0
VERTEX
  8
0
  6
CONTINUOUS
 10
3.696880
 20
1.857680
  0
VERTEX
  8
0
  6
CONTINUOUS
 10
3.056680
 20
2.225520
  0
VERTEX
  8
0
  6
CONTINUOUS
 10
3.113440
 20
2.300760
  0
SEQEND
  8
0
  0
SOLID
  8
0
 62
    15
 10
3.056680
 20
2.225520
 11
3.696880
 21
1.857680
 12
2.984960
 22
2.153800
 13
3.625160
 23
1.785960
  0
POLYLINE
  8
0
  6
CONTINUOUS
 66
     1
 40
0.000000
 41
0.000000
  0
VERTEX
  8
0
  6
CONTINUOUS
 10
3.056680
 20
2.225520
  0
VERTEX
  8
0
  6
CONTINUOUS
 10
3.696880
 20
1.857680
  0
VERTEX
  8
0
  6
CONTINUOUS
 10
3.625160
 20
1.785960
  0
VERTEX
  8
0
  6
CONTINUOUS
 10
2.984960
 20
2.153800
  0
VERTEX
  8
0
  6
CONTINUOUS
 10
3.056680
 20
2.225520
  0
SEQEND
  8
0
  0
SOLID
  8
0
 62
    15
 10
3.172400
 20
2.999920
 11
3.812600
 21
2.632080
 12
3.185600
 22
2.971320
 13
3.826240
 23
2.603480
  0
POLYLINE
  8
0
  6
CONTINUOUS
 66
     1
 40
0.000000
 41
0.000000
  0
VERTEX
  8
0
  6
CONTINUOUS
 10
3.172400
 20
2.999920
  0
VERTEX
  8
0
  6
CONTINUOUS
 10
3.812600
 20
2.632080
  0
VERTEX
  8
0
  6
CONTINUOUS
 10
3.826240
 20
2.603480
  0
VERTEX
  8
0
  6
CONTINUOUS
 10
3.185600
 20
2.971320
  0
VERTEX
  8
0
  6
CONTINUOUS
 10
3.172400
 20
2.999920
  0
SEQEND
  8
0
  0
SOLID
  8
0
 62
    15
 10
2.897840
 20
2.087360
 11
3.538040
 21
1.719520
 12
2.793560
 22
2.027520
 13
3.433760
 23
1.659680
  0
POLYLINE
  8
0
  6
CONTINUOUS
 66
     1
 40
0.000000
 41
0.000000
  0
VERTEX
  8
0
  6
CONTINUOUS
 10
2.897840
 20
2.087360
  0
VERTEX
  8
0
  6
CONTINUOUS
 10
3.538040
 20
1.719520
  0
VERTEX
  8
0
  6
CONTINUOUS
 10
3.433760
 20
1.659680
  0
VERTEX
  8
0
  6
CONTINUOUS
 10
2.793560
 20
2.027520
  0
VERTEX
  8
0
  6
CONTINUOUS
 10
2.897840
 20
2.087360
  0
SEQEND
  8
0
  0
SOLID
  8
0
 62
    15
 10
2.793560
 20
2.027520
 11
3.433760
 21
1.659680
 12
2.670800
 22
1.976040
 13
3.311000
 23
1.608200
  0
POLYLINE
  8
0
  6
CONTINUOUS
 66
     1
 40
0.000000
 41
0.000000
  0
VERTEX
  8
0
  6
CONTINUOUS
 10
2.793560
 20
2.027520
  0
VERTEX
  8
0
  6
CONTINUOUS
 10
3.433760
 20
1.659680
  0
VERTEX
  8
0
  6
CONTINUOUS
 10
3.311000
 20
1.608200
  0
VERTEX
  8
0
  6
CONTINUOUS
 10
2.670800
 20
1.976040
  0
VERTEX
  8
0
  6
CONTINUOUS
 10
2.793560
 20
2.027520
  0
SEQEND
  8
0
  0
SOLID
  8
0
 62
    15
 10
2.670800
 20
1.976040
 11
3.311000
 21
1.608200
 12
2.671240
 22
1.862960
 13
3.311440
 23
1.495120
  0
POLYLINE
  8
0
  6
CONTINUOUS
 66
     1
 40
0.000000
 41
0.000000
  0
VERTEX
  8
0
  6
CONTINUOUS
 10
2.670800
 20
1.976040
  0
VERTEX
  8
0
  6
CONTINUOUS
 10
3.311000
 20
1.608200
  0
VERTEX
  8
0
  6
CONTINUOUS
 10
3.311440
 20
1.495120
  0
VERTEX
  8
0
  6
CONTINUOUS
 10
2.671240
 20
1.862960
  0
VERTEX
  8
0
  6
CONTINUOUS
 10
2.670800
 20
1.976040
  0
SEQEND
  8
0
  0
SOLID
  8
0
 62
    15
 10
2.671240
 20
1.862960
 11
3.311440
 21
1.495120
 12
2.581480
 22
1.802240
 13
3.221680
 23
1.434400
  0
POLYLINE
  8
0
  6
CONTINUOUS
 66
     1
 40
0.000000
 41
0.000000
  0
VERTEX
  8
0
  6
CONTINUOUS
 10
2.671240
 20
1.862960
  0
VERTEX
  8
0
  6
CONTINUOUS
 10
3.311440
 20
1.495120
  0
VERTEX
  8
0
  6
CONTINUOUS
 10
3.221680
 20
1.434400
  0
VERTEX
  8
0
  6
CONTINUOUS
 10
2.581480
 20
1.802240
  0
VERTEX
  8
0
  6
CONTINUOUS
 10
2.671240
 20
1.862960
  0
SEQEND
  8
0
  0
SOLID
  8
0
 62
    15
 10
2.581480
 20
1.802240
 11
3.221680
 21
1.434400
 12
2.502720
 22
1.731400
 13
3.142920
 23
1.363560
  0
POLYLINE
  8
0
  6
CONTINUOUS
 66
     1
 40
0.000000
 41
0.000000
  0
VERTEX
  8
0
  6
CONTINUOUS
 10
2.581480
 20
1.802240
  0
VERTEX
  8
0
  6
CONTINUOUS
 10
3.221680
 20
1.434400
  0
VERTEX
  8
0
  6
CONTINUOUS
 10
3.142920
 20
1.363560
  0
VERTEX
  8
0
  6
CONTINUOUS
 10
2.502720
 20
1.731400
  0
VERTEX
  8
0
  6
CONTINUOUS
 10
2.581480
 20
1.802240
  0
SEQEND
  8
0
  0
SOLID
  8
0
 62
    15
 10
2.502720
 20
1.731400
 11
3.142920
 21
1.363560
 12
2.435400
 22
1.651760
 13
3.075600
 23
1.283920
  0
POLYLINE
  8
0
  6
CONTINUOUS
 66
     1
 40
0.000000
 41
0.000000
  0
VERTEX
  8
0
  6
CONTINUOUS
 10
2.502720
 20
1.731400
  0
VERTEX
  8
0
  6
CONTINUOUS
 10
3.142920
 20
1.363560
  0
VERTEX
  8
0
  6
CONTINUOUS
 10
3.075600
 20
1.283920
  0
VERTEX
  8
0
  6
CONTINUOUS
 10
2.435400
 20
1.651760
  0
VERTEX
  8
0
  6
CONTINUOUS
 10
2.502720
 20
1.731400
  0
SEQEND
  8
0
  0
SOLID
  8
0
 62
    15
 10
2.435400
 20
1.651760
 11
3.075600
 21
1.283920
 12
2.378640
 22
1.563320
 13
3.018840
 23
1.195480
  0
POLYLINE
  8
0
  6
CONTINUOUS
 66
     1
 40
0.000000
 41
0.000000
  0
VERTEX
  8
0
  6
CONTINUOUS
 10
2.435400
 20
1.651760
  0
VERTEX
  8
0
  6
CONTINUOUS
 10
3.075600
 20
1.283920
  0
VERTEX
  8
0
  6
CONTINUOUS
 10
3.018840
 20
1.195480
  0
VERTEX
  8
0
  6
CONTINUOUS
 10
2.378640
 20
1.563320
  0
VERTEX
  8
0
  6
CONTINUOUS
 10
2.435400
 20
1.651760
  0
SEQEND
  8
0
  0
SOLID
  8
0
 62
    15
 10
2.378640
 20
1.563320
 11
3.018840
 21
1.195480
 12
2.332440
 22
1.466520
 13
2.972640
 23
1.098680
  0
POLYLINE
  8
0
  6
CONTINUOUS
 66
     1
 40
0.000000
 41
0.000000
  0
VERTEX
  8
0
  6
CONTINUOUS
 10
2.378640
 20
1.563320
  0
VERTEX
  8
0
  6
CONTINUOUS
 10
3.018840
 20
1.195480
  0
VERTEX
  8
0
  6
CONTINUOUS
 10
2.972640
 20
1.098680
  0
VERTEX
  8
0
  6
CONTINUOUS
 10
2.332440
 20
1.466520
  0
VERTEX
  8
0
  6
CONTINUOUS
 10
2.378640
 20
1.563320
  0
SEQEND
  8
0
  0
SOLID
  8
0
 62
    15
 10
2.332440
 20
1.466520
 11
2.972640
 21
1.098680
 12
2.296360
 22
1.361800
 13
2.936560
 23
0.993960
  0
POLYLINE
  8
0
  6
CONTINUOUS
 66
     1
 40
0.000000
 41
0.000000
  0
VERTEX
  8
0
  6
CONTINUOUS
 10
2.332440
 20
1.466520
  0
VERTEX
  8
0
  6
CONTINUOUS
 10
2.972640
 20
1.098680
  0
VERTEX
  8
0
  6
CONTINUOUS
 10
2.936560
 20
0.993960
  0
VERTEX
  8
0
  6
CONTINUOUS
 10
2.296360
 20
1.361800
  0
VERTEX
  8
0
  6
CONTINUOUS
 10
2.332440
 20
1.466520
  0
SEQEND
  8
0
  0
SOLID
  8
0
 62
    15
 10
2.296360
 20
1.361800
 11
2.936560
 21
0.993960
 12
2.269960
 22
1.249600
 13
2.910600
 23
0.881760
  0
POLYLINE
  8
0
  6
CONTINUOUS
 66
     1
 40
0.000000
 41
0.000000
  0
VERTEX
  8
0
  6
CONTINUOUS
 10
2.296360
 20
1.361800
  0
VERTEX
  8
0
  6
CONTINUOUS
 10
2.936560
 20
0.993960
  0
VERTEX
  8
0
  6
CONTINUOUS
 10
2.910600
 20
0.881760
  0
VERTEX
  8
0
  6
CONTINUOUS
 10
2.269960
 20
1.249600
  0
VERTEX
  8
0
  6
CONTINUOUS
 10
2.296360
 20
1.361800
  0
SEQEND
  8
0
  0
SOLID
  8
0
 62
    15
 10
2.269960
 20
1.249600
 11
2.910600
 21
0.881760
 12
2.253680
 22
1.130800
 13
2.893880
 23
0.762960
  0
POLYLINE
  8
0
  6
CONTINUOUS
 66
     1
 40
0.000000
 41
0.000000
  0
VERTEX
  8
0
  6
CONTINUOUS
 10
2.269960
 20
1.249600
  0
VERTEX
  8
0
  6
CONTINUOUS
 10
2.910600
 20
0.881760
  0
VERTEX
  8
0
  6
CONTINUOUS
 10
2.893880
 20
0.762960
  0
VERTEX
  8
0
  6
CONTINUOUS
 10
2.253680
 20
1.130800
  0
VERTEX
  8
0
  6
CONTINUOUS
 10
2.269960
 20
1.249600
  0
SEQEND
  8
0
  0
SOLID
  8
0
 62
    15
 10
2.253680
 20
1.130800
 11
2.893880
 21
0.762960
 12
1.833040
 22
1.128600
 13
2.473240
 23
0.760760
  0
POLYLINE
  8
0
  6
CONTINUOUS
 66
     1
 40
0.000000
 41
0.000000
  0
VERTEX
  8
0
  6
CONTINUOUS
 10
2.253680
 20
1.130800
  0
VERTEX
  8
0
  6
CONTINUOUS
 10
2.893880
 20
0.762960
  0
VERTEX
  8
0
  6
CONTINUOUS
 10
2.473240
 20
0.760760
  0
VERTEX
  8
0
  6
CONTINUOUS
 10
1.833040
 20
1.128600
  0
VERTEX
  8
0
  6
CONTINUOUS
 10
2.253680
 20
1.130800
  0
SEQEND
  8
0
  0
POLYLINE
  8
0
  6
CONTINUOUS
 66
     1
 40
0.000000
 41
0.000000
  0
VERTEX
  8
0
  6
CONTINUOUS
 10
2.888160
 20
2.998160
  0
VERTEX
  8
0
  6
CONTINUOUS
 10
3.172400
 20
2.999920
  0
VERTEX
  8
0
  6
CONTINUOUS
 10
3.185600
 20
2.971320
  0
VERTEX
  8
0
  6
CONTINUOUS
 10
3.199240
 20
2.931720
  0
VERTEX
  8
0
  6
CONTINUOUS
 10
3.212000
 20
2.882440
  0
VERTEX
  8
0
  6
CONTINUOUS
 10
3.222120
 20
2.824800
  0
VERTEX
  8
0
  6
CONTINUOUS
 10
3.228280
 20
2.759680
  0
VERTEX
  8
0
  6
CONTINUOUS
 10
3.229600
 20
2.689720
  0
VERTEX
  8
0
  6
CONTINUOUS
 10
3.224760
 20
2.614920
  0
VERTEX
  8
0
  6
CONTINUOUS
 10
3.212000
 20
2.537480
  0
VERTEX
  8
0
  6
CONTINUOUS
 10
3.190000
 20
2.458280
  0
VERTEX
  8
0
  6
CONTINUOUS
 10
3.157880
 20
2.379080
  0
VERTEX
  8
0
  6
CONTINUOUS
 10
3.113440
 20
2.300760
  0
VERTEX
  8
0
  6
CONTINUOUS
 10
3.056680
 20
2.225520
  0
VERTEX
  8
0
  6
CONTINUOUS
 10
2.984960
 20
2.153800
  0
VERTEX
  8
0
  6
CONTINUOUS
 10
2.897840
 20
2.087360
  0
VERTEX
  8
0
  6
CONTINUOUS
 10
2.793560
 20
2.027520
  0
VERTEX
  8
0
  6
CONTINUOUS
 10
2.670800
 20
1.976040
  0
VERTEX
  8
0
  6
CONTINUOUS
 10
2.671240
 20
1.862960
  0
VERTEX
  8
0
  6
CONTINUOUS
 10
2.581480
 20
1.802240
  0
VERTEX
  8
0
  6
CONTINUOUS
 10
2.502720
 20
1.731400
  0
VERTEX
  8
0
  6
CONTINUOUS
 10
2.435400
 20
1.651760
  0
VERTEX
  8
0
  6
CONTINUOUS
 10
2.378640
 20
1.563320
  0
VERTEX
  8
0
  6
CONTINUOUS
 10
2.332440
 20
1.466520
  0
VERTEX
  8
0
  6
CONTINUOUS
 10
2.296360
 20
1.361800
  0
VERTEX
  8
0
  6
CONTINUOUS
 10
2.269960
 20
1.249600
  0
VERTEX
  8
0
  6
CONTINUOUS
 10
2.253680
 20
1.130800
  0
VERTEX
  8
0
  6
CONTINUOUS
 10
1.833040
 20
1.128600
  0
VERTEX
  8
0
  6
CONTINUOUS
 10
1.830840
 20
1.531640
  0
VERTEX
  8
0
  6
CONTINUOUS
 10
2.359280
 20
2.265120
  0
VERTEX
  8
0
  6
CONTINUOUS
 10
2.888160
 20
2.998160
  0
SEQEND
  8
0
  0
TEXT
  8
0
 10
3.400760
 20
0.983400
 40
0.138160
  1
BA  922
 41
1.000000
  7
SN0
 71
     0
 72
     5
 11
3.991146
 21
0.983400
  0
TEXT
  8
0
 10
3.198800
 20
0.791560
 40
0.138160
  1
5/8" x 2-5/16"
 41
1.000000
  7
SN0
 71
     0
 72
     5
 11
4.192771
 21
0.791560
  0
POLYLINE
  8
0
  6
CONTINUOUS
 66
     1
 40
0.014080
 41
0.014080
  0
VERTEX
  8
0
  6
CONTINUOUS
 10
4.981240
 20
2.399760
  0
VERTEX
  8
0
  6
CONTINUOUS
 10
4.814040
 20
2.629440
  0
VERTEX
  8
0
  6
CONTINUOUS
 10
4.834720
 20
2.665080
  0
VERTEX
  8
0
  6
CONTINUOUS
 10
4.853640
 20
2.691040
  0
VERTEX
  8
0
  6
CONTINUOUS
 10
4.886200
 20
2.730200
  0
VERTEX
  8
0
  6
CONTINUOUS
 10
4.927120
 20
2.772000
  0
VERTEX
  8
0
  6
CONTINUOUS
 10
4.975960
 20
2.815120
  0
VERTEX
  8
0
  6
CONTINUOUS
 10
5.032280
 20
2.856920
  0
VERTEX
  8
0
  6
CONTINUOUS
 10
5.096080
 20
2.896520
  0
VERTEX
  8
0
  6
CONTINUOUS
 10
5.130400
 20
2.914560
  0
VERTEX
  8
0
  6
CONTINUOUS
 10
5.166480
 20
2.931280
  0
VERTEX
  8
0
  6
CONTINUOUS
 10
5.223680
 20
2.953280
  0
VERTEX
  8
0
  6
CONTINUOUS
 10
5.263720
 20
2.965600
  0
VERTEX
  8
0
  6
CONTINUOUS
 10
5.305080
 20
2.975720
  0
VERTEX
  8
0
  6
CONTINUOUS
 10
5.370640
 20
2.986280
  0
VERTEX
  8
0
  6
CONTINUOUS
 10
5.415960
 20
2.989800
  0
VERTEX
  8
0
  6
CONTINUOUS
 10
5.462600
 20
2.990240
  0
VERTEX
  8
0
  6
CONTINUOUS
 10
5.510560
 20
2.987160
  0
VERTEX
  8
0
  6
CONTINUOUS
 10
5.559840
 20
2.981000
  0
VERTEX
  8
0
  6
CONTINUOUS
 10
5.610440
 20
2.970880
  0
VERTEX
  8
0
  6
CONTINUOUS
 10
5.662360
 20
2.957240
  0
VERTEX
  8
0
  6
CONTINUOUS
 10
5.742000
 20
2.928200
  0
VERTEX
  8
0
  6
CONTINUOUS
 10
5.797000
 20
2.903120
  0
VERTEX
  8
0
  6
CONTINUOUS
 10
5.852440
 20
2.873640
  0
VERTEX
  8
0
  6
CONTINUOUS
 10
5.909640
 20
2.838880
  0
VERTEX
  8
0
  6
CONTINUOUS
 10
5.938240
 20
2.819520
  0
VERTEX
  8
0
  6
CONTINUOUS
 10
6.029760
 20
2.885960
  0
VERTEX
  8
0
  6
CONTINUOUS
 10
6.080360
 20
2.865280
  0
VERTEX
  8
0
  6
CONTINUOUS
 10
6.131400
 20
2.848560
  0
VERTEX
  8
0
  6
CONTINUOUS
 10
6.182880
 20
2.835360
  0
VERTEX
  8
0
  6
CONTINUOUS
 10
6.234800
 20
2.825680
  0
VERTEX
  8
0
  6
CONTINUOUS
 10
6.286720
 20
2.819960
  0
VERTEX
  8
0
  6
CONTINUOUS
 10
6.338640
 20
2.817760
  0
VERTEX
  8
0
  6
CONTINUOUS
 10
6.391000
 20
2.818640
  0
VERTEX
  8
0
  6
CONTINUOUS
 10
6.443800
 20
2.823040
  0
VERTEX
  8
0
  6
CONTINUOUS
 10
6.496600
 20
2.830960
  0
VERTEX
  8
0
  6
CONTINUOUS
 10
6.549400
 20
2.841960
  0
VERTEX
  8
0
  6
CONTINUOUS
 10
6.629040
 20
2.864840
  0
VERTEX
  8
0
  6
CONTINUOUS
 10
6.708680
 20
2.894320
  0
VERTEX
  8
0
  6
CONTINUOUS
 10
6.788320
 20
2.930840
  0
VERTEX
  8
0
  6
CONTINUOUS
 10
6.867960
 20
2.973960
  0
VERTEX
  8
0
  6
CONTINUOUS
 10
7.115240
 20
2.633840
  0
VERTEX
  8
0
  6
CONTINUOUS
 10
6.789200
 20
2.396680
  0
VERTEX
  8
0
  6
CONTINUOUS
 10
4.981240
 20
2.399760
  0
SEQEND
  8
0
  0
ENDSEC
  0
EOF
