  0
SECTION
  2
HEADER
  9
$ACADVER
  1
AC1006
  9
$EXTMIN
 10
0.714120
 20
0.407440
  9
$EXTMAX
 10
8.029120
 20
8.406640
  9
$LTSCALE
 40
0.044000
  9
$PDMODE
 70
    35
  9
$PDSIZE
 40
0.035200
  0
ENDSEC
  0
SECTION
  2
TABLES
  0
TABLE
  2
LTYPE
 70
     9
  0
LTYPE
  2
CONTINUOUS
 70
    64
  3
Solid line
 72
    65
 73
     0
 40
0.000000
  0
LTYPE
  2
DASHED
 70
    64
  3
__ __ __ __ __ __ __ __ __ __ __ __ __ __ __
 72
    65
 73
     2
 40
0.000330
 49
0.000220
 49
-0.000110
  0
LTYPE
  2
HIDDEN
 70
    64
  3
 _ _ _ _ _ _ _ _ _ _ _ _ _ _ _ _ _ _ _ _ _ _
 72
    65
 73
     2
 40
0.000165
 49
0.000110
 49
-0.000055
  0
LTYPE
  2
CENTER
 70
    64
  3
____ _ ____ _ ____ _ ____ _ ____ _ ____ _ ____
 72
    65
 73
     4
 40
0.000880
 49
0.000550
 49
-0.000110
 49
0.000110
 49
-0.000110
  0
LTYPE
  2
PHANTOM
 70
    64
  3
_____ _ _ _____ _ _ _____ _ _ _____ _ _ ____
 72
    65
 73
     6
 40
0.001100
 49
0.000550
 49
-0.000110
 49
0.000110
 49
-0.000110
 49
0.000110
 49
-0.000110
  0
LTYPE
  2
DOT
 70
    64
  3
...............................................
 72
    65
 73
     2
 40
0.000110
 49
0.000000
 49
-0.000110
  0
LTYPE
  2
DASHDOT
 70
    64
  3
__ . __ . __ . __ . __ . __ . __ . __ . __ . __
 72
    65
 73
     4
 40
0.000440
 49
0.000220
 49
-0.000110
 49
0.000000
 49
-0.000110
  0
LTYPE
  2
BORDER
 70
    64
  3
__ __ . __ __ . __ __ . __ __ . __ __ . __ __
 72
    65
 73
     6
 40
0.000770
 49
0.000220
 49
-0.000110
 49
0.000220
 49
-0.000110
 49
0.000000
 49
-0.000110
  0
LTYPE
  2
DIVIDE
 70
    64
  3
__ . . __ . . __ . . __ . . __ . . __ . . __
 72
    65
 73
     6
 40
0.000550
 49
0.000220
 49
-0.000110
 49
0.000000
 49
-0.000110
 49
0.000000
 49
-0.000110
  0
LTYPE
  2
DOTDOT
 70
    64
  3
 . .  . .  . .  . .  . .  . . 
 72
    65
 73
     5
 40
0.000242
 49
-0.000110
 49
0.000000
 49
-0.000110
 49
0.000000
 49
-0.000110
  0
ENDTAB
  0
TABLE
  2
STYLE
 70
     4
  0
STYLE
 70
     0
  2
SN0
 40
0.000000
 41
0.000440
 50
0.000000
 71
     0
 42
0.000000
  3
ROMAND
  0
STYLE
 70
    68
  2
SV0
 40
0.000000
 41
0.000440
 50
0.000000
 71
     0
 42
0.000000
  3
ROMAND
  0
STYLE
 70
     0
  2
SN1
 40
0.000000
 41
0.000440
 50
0.000000
 71
     0
 42
0.000000
  3
ROMAND
  0
STYLE
 70
    68
  2
SV1
 40
0.000000
 41
0.000440
 50
0.000000
 71
     0
 42
0.000000
  3
ROMAND
  0
ENDTAB
  0
TABLE
  2
LAYER
 70
     3
  0
LAYER
  2
FOREGROUND
 70
    64
 62
     7
  6
CONTINUOUS
  0
LAYER
  2
BACKGROUND
 70
    65
 62
    -7
  6
CONTINUOUS
  0
LAYER
  2
0
 70
    64
 62
     7
  6
CONTINUOUS
  0
ENDTAB
  0
ENDSEC
  0
SECTION
  2
ENTITIES
  0
POLYLINE
  8
FOREGROUND
  6
CONTINUOUS
 66
     1
 40
0.000000
 41
0.000000
  0
VERTEX
  8
FOREGROUND
  6
CONTINUOUS
 10
0.000000
 20
8.814080
  0
VERTEX
  8
FOREGROUND
  6
CONTINUOUS
 10
8.499920
 20
8.814080
  0
VERTEX
  8
FOREGROUND
  6
CONTINUOUS
 10
8.499920
 20
-2.185920
  0
VERTEX
  8
FOREGROUND
  6
CONTINUOUS
 10
0.000000
 20
-2.185920
  0
VERTEX
  8
FOREGROUND
  6
CONTINUOUS
 10
0.000000
 20
8.814080
  0
SEQEND
  8
0
  0
POLYLINE
  8
FOREGROUND
  6
CONTINUOUS
 66
     1
 40
0.000000
 41
0.000000
  0
VERTEX
  8
FOREGROUND
  6
CONTINUOUS
 10
0.000000
 20
8.814080
  0
VERTEX
  8
FOREGROUND
  6
CONTINUOUS
 10
8.499920
 20
8.814080
  0
VERTEX
  8
FOREGROUND
  6
CONTINUOUS
 10
8.499920
 20
-2.185920
  0
VERTEX
  8
FOREGROUND
  6
CONTINUOUS
 10
0.000000
 20
-2.185920
  0
VERTEX
  8
FOREGROUND
  6
CONTINUOUS
 10
0.000000
 20
8.814080
  0
SEQEND
  8
0
  0
POLYLINE
  8
0
  6
CONTINUOUS
 66
     1
 40
0.014080
 41
0.014080
  0
VERTEX
  8
0
  6
CONTINUOUS
 10
6.666440
 20
7.494080
  0
VERTEX
  8
0
  6
CONTINUOUS
 10
7.066840
 20
7.493200
  0
VERTEX
  8
0
  6
CONTINUOUS
 10
7.065080
 20
6.935720
  0
VERTEX
  8
0
  6
CONTINUOUS
 10
7.021080
 20
6.931760
  0
VERTEX
  8
0
  6
CONTINUOUS
 10
6.946720
 20
6.917240
  0
VERTEX
  8
0
  6
CONTINUOUS
 10
6.893040
 20
6.900960
  0
VERTEX
  8
0
  6
CONTINUOUS
 10
6.836720
 20
6.879400
  0
VERTEX
  8
0
  6
CONTINUOUS
 10
6.777760
 20
6.852120
  0
VERTEX
  8
0
  6
CONTINUOUS
 10
6.716600
 20
6.818240
  0
VERTEX
  8
0
  6
CONTINUOUS
 10
6.654560
 20
6.777320
  0
VERTEX
  8
0
  6
CONTINUOUS
 10
6.591640
 20
6.729360
  0
VERTEX
  8
0
  6
CONTINUOUS
 10
6.528280
 20
6.673480
  0
VERTEX
  8
0
  6
CONTINUOUS
 10
6.465360
 20
6.609680
  0
VERTEX
  8
0
  6
CONTINUOUS
 10
6.403320
 20
6.536640
  0
VERTEX
  8
0
  6
CONTINUOUS
 10
6.372520
 20
6.497040
  0
VERTEX
  8
0
  6
CONTINUOUS
 10
6.297720
 20
6.387480
  0
VERTEX
  8
0
  6
CONTINUOUS
 10
6.240520
 20
6.288480
  0
VERTEX
  8
0
  6
CONTINUOUS
 10
6.199600
 20
6.207520
  0
VERTEX
  8
0
  6
CONTINUOUS
 10
6.160000
 20
6.120840
  0
VERTEX
  8
0
  6
CONTINUOUS
 10
6.075080
 20
5.910080
  0
VERTEX
  8
0
  6
CONTINUOUS
 10
5.943960
 20
5.577000
  0
VERTEX
  8
0
  6
CONTINUOUS
 10
5.879280
 20
5.427400
  0
VERTEX
  8
0
  6
CONTINUOUS
 10
5.834840
 20
5.335880
  0
VERTEX
  8
0
  6
CONTINUOUS
 10
5.788200
 20
5.250520
  0
VERTEX
  8
0
  6
CONTINUOUS
 10
5.738920
 20
5.172640
  0
VERTEX
  8
0
  6
CONTINUOUS
 10
5.712960
 20
5.137000
  0
VERTEX
  8
0
  6
CONTINUOUS
 10
5.685680
 20
5.102680
  0
VERTEX
  8
0
  6
CONTINUOUS
 10
5.643440
 20
5.055600
  0
VERTEX
  8
0
  6
CONTINUOUS
 10
5.597680
 20
5.013800
  0
VERTEX
  8
0
  6
CONTINUOUS
 10
5.566000
 20
4.988280
  0
VERTEX
  8
0
  6
CONTINUOUS
 10
5.514960
 20
4.955280
  0
VERTEX
  8
0
  6
CONTINUOUS
 10
5.478880
 20
4.935920
  0
VERTEX
  8
0
  6
CONTINUOUS
 10
5.441480
 20
4.919200
  0
VERTEX
  8
0
  6
CONTINUOUS
 10
5.381200
 20
4.898960
  0
VERTEX
  8
0
  6
CONTINUOUS
 10
5.316960
 20
4.885320
  0
VERTEX
  8
0
  6
CONTINUOUS
 10
5.271200
 20
4.879160
  0
VERTEX
  8
0
  6
CONTINUOUS
 10
5.247440
 20
4.877400
  0
VERTEX
  8
0
  6
CONTINUOUS
 10
5.246120
 20
4.538600
  0
VERTEX
  8
0
  6
CONTINUOUS
 10
5.209600
 20
4.536840
  0
VERTEX
  8
0
  6
CONTINUOUS
 10
5.168680
 20
4.530240
  0
VERTEX
  8
0
  6
CONTINUOUS
 10
5.124680
 20
4.519240
  0
VERTEX
  8
0
  6
CONTINUOUS
 10
5.078040
 20
4.502960
  0
VERTEX
  8
0
  6
CONTINUOUS
 10
5.030080
 20
4.480960
  0
VERTEX
  8
0
  6
CONTINUOUS
 10
4.981240
 20
4.452800
  0
VERTEX
  8
0
  6
CONTINUOUS
 10
4.932840
 20
4.418480
  0
VERTEX
  8
0
  6
CONTINUOUS
 10
4.885760
 20
4.377120
  0
VERTEX
  8
0
  6
CONTINUOUS
 10
4.840440
 20
4.328720
  0
VERTEX
  8
0
  6
CONTINUOUS
 10
4.798640
 20
4.272840
  0
VERTEX
  8
0
  6
CONTINUOUS
 10
4.778840
 20
4.241600
  0
VERTEX
  8
0
  6
CONTINUOUS
 10
4.751560
 20
4.191440
  0
VERTEX
  8
0
  6
CONTINUOUS
 10
4.726920
 20
4.136440
  0
VERTEX
  8
0
  6
CONTINUOUS
 10
4.705800
 20
4.076160
  0
VERTEX
  8
0
  6
CONTINUOUS
 10
4.688200
 20
4.010600
  0
VERTEX
  8
0
  6
CONTINUOUS
 10
4.674560
 20
3.940200
  0
VERTEX
  8
0
  6
CONTINUOUS
 10
4.665320
 20
3.864080
  0
VERTEX
  8
0
  6
CONTINUOUS
 10
4.661800
 20
3.809960
  0
VERTEX
  8
0
  6
CONTINUOUS
 10
4.660480
 20
3.753640
  0
VERTEX
  8
0
  6
CONTINUOUS
 10
4.296600
 20
3.754960
  0
VERTEX
  8
0
  6
CONTINUOUS
 10
4.298800
 20
4.363480
  0
VERTEX
  8
0
  6
CONTINUOUS
 10
6.666440
 20
7.494080
  0
SEQEND
  8
0
  0
SOLID
  8
0
 62
    15
 10
2.206160
 20
5.672480
 11
2.858240
 21
5.302440
 12
2.103640
 22
5.524640
 13
2.755720
 23
5.154600
  0
POLYLINE
  8
0
  6
CONTINUOUS
 66
     1
 40
0.000000
 41
0.000000
  0
VERTEX
  8
0
  6
CONTINUOUS
 10
2.206160
 20
5.672480
  0
VERTEX
  8
0
  6
CONTINUOUS
 10
2.858240
 20
5.302440
  0
VERTEX
  8
0
  6
CONTINUOUS
 10
2.755720
 20
5.154600
  0
VERTEX
  8
0
  6
CONTINUOUS
 10
2.103640
 20
5.524640
  0
VERTEX
  8
0
  6
CONTINUOUS
 10
2.206160
 20
5.672480
  0
SEQEND
  8
0
  0
SOLID
  8
0
 62
    15
 10
3.483040
 20
7.357680
 11
4.135120
 21
6.987640
 12
3.390200
 22
7.344920
 13
4.042280
 23
6.975320
  0
POLYLINE
  8
0
  6
CONTINUOUS
 66
     1
 40
0.000000
 41
0.000000
  0
VERTEX
  8
0
  6
CONTINUOUS
 10
3.483040
 20
7.357680
  0
VERTEX
  8
0
  6
CONTINUOUS
 10
4.135120
 20
6.987640
  0
VERTEX
  8
0
  6
CONTINUOUS
 10
4.042280
 20
6.975320
  0
VERTEX
  8
0
  6
CONTINUOUS
 10
3.390200
 20
7.344920
  0
VERTEX
  8
0
  6
CONTINUOUS
 10
3.483040
 20
7.357680
  0
SEQEND
  8
0
  0
SOLID
  8
0
 62
    15
 10
3.390200
 20
7.344920
 11
4.042280
 21
6.975320
 12
3.282840
 22
7.312800
 13
3.934920
 23
6.943200
  0
POLYLINE
  8
0
  6
CONTINUOUS
 66
     1
 40
0.000000
 41
0.000000
  0
VERTEX
  8
0
  6
CONTINUOUS
 10
3.390200
 20
7.344920
  0
VERTEX
  8
0
  6
CONTINUOUS
 10
4.042280
 20
6.975320
  0
VERTEX
  8
0
  6
CONTINUOUS
 10
3.934920
 20
6.943200
  0
VERTEX
  8
0
  6
CONTINUOUS
 10
3.282840
 20
7.312800
  0
VERTEX
  8
0
  6
CONTINUOUS
 10
3.390200
 20
7.344920
  0
SEQEND
  8
0
  0
SOLID
  8
0
 62
    15
 10
3.282840
 20
7.312800
 11
3.934920
 21
6.943200
 12
3.165360
 22
7.257800
 13
3.817440
 23
6.887760
  0
POLYLINE
  8
0
  6
CONTINUOUS
 66
     1
 40
0.000000
 41
0.000000
  0
VERTEX
  8
0
  6
CONTINUOUS
 10
3.282840
 20
7.312800
  0
VERTEX
  8
0
  6
CONTINUOUS
 10
3.934920
 20
6.943200
  0
VERTEX
  8
0
  6
CONTINUOUS
 10
3.817440
 20
6.887760
  0
VERTEX
  8
0
  6
CONTINUOUS
 10
3.165360
 20
7.257800
  0
VERTEX
  8
0
  6
CONTINUOUS
 10
3.282840
 20
7.312800
  0
SEQEND
  8
0
  0
SOLID
  8
0
 62
    15
 10
3.165360
 20
7.257800
 11
3.817440
 21
6.887760
 12
3.040840
 22
7.175960
 13
3.692920
 23
6.806360
  0
POLYLINE
  8
0
  6
CONTINUOUS
 66
     1
 40
0.000000
 41
0.000000
  0
VERTEX
  8
0
  6
CONTINUOUS
 10
3.165360
 20
7.257800
  0
VERTEX
  8
0
  6
CONTINUOUS
 10
3.817440
 20
6.887760
  0
VERTEX
  8
0
  6
CONTINUOUS
 10
3.692920
 20
6.806360
  0
VERTEX
  8
0
  6
CONTINUOUS
 10
3.040840
 20
7.175960
  0
VERTEX
  8
0
  6
CONTINUOUS
 10
3.165360
 20
7.257800
  0
SEQEND
  8
0
  0
SOLID
  8
0
 62
    15
 10
3.040840
 20
7.175960
 11
3.692920
 21
6.806360
 12
2.914560
 22
7.064200
 13
3.566640
 23
6.694600
  0
POLYLINE
  8
0
  6
CONTINUOUS
 66
     1
 40
0.000000
 41
0.000000
  0
VERTEX
  8
0
  6
CONTINUOUS
 10
3.040840
 20
7.175960
  0
VERTEX
  8
0
  6
CONTINUOUS
 10
3.692920
 20
6.806360
  0
VERTEX
  8
0
  6
CONTINUOUS
 10
3.566640
 20
6.694600
  0
VERTEX
  8
0
  6
CONTINUOUS
 10
2.914560
 20
7.064200
  0
VERTEX
  8
0
  6
CONTINUOUS
 10
3.040840
 20
7.175960
  0
SEQEND
  8
0
  0
SOLID
  8
0
 62
    15
 10
2.914560
 20
7.064200
 11
3.566640
 21
6.694600
 12
2.790480
 22
6.918560
 13
3.442560
 23
6.548960
  0
POLYLINE
  8
0
  6
CONTINUOUS
 66
     1
 40
0.000000
 41
0.000000
  0
VERTEX
  8
0
  6
CONTINUOUS
 10
2.914560
 20
7.064200
  0
VERTEX
  8
0
  6
CONTINUOUS
 10
3.566640
 20
6.694600
  0
VERTEX
  8
0
  6
CONTINUOUS
 10
3.442560
 20
6.548960
  0
VERTEX
  8
0
  6
CONTINUOUS
 10
2.790480
 20
6.918560
  0
VERTEX
  8
0
  6
CONTINUOUS
 10
2.914560
 20
7.064200
  0
SEQEND
  8
0
  0
SOLID
  8
0
 62
    15
 10
2.790480
 20
6.918560
 11
3.442560
 21
6.548960
 12
2.672560
 22
6.735960
 13
3.324640
 23
6.366360
  0
POLYLINE
  8
0
  6
CONTINUOUS
 66
     1
 40
0.000000
 41
0.000000
  0
VERTEX
  8
0
  6
CONTINUOUS
 10
2.790480
 20
6.918560
  0
VERTEX
  8
0
  6
CONTINUOUS
 10
3.442560
 20
6.548960
  0
VERTEX
  8
0
  6
CONTINUOUS
 10
3.324640
 20
6.366360
  0
VERTEX
  8
0
  6
CONTINUOUS
 10
2.672560
 20
6.735960
  0
VERTEX
  8
0
  6
CONTINUOUS
 10
2.790480
 20
6.918560
  0
SEQEND
  8
0
  0
SOLID
  8
0
 62
    15
 10
2.672560
 20
6.735960
 11
3.324640
 21
6.366360
 12
2.565200
 22
6.512000
 13
3.217280
 23
6.142400
  0
POLYLINE
  8
0
  6
CONTINUOUS
 66
     1
 40
0.000000
 41
0.000000
  0
VERTEX
  8
0
  6
CONTINUOUS
 10
2.672560
 20
6.735960
  0
VERTEX
  8
0
  6
CONTINUOUS
 10
3.324640
 20
6.366360
  0
VERTEX
  8
0
  6
CONTINUOUS
 10
3.217280
 20
6.142400
  0
VERTEX
  8
0
  6
CONTINUOUS
 10
2.565200
 20
6.512000
  0
VERTEX
  8
0
  6
CONTINUOUS
 10
2.672560
 20
6.735960
  0
SEQEND
  8
0
  0
SOLID
  8
0
 62
    15
 10
2.565200
 20
6.512000
 11
3.217280
 21
6.142400
 12
2.470600
 22
6.273520
 13
3.122680
 23
5.903920
  0
POLYLINE
  8
0
  6
CONTINUOUS
 66
     1
 40
0.000000
 41
0.000000
  0
VERTEX
  8
0
  6
CONTINUOUS
 10
2.565200
 20
6.512000
  0
VERTEX
  8
0
  6
CONTINUOUS
 10
3.217280
 20
6.142400
  0
VERTEX
  8
0
  6
CONTINUOUS
 10
3.122680
 20
5.903920
  0
VERTEX
  8
0
  6
CONTINUOUS
 10
2.470600
 20
6.273520
  0
VERTEX
  8
0
  6
CONTINUOUS
 10
2.565200
 20
6.512000
  0
SEQEND
  8
0
  0
SOLID
  8
0
 62
    15
 10
2.470600
 20
6.273520
 11
3.122680
 21
5.903920
 12
2.426160
 22
6.160000
 13
3.078240
 23
5.790400
  0
POLYLINE
  8
0
  6
CONTINUOUS
 66
     1
 40
0.000000
 41
0.000000
  0
VERTEX
  8
0
  6
CONTINUOUS
 10
2.470600
 20
6.273520
  0
VERTEX
  8
0
  6
CONTINUOUS
 10
3.122680
 20
5.903920
  0
VERTEX
  8
0
  6
CONTINUOUS
 10
3.078240
 20
5.790400
  0
VERTEX
  8
0
  6
CONTINUOUS
 10
2.426160
 20
6.160000
  0
VERTEX
  8
0
  6
CONTINUOUS
 10
2.470600
 20
6.273520
  0
SEQEND
  8
0
  0
SOLID
  8
0
 62
    15
 10
2.426160
 20
6.160000
 11
3.078240
 21
5.790400
 12
2.383040
 22
6.050880
 13
3.035120
 23
5.681280
  0
POLYLINE
  8
0
  6
CONTINUOUS
 66
     1
 40
0.000000
 41
0.000000
  0
VERTEX
  8
0
  6
CONTINUOUS
 10
2.426160
 20
6.160000
  0
VERTEX
  8
0
  6
CONTINUOUS
 10
3.078240
 20
5.790400
  0
VERTEX
  8
0
  6
CONTINUOUS
 10
3.035120
 20
5.681280
  0
VERTEX
  8
0
  6
CONTINUOUS
 10
2.383040
 20
6.050880
  0
VERTEX
  8
0
  6
CONTINUOUS
 10
2.426160
 20
6.160000
  0
SEQEND
  8
0
  0
SOLID
  8
0
 62
    15
 10
2.383040
 20
6.050880
 11
3.035120
 21
5.681280
 12
2.297240
 22
5.849360
 13
2.949320
 23
5.479320
  0
POLYLINE
  8
0
  6
CONTINUOUS
 66
     1
 40
0.000000
 41
0.000000
  0
VERTEX
  8
0
  6
CONTINUOUS
 10
2.383040
 20
6.050880
  0
VERTEX
  8
0
  6
CONTINUOUS
 10
3.035120
 20
5.681280
  0
VERTEX
  8
0
  6
CONTINUOUS
 10
2.949320
 20
5.479320
  0
VERTEX
  8
0
  6
CONTINUOUS
 10
2.297240
 20
5.849360
  0
VERTEX
  8
0
  6
CONTINUOUS
 10
2.383040
 20
6.050880
  0
SEQEND
  8
0
  0
SOLID
  8
0
 62
    15
 10
2.297240
 20
5.849360
 11
2.949320
 21
5.479320
 12
2.206160
 22
5.672480
 13
2.858240
 23
5.302440
  0
POLYLINE
  8
0
  6
CONTINUOUS
 66
     1
 40
0.000000
 41
0.000000
  0
VERTEX
  8
0
  6
CONTINUOUS
 10
2.297240
 20
5.849360
  0
VERTEX
  8
0
  6
CONTINUOUS
 10
2.949320
 20
5.479320
  0
VERTEX
  8
0
  6
CONTINUOUS
 10
2.858240
 20
5.302440
  0
VERTEX
  8
0
  6
CONTINUOUS
 10
2.206160
 20
5.672480
  0
VERTEX
  8
0
  6
CONTINUOUS
 10
2.297240
 20
5.849360
  0
SEQEND
  8
0
  0
SOLID
  8
0
 62
    15
 10
3.484800
 20
7.915160
 11
4.136880
 21
7.545120
 12
3.483040
 22
7.357680
 13
4.135120
 23
6.987640
  0
POLYLINE
  8
0
  6
CONTINUOUS
 66
     1
 40
0.000000
 41
0.000000
  0
VERTEX
  8
0
  6
CONTINUOUS
 10
3.484800
 20
7.915160
  0
VERTEX
  8
0
  6
CONTINUOUS
 10
4.136880
 20
7.545120
  0
VERTEX
  8
0
  6
CONTINUOUS
 10
4.135120
 20
6.987640
  0
VERTEX
  8
0
  6
CONTINUOUS
 10
3.483040
 20
7.357680
  0
VERTEX
  8
0
  6
CONTINUOUS
 10
3.484800
 20
7.915160
  0
SEQEND
  8
0
  0
SOLID
  8
0
 62
    15
 10
2.103640
 20
5.524640
 11
2.755720
 21
5.154600
 12
1.983520
 22
5.410240
 13
2.635600
 23
5.040200
  0
POLYLINE
  8
0
  6
CONTINUOUS
 66
     1
 40
0.000000
 41
0.000000
  0
VERTEX
  8
0
  6
CONTINUOUS
 10
2.103640
 20
5.524640
  0
VERTEX
  8
0
  6
CONTINUOUS
 10
2.755720
 20
5.154600
  0
VERTEX
  8
0
  6
CONTINUOUS
 10
2.635600
 20
5.040200
  0
VERTEX
  8
0
  6
CONTINUOUS
 10
1.983520
 20
5.410240
  0
VERTEX
  8
0
  6
CONTINUOUS
 10
2.103640
 20
5.524640
  0
SEQEND
  8
0
  0
SOLID
  8
0
 62
    15
 10
1.983520
 20
5.410240
 11
2.635600
 21
5.040200
 12
1.839640
 22
5.333680
 13
2.491720
 23
4.963640
  0
POLYLINE
  8
0
  6
CONTINUOUS
 66
     1
 40
0.000000
 41
0.000000
  0
VERTEX
  8
0
  6
CONTINUOUS
 10
1.983520
 20
5.410240
  0
VERTEX
  8
0
  6
CONTINUOUS
 10
2.635600
 20
5.040200
  0
VERTEX
  8
0
  6
CONTINUOUS
 10
2.491720
 20
4.963640
  0
VERTEX
  8
0
  6
CONTINUOUS
 10
1.839640
 20
5.333680
  0
VERTEX
  8
0
  6
CONTINUOUS
 10
1.983520
 20
5.410240
  0
SEQEND
  8
0
  0
SOLID
  8
0
 62
    15
 10
1.839640
 20
5.333680
 11
2.491720
 21
4.963640
 12
1.756480
 22
5.310800
 13
2.408560
 23
4.940760
  0
POLYLINE
  8
0
  6
CONTINUOUS
 66
     1
 40
0.000000
 41
0.000000
  0
VERTEX
  8
0
  6
CONTINUOUS
 10
1.839640
 20
5.333680
  0
VERTEX
  8
0
  6
CONTINUOUS
 10
2.491720
 20
4.963640
  0
VERTEX
  8
0
  6
CONTINUOUS
 10
2.408560
 20
4.940760
  0
VERTEX
  8
0
  6
CONTINUOUS
 10
1.756480
 20
5.310800
  0
VERTEX
  8
0
  6
CONTINUOUS
 10
1.839640
 20
5.333680
  0
SEQEND
  8
0
  0
SOLID
  8
0
 62
    15
 10
1.756480
 20
5.310800
 11
2.408560
 21
4.940760
 12
1.665400
 22
5.298920
 13
2.317480
 23
4.929320
  0
POLYLINE
  8
0
  6
CONTINUOUS
 66
     1
 40
0.000000
 41
0.000000
  0
VERTEX
  8
0
  6
CONTINUOUS
 10
1.756480
 20
5.310800
  0
VERTEX
  8
0
  6
CONTINUOUS
 10
2.408560
 20
4.940760
  0
VERTEX
  8
0
  6
CONTINUOUS
 10
2.317480
 20
4.929320
  0
VERTEX
  8
0
  6
CONTINUOUS
 10
1.665400
 20
5.298920
  0
VERTEX
  8
0
  6
CONTINUOUS
 10
1.756480
 20
5.310800
  0
SEQEND
  8
0
  0
SOLID
  8
0
 62
    15
 10
1.665400
 20
5.298920
 11
2.317480
 21
4.929320
 12
1.664080
 22
4.960120
 13
2.316160
 23
4.590520
  0
POLYLINE
  8
0
  6
CONTINUOUS
 66
     1
 40
0.000000
 41
0.000000
  0
VERTEX
  8
0
  6
CONTINUOUS
 10
1.665400
 20
5.298920
  0
VERTEX
  8
0
  6
CONTINUOUS
 10
2.317480
 20
4.929320
  0
VERTEX
  8
0
  6
CONTINUOUS
 10
2.316160
 20
4.590520
  0
VERTEX
  8
0
  6
CONTINUOUS
 10
1.664080
 20
4.960120
  0
VERTEX
  8
0
  6
CONTINUOUS
 10
1.665400
 20
5.298920
  0
SEQEND
  8
0
  0
SOLID
  8
0
 62
    15
 10
1.664080
 20
4.960120
 11
2.316160
 21
4.590520
 12
1.586640
 22
4.951760
 13
2.238720
 23
4.582160
  0
POLYLINE
  8
0
  6
CONTINUOUS
 66
     1
 40
0.000000
 41
0.000000
  0
VERTEX
  8
0
  6
CONTINUOUS
 10
1.664080
 20
4.960120
  0
VERTEX
  8
0
  6
CONTINUOUS
 10
2.316160
 20
4.590520
  0
VERTEX
  8
0
  6
CONTINUOUS
 10
2.238720
 20
4.582160
  0
VERTEX
  8
0
  6
CONTINUOUS
 10
1.586640
 20
4.951760
  0
VERTEX
  8
0
  6
CONTINUOUS
 10
1.664080
 20
4.960120
  0
SEQEND
  8
0
  0
SOLID
  8
0
 62
    15
 10
1.586640
 20
4.951760
 11
2.238720
 21
4.582160
 12
1.496000
 22
4.924480
 13
2.148080
 23
4.554880
  0
POLYLINE
  8
0
  6
CONTINUOUS
 66
     1
 40
0.000000
 41
0.000000
  0
VERTEX
  8
0
  6
CONTINUOUS
 10
1.586640
 20
4.951760
  0
VERTEX
  8
0
  6
CONTINUOUS
 10
2.238720
 20
4.582160
  0
VERTEX
  8
0
  6
CONTINUOUS
 10
2.148080
 20
4.554880
  0
VERTEX
  8
0
  6
CONTINUOUS
 10
1.496000
 20
4.924480
  0
VERTEX
  8
0
  6
CONTINUOUS
 10
1.586640
 20
4.951760
  0
SEQEND
  8
0
  0
SOLID
  8
0
 62
    15
 10
1.496000
 20
4.924480
 11
2.148080
 21
4.554880
 12
1.399200
 22
4.874760
 13
2.051280
 23
4.504720
  0
POLYLINE
  8
0
  6
CONTINUOUS
 66
     1
 40
0.000000
 41
0.000000
  0
VERTEX
  8
0
  6
CONTINUOUS
 10
1.496000
 20
4.924480
  0
VERTEX
  8
0
  6
CONTINUOUS
 10
2.148080
 20
4.554880
  0
VERTEX
  8
0
  6
CONTINUOUS
 10
2.051280
 20
4.504720
  0
VERTEX
  8
0
  6
CONTINUOUS
 10
1.399200
 20
4.874760
  0
VERTEX
  8
0
  6
CONTINUOUS
 10
1.496000
 20
4.924480
  0
SEQEND
  8
0
  0
SOLID
  8
0
 62
    15
 10
1.399200
 20
4.874760
 11
2.051280
 21
4.504720
 12
1.303720
 22
4.799080
 13
1.955800
 23
4.429480
  0
POLYLINE
  8
0
  6
CONTINUOUS
 66
     1
 40
0.000000
 41
0.000000
  0
VERTEX
  8
0
  6
CONTINUOUS
 10
1.399200
 20
4.874760
  0
VERTEX
  8
0
  6
CONTINUOUS
 10
2.051280
 20
4.504720
  0
VERTEX
  8
0
  6
CONTINUOUS
 10
1.955800
 20
4.429480
  0
VERTEX
  8
0
  6
CONTINUOUS
 10
1.303720
 20
4.799080
  0
VERTEX
  8
0
  6
CONTINUOUS
 10
1.399200
 20
4.874760
  0
SEQEND
  8
0
  0
SOLID
  8
0
 62
    15
 10
1.303720
 20
4.799080
 11
1.955800
 21
4.429480
 12
1.216600
 22
4.694800
 13
1.868680
 23
4.324760
  0
POLYLINE
  8
0
  6
CONTINUOUS
 66
     1
 40
0.000000
 41
0.000000
  0
VERTEX
  8
0
  6
CONTINUOUS
 10
1.303720
 20
4.799080
  0
VERTEX
  8
0
  6
CONTINUOUS
 10
1.955800
 20
4.429480
  0
VERTEX
  8
0
  6
CONTINUOUS
 10
1.868680
 20
4.324760
  0
VERTEX
  8
0
  6
CONTINUOUS
 10
1.216600
 20
4.694800
  0
VERTEX
  8
0
  6
CONTINUOUS
 10
1.303720
 20
4.799080
  0
SEQEND
  8
0
  0
SOLID
  8
0
 62
    15
 10
1.216600
 20
4.694800
 11
1.868680
 21
4.324760
 12
1.144880
 22
4.557960
 13
1.796960
 23
4.188360
  0
POLYLINE
  8
0
  6
CONTINUOUS
 66
     1
 40
0.000000
 41
0.000000
  0
VERTEX
  8
0
  6
CONTINUOUS
 10
1.216600
 20
4.694800
  0
VERTEX
  8
0
  6
CONTINUOUS
 10
1.868680
 20
4.324760
  0
VERTEX
  8
0
  6
CONTINUOUS
 10
1.796960
 20
4.188360
  0
VERTEX
  8
0
  6
CONTINUOUS
 10
1.144880
 20
4.557960
  0
VERTEX
  8
0
  6
CONTINUOUS
 10
1.216600
 20
4.694800
  0
SEQEND
  8
0
  0
SOLID
  8
0
 62
    15
 10
1.144880
 20
4.557960
 11
1.796960
 21
4.188360
 12
1.096480
 22
4.385920
 13
1.748560
 23
4.016320
  0
POLYLINE
  8
0
  6
CONTINUOUS
 66
     1
 40
0.000000
 41
0.000000
  0
VERTEX
  8
0
  6
CONTINUOUS
 10
1.144880
 20
4.557960
  0
VERTEX
  8
0
  6
CONTINUOUS
 10
1.796960
 20
4.188360
  0
VERTEX
  8
0
  6
CONTINUOUS
 10
1.748560
 20
4.016320
  0
VERTEX
  8
0
  6
CONTINUOUS
 10
1.096480
 20
4.385920
  0
VERTEX
  8
0
  6
CONTINUOUS
 10
1.144880
 20
4.557960
  0
SEQEND
  8
0
  0
SOLID
  8
0
 62
    15
 10
1.096480
 20
4.385920
 11
1.748560
 21
4.016320
 12
1.078440
 22
4.175600
 13
1.730520
 23
3.805560
  0
POLYLINE
  8
0
  6
CONTINUOUS
 66
     1
 40
0.000000
 41
0.000000
  0
VERTEX
  8
0
  6
CONTINUOUS
 10
1.096480
 20
4.385920
  0
VERTEX
  8
0
  6
CONTINUOUS
 10
1.748560
 20
4.016320
  0
VERTEX
  8
0
  6
CONTINUOUS
 10
1.730520
 20
3.805560
  0
VERTEX
  8
0
  6
CONTINUOUS
 10
1.078440
 20
4.175600
  0
VERTEX
  8
0
  6
CONTINUOUS
 10
1.096480
 20
4.385920
  0
SEQEND
  8
0
  0
SOLID
  8
0
 62
    15
 10
1.078440
 20
4.175600
 11
1.730520
 21
3.805560
 12
0.714560
 22
4.176920
 13
1.366640
 23
3.806880
  0
POLYLINE
  8
0
  6
CONTINUOUS
 66
     1
 40
0.000000
 41
0.000000
  0
VERTEX
  8
0
  6
CONTINUOUS
 10
1.078440
 20
4.175600
  0
VERTEX
  8
0
  6
CONTINUOUS
 10
1.730520
 20
3.805560
  0
VERTEX
  8
0
  6
CONTINUOUS
 10
1.366640
 20
3.806880
  0
VERTEX
  8
0
  6
CONTINUOUS
 10
0.714560
 20
4.176920
  0
VERTEX
  8
0
  6
CONTINUOUS
 10
1.078440
 20
4.175600
  0
SEQEND
  8
0
  0
POLYLINE
  8
0
  6
CONTINUOUS
 66
     1
 40
0.000000
 41
0.000000
  0
VERTEX
  8
0
  6
CONTINUOUS
 10
3.084400
 20
7.915600
  0
VERTEX
  8
0
  6
CONTINUOUS
 10
3.484800
 20
7.915160
  0
VERTEX
  8
0
  6
CONTINUOUS
 10
3.483040
 20
7.357680
  0
VERTEX
  8
0
  6
CONTINUOUS
 10
3.390200
 20
7.344920
  0
VERTEX
  8
0
  6
CONTINUOUS
 10
3.282840
 20
7.312800
  0
VERTEX
  8
0
  6
CONTINUOUS
 10
3.165360
 20
7.257800
  0
VERTEX
  8
0
  6
CONTINUOUS
 10
3.040840
 20
7.175960
  0
VERTEX
  8
0
  6
CONTINUOUS
 10
2.914560
 20
7.064200
  0
VERTEX
  8
0
  6
CONTINUOUS
 10
2.790480
 20
6.918560
  0
VERTEX
  8
0
  6
CONTINUOUS
 10
2.672560
 20
6.735960
  0
VERTEX
  8
0
  6
CONTINUOUS
 10
2.565200
 20
6.512000
  0
VERTEX
  8
0
  6
CONTINUOUS
 10
2.470600
 20
6.273520
  0
VERTEX
  8
0
  6
CONTINUOUS
 10
2.426160
 20
6.160000
  0
VERTEX
  8
0
  6
CONTINUOUS
 10
2.383040
 20
6.050880
  0
VERTEX
  8
0
  6
CONTINUOUS
 10
2.297240
 20
5.849360
  0
VERTEX
  8
0
  6
CONTINUOUS
 10
2.206160
 20
5.672480
  0
VERTEX
  8
0
  6
CONTINUOUS
 10
2.103640
 20
5.524640
  0
VERTEX
  8
0
  6
CONTINUOUS
 10
1.983520
 20
5.410240
  0
VERTEX
  8
0
  6
CONTINUOUS
 10
1.839640
 20
5.333680
  0
VERTEX
  8
0
  6
CONTINUOUS
 10
1.756480
 20
5.310800
  0
VERTEX
  8
0
  6
CONTINUOUS
 10
1.665400
 20
5.298920
  0
VERTEX
  8
0
  6
CONTINUOUS
 10
1.664080
 20
4.960120
  0
VERTEX
  8
0
  6
CONTINUOUS
 10
1.586640
 20
4.951760
  0
VERTEX
  8
0
  6
CONTINUOUS
 10
1.496000
 20
4.924480
  0
VERTEX
  8
0
  6
CONTINUOUS
 10
1.399200
 20
4.874760
  0
VERTEX
  8
0
  6
CONTINUOUS
 10
1.303720
 20
4.799080
  0
VERTEX
  8
0
  6
CONTINUOUS
 10
1.216600
 20
4.694800
  0
VERTEX
  8
0
  6
CONTINUOUS
 10
1.144880
 20
4.557960
  0
VERTEX
  8
0
  6
CONTINUOUS
 10
1.096480
 20
4.385920
  0
VERTEX
  8
0
  6
CONTINUOUS
 10
1.078440
 20
4.175600
  0
VERTEX
  8
0
  6
CONTINUOUS
 10
0.714560
 20
4.176920
  0
VERTEX
  8
0
  6
CONTINUOUS
 10
0.716760
 20
4.785440
  0
VERTEX
  8
0
  6
CONTINUOUS
 10
3.084400
 20
7.915600
  0
SEQEND
  8
0
  0
TEXT
  8
0
 10
2.413400
 20
4.024240
 40
0.138225
  1
BA  921
 41
1.000000
  7
SN0
 71
     0
 72
     5
 11
3.002541
 21
4.024240
  0
TEXT
  8
0
 10
2.072840
 20
3.832840
 40
0.138225
  1
11/16" x 4-11/16"
 41
1.000000
  7
SN0
 71
     0
 72
     5
 11
3.340713
 21
3.832840
  0
TEXT
  8
0
 10
7.060680
 20
8.254400
 40
0.138225
  1
crown
 41
1.000000
  7
SN0
 71
     0
 72
     5
 11
7.502636
 21
8.254400
  0
TEXT
  8
0
 10
7.143840
 20
8.063000
 40
0.138225
  1
921 
 41
1.000000
  7
SN0
 71
     0
 72
     5
 11
7.466208
 21
8.063000
  0
TEXT
  8
0
 10
6.696360
 20
7.871160
 40
0.138225
  1
knives made for
 41
1.000000
  7
SN0
 71
     0
 72
     5
 11
7.865043
 21
7.871160
  0
TEXT
  8
0
 10
6.534880
 20
7.679760
 40
0.138225
  1
curved shaper work.
 41
1.000000
  7
SN0
 71
     0
 72
     5
 11
8.025531
 21
7.679760
  0
POLYLINE
  8
0
  6
CONTINUOUS
 66
     1
 40
0.014080
 41
0.014080
  0
VERTEX
  8
0
  6
CONTINUOUS
 10
2.961640
 20
1.800920
  0
VERTEX
  8
0
  6
CONTINUOUS
 10
2.856920
 20
1.774080
  0
VERTEX
  8
0
  6
CONTINUOUS
 10
2.781680
 20
1.750320
  0
VERTEX
  8
0
  6
CONTINUOUS
 10
2.742960
 20
1.736240
  0
VERTEX
  8
0
  6
CONTINUOUS
 10
2.703360
 20
1.719960
  0
VERTEX
  8
0
  6
CONTINUOUS
 10
2.643520
 20
1.690920
  0
VERTEX
  8
0
  6
CONTINUOUS
 10
2.582800
 20
1.655720
  0
VERTEX
  8
0
  6
CONTINUOUS
 10
2.522520
 20
1.613480
  0
VERTEX
  8
0
  6
CONTINUOUS
 10
2.482480
 20
1.581360
  0
VERTEX
  8
0
  6
CONTINUOUS
 10
2.423080
 20
1.525040
  0
VERTEX
  8
0
  6
CONTINUOUS
 10
2.384360
 20
1.482800
  0
VERTEX
  8
0
  6
CONTINUOUS
 10
2.346520
 20
1.435720
  0
VERTEX
  8
0
  6
CONTINUOUS
 10
1.848880
 20
1.689160
  0
VERTEX
  8
0
  6
CONTINUOUS
 10
1.848880
 20
0.414920
  0
VERTEX
  8
0
  6
CONTINUOUS
 10
6.443360
 20
0.414920
  0
VERTEX
  8
0
  6
CONTINUOUS
 10
6.443360
 20
1.891560
  0
VERTEX
  8
0
  6
CONTINUOUS
 10
6.362840
 20
1.941720
  0
VERTEX
  8
0
  6
CONTINUOUS
 10
6.310920
 20
1.971200
  0
VERTEX
  8
0
  6
CONTINUOUS
 10
6.234360
 20
2.009480
  0
VERTEX
  8
0
  6
CONTINUOUS
 10
6.160440
 20
2.040720
  0
VERTEX
  8
0
  6
CONTINUOUS
 10
6.089160
 20
2.066240
  0
VERTEX
  8
0
  6
CONTINUOUS
 10
6.020520
 20
2.085160
  0
VERTEX
  8
0
  6
CONTINUOUS
 10
5.954520
 20
2.098800
  0
VERTEX
  8
0
  6
CONTINUOUS
 10
5.911840
 20
2.104960
  0
VERTEX
  8
0
  6
CONTINUOUS
 10
5.850680
 20
2.109360
  0
VERTEX
  8
0
  6
CONTINUOUS
 10
5.791720
 20
2.109360
  0
VERTEX
  8
0
  6
CONTINUOUS
 10
5.754320
 20
2.106720
  0
VERTEX
  8
0
  6
CONTINUOUS
 10
5.683040
 20
2.095720
  0
VERTEX
  8
0
  6
CONTINUOUS
 10
5.617480
 20
2.077680
  0
VERTEX
  8
0
  6
CONTINUOUS
 10
5.556760
 20
2.053480
  0
VERTEX
  8
0
  6
CONTINUOUS
 10
5.502200
 20
2.024000
  0
VERTEX
  8
0
  6
CONTINUOUS
 10
5.452920
 20
1.990120
  0
VERTEX
  8
0
  6
CONTINUOUS
 10
5.409800
 20
1.951840
  0
VERTEX
  8
0
  6
CONTINUOUS
 10
5.372840
 20
1.910920
  0
VERTEX
  8
0
  6
CONTINUOUS
 10
5.341600
 20
1.867360
  0
VERTEX
  8
0
  6
CONTINUOUS
 10
5.328400
 20
1.844920
  0
VERTEX
  8
0
  6
CONTINUOUS
 10
5.326200
 20
1.847560
  0
VERTEX
  8
0
  6
CONTINUOUS
 10
5.029640
 20
2.011680
  0
VERTEX
  8
0
  6
CONTINUOUS
 10
4.989160
 20
1.954920
  0
VERTEX
  8
0
  6
CONTINUOUS
 10
4.945160
 20
1.905640
  0
VERTEX
  8
0
  6
CONTINUOUS
 10
4.914360
 20
1.876600
  0
VERTEX
  8
0
  6
CONTINUOUS
 10
4.882240
 20
1.850200
  0
VERTEX
  8
0
  6
CONTINUOUS
 10
4.848800
 20
1.826880
  0
VERTEX
  8
0
  6
CONTINUOUS
 10
4.795560
 20
1.796960
  0
VERTEX
  8
0
  6
CONTINUOUS
 10
4.739680
 20
1.772320
  0
VERTEX
  8
0
  6
CONTINUOUS
 10
4.680720
 20
1.753400
  0
VERTEX
  8
0
  6
CONTINUOUS
 10
4.619120
 20
1.739320
  0
VERTEX
  8
0
  6
CONTINUOUS
 10
4.576000
 20
1.732280
  0
VERTEX
  8
0
  6
CONTINUOUS
 10
4.532000
 20
1.727000
  0
VERTEX
  8
0
  6
CONTINUOUS
 10
4.486680
 20
1.723480
  0
VERTEX
  8
0
  6
CONTINUOUS
 10
4.440040
 20
1.721720
  0
VERTEX
  8
0
  6
CONTINUOUS
 10
4.342800
 20
1.722600
  0
VERTEX
  8
0
  6
CONTINUOUS
 10
4.241160
 20
1.728760
  0
VERTEX
  8
0
  6
CONTINUOUS
 10
4.134240
 20
1.738880
  0
VERTEX
  8
0
  6
CONTINUOUS
 10
3.965280
 20
1.759560
  0
VERTEX
  8
0
  6
CONTINUOUS
 10
3.596560
 20
1.810160
  0
VERTEX
  8
0
  6
CONTINUOUS
 10
3.446080
 20
1.826880
  0
VERTEX
  8
0
  6
CONTINUOUS
 10
3.364680
 20
1.831280
  0
VERTEX
  8
0
  6
CONTINUOUS
 10
3.286360
 20
1.832600
  0
VERTEX
  8
0
  6
CONTINUOUS
 10
3.211560
 20
1.830840
  0
VERTEX
  8
0
  6
CONTINUOUS
 10
3.139840
 20
1.825560
  0
VERTEX
  8
0
  6
CONTINUOUS
 10
3.071640
 20
1.818080
  0
VERTEX
  8
0
  6
CONTINUOUS
 10
2.975280
 20
1.801800
  0
VERTEX
  8
0
  6
CONTINUOUS
 10
2.944480
 20
1.795200
  0
VERTEX
  8
0
  6
CONTINUOUS
 10
2.961640
 20
1.800920
  0
SEQEND
  8
0
  0
TEXT
  8
0
 10
2.064920
 20
0.543840
 40
0.138225
  1
921A
 41
1.000000
  7
SN0
 71
     0
 72
     5
 11
2.451681
 21
0.543840
  0
TEXT
  8
0
 10
4.364360
 20
0.692120
 40
0.138225
  1
921A is used for curved
 41
1.000000
  7
SN0
 71
     0
 72
     5
 11
6.102986
 21
0.692120
  0
TEXT
  8
0
 10
4.299680
 20
0.500280
 40
0.138225
  1
crowns run on the shaper  
 41
1.000000
  7
SN0
 71
     0
 72
     5
 11
6.259484
 21
0.500280
  0
TEXT
  8
0
 10
3.481280
 20
1.262800
 40
0.138225
  1
%%uthis is the knife profile
 41
1.000000
  7
SN1
 71
     0
 72
     5
 11
5.080720
 21
1.262800
  0
ENDSEC
  0
EOF
