  0
SECTION
  2
HEADER
  9
$ACADVER
  1
AC1006
  9
$EXTMIN
 10
1.757800
 20
0.554400
  9
$EXTMAX
 10
6.738600
 20
2.748680
  9
$LTSCALE
 40
0.044000
  9
$PDMODE
 70
    35
  9
$PDSIZE
 40
0.035200
  0
ENDSEC
  0
SECTION
  2
TABLES
  0
TABLE
  2
LTYPE
 70
     9
  0
LTYPE
  2
CONTINUOUS
 70
    64
  3
Solid line
 72
    65
 73
     0
 40
0.000000
  0
LTYPE
  2
DASHED
 70
    64
  3
__ __ __ __ __ __ __ __ __ __ __ __ __ __ __
 72
    65
 73
     2
 40
0.000330
 49
0.000220
 49
-0.000110
  0
LTYPE
  2
HIDDEN
 70
    64
  3
 _ _ _ _ _ _ _ _ _ _ _ _ _ _ _ _ _ _ _ _ _ _
 72
    65
 73
     2
 40
0.000165
 49
0.000110
 49
-0.000055
  0
LTYPE
  2
CENTER
 70
    64
  3
____ _ ____ _ ____ _ ____ _ ____ _ ____ _ ____
 72
    65
 73
     4
 40
0.000880
 49
0.000550
 49
-0.000110
 49
0.000110
 49
-0.000110
  0
LTYPE
  2
PHANTOM
 70
    64
  3
_____ _ _ _____ _ _ _____ _ _ _____ _ _ ____
 72
    65
 73
     6
 40
0.001100
 49
0.000550
 49
-0.000110
 49
0.000110
 49
-0.000110
 49
0.000110
 49
-0.000110
  0
LTYPE
  2
DOT
 70
    64
  3
...............................................
 72
    65
 73
     2
 40
0.000110
 49
0.000000
 49
-0.000110
  0
LTYPE
  2
DASHDOT
 70
    64
  3
__ . __ . __ . __ . __ . __ . __ . __ . __ . __
 72
    65
 73
     4
 40
0.000440
 49
0.000220
 49
-0.000110
 49
0.000000
 49
-0.000110
  0
LTYPE
  2
BORDER
 70
    64
  3
__ __ . __ __ . __ __ . __ __ . __ __ . __ __
 72
    65
 73
     6
 40
0.000770
 49
0.000220
 49
-0.000110
 49
0.000220
 49
-0.000110
 49
0.000000
 49
-0.000110
  0
LTYPE
  2
DIVIDE
 70
    64
  3
__ . . __ . . __ . . __ . . __ . . __ . . __
 72
    65
 73
     6
 40
0.000550
 49
0.000220
 49
-0.000110
 49
0.000000
 49
-0.000110
 49
0.000000
 49
-0.000110
  0
LTYPE
  2
DOTDOT
 70
    64
  3
 . .  . .  . .  . .  . .  . . 
 72
    65
 73
     5
 40
0.000242
 49
-0.000110
 49
0.000000
 49
-0.000110
 49
0.000000
 49
-0.000110
  0
ENDTAB
  0
TABLE
  2
STYLE
 70
     2
  0
STYLE
 70
     0
  2
SN0
 40
0.000000
 41
0.000440
 50
0.000000
 71
     0
 42
0.000000
  3
ROMAND
  0
STYLE
 70
    68
  2
SV0
 40
0.000000
 41
0.000440
 50
0.000000
 71
     0
 42
0.000000
  3
ROMAND
  0
ENDTAB
  0
TABLE
  2
LAYER
 70
     3
  0
LAYER
  2
FOREGROUND
 70
    64
 62
     7
  6
CONTINUOUS
  0
LAYER
  2
BACKGROUND
 70
    65
 62
    -7
  6
CONTINUOUS
  0
LAYER
  2
0
 70
    64
 62
     7
  6
CONTINUOUS
  0
ENDTAB
  0
ENDSEC
  0
SECTION
  2
ENTITIES
  0
POLYLINE
  8
FOREGROUND
  6
CONTINUOUS
 66
     1
 40
0.000000
 41
0.000000
  0
VERTEX
  8
FOREGROUND
  6
CONTINUOUS
 10
0.000000
 20
3.303080
  0
VERTEX
  8
FOREGROUND
  6
CONTINUOUS
 10
8.499920
 20
3.303080
  0
VERTEX
  8
FOREGROUND
  6
CONTINUOUS
 10
8.499920
 20
-7.696920
  0
VERTEX
  8
FOREGROUND
  6
CONTINUOUS
 10
0.000000
 20
-7.696920
  0
VERTEX
  8
FOREGROUND
  6
CONTINUOUS
 10
0.000000
 20
3.303080
  0
SEQEND
  8
0
  0
POLYLINE
  8
FOREGROUND
  6
CONTINUOUS
 66
     1
 40
0.000000
 41
0.000000
  0
VERTEX
  8
FOREGROUND
  6
CONTINUOUS
 10
0.000000
 20
3.303080
  0
VERTEX
  8
FOREGROUND
  6
CONTINUOUS
 10
8.499920
 20
3.303080
  0
VERTEX
  8
FOREGROUND
  6
CONTINUOUS
 10
8.499920
 20
-7.696920
  0
VERTEX
  8
FOREGROUND
  6
CONTINUOUS
 10
0.000000
 20
-7.696920
  0
VERTEX
  8
FOREGROUND
  6
CONTINUOUS
 10
0.000000
 20
3.303080
  0
SEQEND
  8
0
  0
POLYLINE
  8
0
  6
CONTINUOUS
 66
     1
 40
0.014080
 41
0.014080
  0
VERTEX
  8
0
  6
CONTINUOUS
 10
4.835160
 20
1.422960
  0
VERTEX
  8
0
  6
CONTINUOUS
 10
4.271960
 20
2.026200
  0
VERTEX
  8
0
  6
CONTINUOUS
 10
4.460720
 20
2.151600
  0
VERTEX
  8
0
  6
CONTINUOUS
 10
4.507360
 20
2.114640
  0
VERTEX
  8
0
  6
CONTINUOUS
 10
4.557960
 20
2.081200
  0
VERTEX
  8
0
  6
CONTINUOUS
 10
4.611640
 20
2.052160
  0
VERTEX
  8
0
  6
CONTINUOUS
 10
4.668400
 20
2.026640
  0
VERTEX
  8
0
  6
CONTINUOUS
 10
4.727800
 20
2.005080
  0
VERTEX
  8
0
  6
CONTINUOUS
 10
4.789400
 20
1.987040
  0
VERTEX
  8
0
  6
CONTINUOUS
 10
4.853200
 20
1.973400
  0
VERTEX
  8
0
  6
CONTINUOUS
 10
4.918320
 20
1.963280
  0
VERTEX
  8
0
  6
CONTINUOUS
 10
4.985200
 20
1.957560
  0
VERTEX
  8
0
  6
CONTINUOUS
 10
5.052520
 20
1.955360
  0
VERTEX
  8
0
  6
CONTINUOUS
 10
5.086840
 20
1.955360
  0
VERTEX
  8
0
  6
CONTINUOUS
 10
5.155040
 20
1.958880
  0
VERTEX
  8
0
  6
CONTINUOUS
 10
5.223680
 20
1.966360
  0
VERTEX
  8
0
  6
CONTINUOUS
 10
5.291880
 20
1.977800
  0
VERTEX
  8
0
  6
CONTINUOUS
 10
5.359200
 20
1.993200
  0
VERTEX
  8
0
  6
CONTINUOUS
 10
5.426080
 20
2.012120
  0
VERTEX
  8
0
  6
CONTINUOUS
 10
5.583160
 20
2.063600
  0
VERTEX
  8
0
  6
CONTINUOUS
 10
5.668960
 20
2.086920
  0
VERTEX
  8
0
  6
CONTINUOUS
 10
5.722640
 20
2.098360
  0
VERTEX
  8
0
  6
CONTINUOUS
 10
5.798760
 20
2.109360
  0
VERTEX
  8
0
  6
CONTINUOUS
 10
5.847160
 20
2.112440
  0
VERTEX
  8
0
  6
CONTINUOUS
 10
5.870480
 20
2.112880
  0
VERTEX
  8
0
  6
CONTINUOUS
 10
5.916680
 20
2.110240
  0
VERTEX
  8
0
  6
CONTINUOUS
 10
5.961120
 20
2.104080
  0
VERTEX
  8
0
  6
CONTINUOUS
 10
6.004680
 20
2.094400
  0
VERTEX
  8
0
  6
CONTINUOUS
 10
6.047360
 20
2.079880
  0
VERTEX
  8
0
  6
CONTINUOUS
 10
6.089600
 20
2.061840
  0
VERTEX
  8
0
  6
CONTINUOUS
 10
6.131400
 20
2.038960
  0
VERTEX
  8
0
  6
CONTINUOUS
 10
6.173200
 20
2.011680
  0
VERTEX
  8
0
  6
CONTINUOUS
 10
6.236560
 20
1.961960
  0
VERTEX
  8
0
  6
CONTINUOUS
 10
6.541480
 20
2.131360
  0
VERTEX
  8
0
  6
CONTINUOUS
 10
6.727160
 20
1.994960
  0
VERTEX
  8
0
  6
CONTINUOUS
 10
6.083880
 20
1.416800
  0
VERTEX
  8
0
  6
CONTINUOUS
 10
4.847040
 20
1.416800
  0
VERTEX
  8
0
  6
CONTINUOUS
 10
4.835160
 20
1.422960
  0
SEQEND
  8
0
  0
SOLID
  8
0
 62
    15
 10
2.643960
 20
1.881880
 11
3.300440
 21
1.498200
 12
2.588960
 22
1.763080
 13
3.245440
 23
1.379840
  0
POLYLINE
  8
0
  6
CONTINUOUS
 66
     1
 40
0.000000
 41
0.000000
  0
VERTEX
  8
0
  6
CONTINUOUS
 10
2.643960
 20
1.881880
  0
VERTEX
  8
0
  6
CONTINUOUS
 10
3.300440
 20
1.498200
  0
VERTEX
  8
0
  6
CONTINUOUS
 10
3.245440
 20
1.379840
  0
VERTEX
  8
0
  6
CONTINUOUS
 10
2.588960
 20
1.763080
  0
VERTEX
  8
0
  6
CONTINUOUS
 10
2.643960
 20
1.881880
  0
SEQEND
  8
0
  0
SOLID
  8
0
 62
    15
 10
3.418800
 20
2.523840
 11
4.075280
 21
2.140600
 12
3.301320
 22
2.500960
 13
3.957800
 23
2.117280
  0
POLYLINE
  8
0
  6
CONTINUOUS
 66
     1
 40
0.000000
 41
0.000000
  0
VERTEX
  8
0
  6
CONTINUOUS
 10
3.418800
 20
2.523840
  0
VERTEX
  8
0
  6
CONTINUOUS
 10
4.075280
 20
2.140600
  0
VERTEX
  8
0
  6
CONTINUOUS
 10
3.957800
 20
2.117280
  0
VERTEX
  8
0
  6
CONTINUOUS
 10
3.301320
 20
2.500960
  0
VERTEX
  8
0
  6
CONTINUOUS
 10
3.418800
 20
2.523840
  0
SEQEND
  8
0
  0
SOLID
  8
0
 62
    15
 10
3.301320
 20
2.500960
 11
3.957800
 21
2.117280
 12
3.185600
 22
2.457400
 13
3.842080
 23
2.074160
  0
POLYLINE
  8
0
  6
CONTINUOUS
 66
     1
 40
0.000000
 41
0.000000
  0
VERTEX
  8
0
  6
CONTINUOUS
 10
3.301320
 20
2.500960
  0
VERTEX
  8
0
  6
CONTINUOUS
 10
3.957800
 20
2.117280
  0
VERTEX
  8
0
  6
CONTINUOUS
 10
3.842080
 20
2.074160
  0
VERTEX
  8
0
  6
CONTINUOUS
 10
3.185600
 20
2.457400
  0
VERTEX
  8
0
  6
CONTINUOUS
 10
3.301320
 20
2.500960
  0
SEQEND
  8
0
  0
SOLID
  8
0
 62
    15
 10
3.185600
 20
2.457400
 11
3.842080
 21
2.074160
 12
3.074280
 22
2.395800
 13
3.730760
 23
2.012120
  0
POLYLINE
  8
0
  6
CONTINUOUS
 66
     1
 40
0.000000
 41
0.000000
  0
VERTEX
  8
0
  6
CONTINUOUS
 10
3.185600
 20
2.457400
  0
VERTEX
  8
0
  6
CONTINUOUS
 10
3.842080
 20
2.074160
  0
VERTEX
  8
0
  6
CONTINUOUS
 10
3.730760
 20
2.012120
  0
VERTEX
  8
0
  6
CONTINUOUS
 10
3.074280
 20
2.395800
  0
VERTEX
  8
0
  6
CONTINUOUS
 10
3.185600
 20
2.457400
  0
SEQEND
  8
0
  0
SOLID
  8
0
 62
    15
 10
3.074280
 20
2.395800
 11
3.730760
 21
2.012120
 12
2.969120
 22
2.317480
 13
3.625600
 23
1.934240
  0
POLYLINE
  8
0
  6
CONTINUOUS
 66
     1
 40
0.000000
 41
0.000000
  0
VERTEX
  8
0
  6
CONTINUOUS
 10
3.074280
 20
2.395800
  0
VERTEX
  8
0
  6
CONTINUOUS
 10
3.730760
 20
2.012120
  0
VERTEX
  8
0
  6
CONTINUOUS
 10
3.625600
 20
1.934240
  0
VERTEX
  8
0
  6
CONTINUOUS
 10
2.969120
 20
2.317480
  0
VERTEX
  8
0
  6
CONTINUOUS
 10
3.074280
 20
2.395800
  0
SEQEND
  8
0
  0
SOLID
  8
0
 62
    15
 10
2.969120
 20
2.317480
 11
3.625600
 21
1.934240
 12
2.871440
 22
2.225080
 13
3.527920
 23
1.841840
  0
POLYLINE
  8
0
  6
CONTINUOUS
 66
     1
 40
0.000000
 41
0.000000
  0
VERTEX
  8
0
  6
CONTINUOUS
 10
2.969120
 20
2.317480
  0
VERTEX
  8
0
  6
CONTINUOUS
 10
3.625600
 20
1.934240
  0
VERTEX
  8
0
  6
CONTINUOUS
 10
3.527920
 20
1.841840
  0
VERTEX
  8
0
  6
CONTINUOUS
 10
2.871440
 20
2.225080
  0
VERTEX
  8
0
  6
CONTINUOUS
 10
2.969120
 20
2.317480
  0
SEQEND
  8
0
  0
SOLID
  8
0
 62
    15
 10
2.871440
 20
2.225080
 11
3.527920
 21
1.841840
 12
2.783440
 22
2.120360
 13
3.439920
 23
1.736680
  0
POLYLINE
  8
0
  6
CONTINUOUS
 66
     1
 40
0.000000
 41
0.000000
  0
VERTEX
  8
0
  6
CONTINUOUS
 10
2.871440
 20
2.225080
  0
VERTEX
  8
0
  6
CONTINUOUS
 10
3.527920
 20
1.841840
  0
VERTEX
  8
0
  6
CONTINUOUS
 10
3.439920
 20
1.736680
  0
VERTEX
  8
0
  6
CONTINUOUS
 10
2.783440
 20
2.120360
  0
VERTEX
  8
0
  6
CONTINUOUS
 10
2.871440
 20
2.225080
  0
SEQEND
  8
0
  0
SOLID
  8
0
 62
    15
 10
2.783440
 20
2.120360
 11
3.439920
 21
1.736680
 12
2.707320
 22
2.005080
 13
3.363800
 23
1.621840
  0
POLYLINE
  8
0
  6
CONTINUOUS
 66
     1
 40
0.000000
 41
0.000000
  0
VERTEX
  8
0
  6
CONTINUOUS
 10
2.783440
 20
2.120360
  0
VERTEX
  8
0
  6
CONTINUOUS
 10
3.439920
 20
1.736680
  0
VERTEX
  8
0
  6
CONTINUOUS
 10
3.363800
 20
1.621840
  0
VERTEX
  8
0
  6
CONTINUOUS
 10
2.707320
 20
2.005080
  0
VERTEX
  8
0
  6
CONTINUOUS
 10
2.783440
 20
2.120360
  0
SEQEND
  8
0
  0
SOLID
  8
0
 62
    15
 10
2.707320
 20
2.005080
 11
3.363800
 21
1.621840
 12
2.643960
 22
1.881880
 13
3.300440
 23
1.498200
  0
POLYLINE
  8
0
  6
CONTINUOUS
 66
     1
 40
0.000000
 41
0.000000
  0
VERTEX
  8
0
  6
CONTINUOUS
 10
2.707320
 20
2.005080
  0
VERTEX
  8
0
  6
CONTINUOUS
 10
3.363800
 20
1.621840
  0
VERTEX
  8
0
  6
CONTINUOUS
 10
3.300440
 20
1.498200
  0
VERTEX
  8
0
  6
CONTINUOUS
 10
2.643960
 20
1.881880
  0
VERTEX
  8
0
  6
CONTINUOUS
 10
2.707320
 20
2.005080
  0
SEQEND
  8
0
  0
SOLID
  8
0
 62
    15
 10
3.455760
 20
2.747800
 11
4.112240
 21
2.364120
 12
3.418800
 22
2.523840
 13
4.075280
 23
2.140600
  0
POLYLINE
  8
0
  6
CONTINUOUS
 66
     1
 40
0.000000
 41
0.000000
  0
VERTEX
  8
0
  6
CONTINUOUS
 10
3.455760
 20
2.747800
  0
VERTEX
  8
0
  6
CONTINUOUS
 10
4.112240
 20
2.364120
  0
VERTEX
  8
0
  6
CONTINUOUS
 10
4.075280
 20
2.140600
  0
VERTEX
  8
0
  6
CONTINUOUS
 10
3.418800
 20
2.523840
  0
VERTEX
  8
0
  6
CONTINUOUS
 10
3.455760
 20
2.747800
  0
SEQEND
  8
0
  0
SOLID
  8
0
 62
    15
 10
2.588960
 20
1.763080
 11
3.245440
 21
1.379840
 12
2.533520
 22
1.661000
 13
3.190000
 23
1.277320
  0
POLYLINE
  8
0
  6
CONTINUOUS
 66
     1
 40
0.000000
 41
0.000000
  0
VERTEX
  8
0
  6
CONTINUOUS
 10
2.588960
 20
1.763080
  0
VERTEX
  8
0
  6
CONTINUOUS
 10
3.245440
 20
1.379840
  0
VERTEX
  8
0
  6
CONTINUOUS
 10
3.190000
 20
1.277320
  0
VERTEX
  8
0
  6
CONTINUOUS
 10
2.533520
 20
1.661000
  0
VERTEX
  8
0
  6
CONTINUOUS
 10
2.588960
 20
1.763080
  0
SEQEND
  8
0
  0
SOLID
  8
0
 62
    15
 10
2.533520
 20
1.661000
 11
3.190000
 21
1.277320
 12
2.475440
 22
1.574760
 13
3.131920
 23
1.191080
  0
POLYLINE
  8
0
  6
CONTINUOUS
 66
     1
 40
0.000000
 41
0.000000
  0
VERTEX
  8
0
  6
CONTINUOUS
 10
2.533520
 20
1.661000
  0
VERTEX
  8
0
  6
CONTINUOUS
 10
3.190000
 20
1.277320
  0
VERTEX
  8
0
  6
CONTINUOUS
 10
3.131920
 20
1.191080
  0
VERTEX
  8
0
  6
CONTINUOUS
 10
2.475440
 20
1.574760
  0
VERTEX
  8
0
  6
CONTINUOUS
 10
2.533520
 20
1.661000
  0
SEQEND
  8
0
  0
SOLID
  8
0
 62
    15
 10
2.475440
 20
1.574760
 11
3.131920
 21
1.191080
 12
2.412520
 22
1.503480
 13
3.069000
 23
1.119800
  0
POLYLINE
  8
0
  6
CONTINUOUS
 66
     1
 40
0.000000
 41
0.000000
  0
VERTEX
  8
0
  6
CONTINUOUS
 10
2.475440
 20
1.574760
  0
VERTEX
  8
0
  6
CONTINUOUS
 10
3.131920
 20
1.191080
  0
VERTEX
  8
0
  6
CONTINUOUS
 10
3.069000
 20
1.119800
  0
VERTEX
  8
0
  6
CONTINUOUS
 10
2.412520
 20
1.503480
  0
VERTEX
  8
0
  6
CONTINUOUS
 10
2.475440
 20
1.574760
  0
SEQEND
  8
0
  0
SOLID
  8
0
 62
    15
 10
2.412520
 20
1.503480
 11
3.069000
 21
1.119800
 12
2.342560
 22
1.446280
 13
2.999040
 23
1.062600
  0
POLYLINE
  8
0
  6
CONTINUOUS
 66
     1
 40
0.000000
 41
0.000000
  0
VERTEX
  8
0
  6
CONTINUOUS
 10
2.412520
 20
1.503480
  0
VERTEX
  8
0
  6
CONTINUOUS
 10
3.069000
 20
1.119800
  0
VERTEX
  8
0
  6
CONTINUOUS
 10
2.999040
 20
1.062600
  0
VERTEX
  8
0
  6
CONTINUOUS
 10
2.342560
 20
1.446280
  0
VERTEX
  8
0
  6
CONTINUOUS
 10
2.412520
 20
1.503480
  0
SEQEND
  8
0
  0
SOLID
  8
0
 62
    15
 10
2.342560
 20
1.446280
 11
2.999040
 21
1.062600
 12
2.263800
 22
1.403160
 13
2.920280
 23
1.019480
  0
POLYLINE
  8
0
  6
CONTINUOUS
 66
     1
 40
0.000000
 41
0.000000
  0
VERTEX
  8
0
  6
CONTINUOUS
 10
2.342560
 20
1.446280
  0
VERTEX
  8
0
  6
CONTINUOUS
 10
2.999040
 20
1.062600
  0
VERTEX
  8
0
  6
CONTINUOUS
 10
2.920280
 20
1.019480
  0
VERTEX
  8
0
  6
CONTINUOUS
 10
2.263800
 20
1.403160
  0
VERTEX
  8
0
  6
CONTINUOUS
 10
2.342560
 20
1.446280
  0
SEQEND
  8
0
  0
SOLID
  8
0
 62
    15
 10
2.263800
 20
1.403160
 11
2.920280
 21
1.019480
 12
2.173160
 22
1.372800
 13
2.829640
 23
0.989120
  0
POLYLINE
  8
0
  6
CONTINUOUS
 66
     1
 40
0.000000
 41
0.000000
  0
VERTEX
  8
0
  6
CONTINUOUS
 10
2.263800
 20
1.403160
  0
VERTEX
  8
0
  6
CONTINUOUS
 10
2.920280
 20
1.019480
  0
VERTEX
  8
0
  6
CONTINUOUS
 10
2.829640
 20
0.989120
  0
VERTEX
  8
0
  6
CONTINUOUS
 10
2.173160
 20
1.372800
  0
VERTEX
  8
0
  6
CONTINUOUS
 10
2.263800
 20
1.403160
  0
SEQEND
  8
0
  0
SOLID
  8
0
 62
    15
 10
2.173160
 20
1.372800
 11
2.829640
 21
0.989120
 12
2.068880
 22
1.354760
 13
2.725360
 23
0.971520
  0
POLYLINE
  8
0
  6
CONTINUOUS
 66
     1
 40
0.000000
 41
0.000000
  0
VERTEX
  8
0
  6
CONTINUOUS
 10
2.173160
 20
1.372800
  0
VERTEX
  8
0
  6
CONTINUOUS
 10
2.829640
 20
0.989120
  0
VERTEX
  8
0
  6
CONTINUOUS
 10
2.725360
 20
0.971520
  0
VERTEX
  8
0
  6
CONTINUOUS
 10
2.068880
 20
1.354760
  0
VERTEX
  8
0
  6
CONTINUOUS
 10
2.173160
 20
1.372800
  0
SEQEND
  8
0
  0
SOLID
  8
0
 62
    15
 10
2.068880
 20
1.354760
 11
2.725360
 21
0.971520
 12
1.984840
 22
1.016400
 13
2.641320
 23
0.632720
  0
POLYLINE
  8
0
  6
CONTINUOUS
 66
     1
 40
0.000000
 41
0.000000
  0
VERTEX
  8
0
  6
CONTINUOUS
 10
2.068880
 20
1.354760
  0
VERTEX
  8
0
  6
CONTINUOUS
 10
2.725360
 20
0.971520
  0
VERTEX
  8
0
  6
CONTINUOUS
 10
2.641320
 20
0.632720
  0
VERTEX
  8
0
  6
CONTINUOUS
 10
1.984840
 20
1.016400
  0
VERTEX
  8
0
  6
CONTINUOUS
 10
2.068880
 20
1.354760
  0
SEQEND
  8
0
  0
SOLID
  8
0
 62
    15
 10
1.984840
 20
1.016400
 11
2.641320
 21
0.632720
 12
1.758680
 22
0.973280
 13
2.415160
 23
0.589600
  0
POLYLINE
  8
0
  6
CONTINUOUS
 66
     1
 40
0.000000
 41
0.000000
  0
VERTEX
  8
0
  6
CONTINUOUS
 10
1.984840
 20
1.016400
  0
VERTEX
  8
0
  6
CONTINUOUS
 10
2.641320
 20
0.632720
  0
VERTEX
  8
0
  6
CONTINUOUS
 10
2.415160
 20
0.589600
  0
VERTEX
  8
0
  6
CONTINUOUS
 10
1.758680
 20
0.973280
  0
VERTEX
  8
0
  6
CONTINUOUS
 10
1.984840
 20
1.016400
  0
SEQEND
  8
0
  0
POLYLINE
  8
0
  6
CONTINUOUS
 66
     1
 40
0.000000
 41
0.000000
  0
VERTEX
  8
0
  6
CONTINUOUS
 10
2.630760
 20
2.747360
  0
VERTEX
  8
0
  6
CONTINUOUS
 10
3.455760
 20
2.747800
  0
VERTEX
  8
0
  6
CONTINUOUS
 10
3.418800
 20
2.523840
  0
VERTEX
  8
0
  6
CONTINUOUS
 10
3.301320
 20
2.500960
  0
VERTEX
  8
0
  6
CONTINUOUS
 10
3.185600
 20
2.457400
  0
VERTEX
  8
0
  6
CONTINUOUS
 10
3.074280
 20
2.395800
  0
VERTEX
  8
0
  6
CONTINUOUS
 10
2.969120
 20
2.317480
  0
VERTEX
  8
0
  6
CONTINUOUS
 10
2.871440
 20
2.225080
  0
VERTEX
  8
0
  6
CONTINUOUS
 10
2.783440
 20
2.120360
  0
VERTEX
  8
0
  6
CONTINUOUS
 10
2.707320
 20
2.005080
  0
VERTEX
  8
0
  6
CONTINUOUS
 10
2.643960
 20
1.881880
  0
VERTEX
  8
0
  6
CONTINUOUS
 10
2.588960
 20
1.763080
  0
VERTEX
  8
0
  6
CONTINUOUS
 10
2.533520
 20
1.661000
  0
VERTEX
  8
0
  6
CONTINUOUS
 10
2.475440
 20
1.574760
  0
VERTEX
  8
0
  6
CONTINUOUS
 10
2.412520
 20
1.503480
  0
VERTEX
  8
0
  6
CONTINUOUS
 10
2.342560
 20
1.446280
  0
VERTEX
  8
0
  6
CONTINUOUS
 10
2.263800
 20
1.403160
  0
VERTEX
  8
0
  6
CONTINUOUS
 10
2.173160
 20
1.372800
  0
VERTEX
  8
0
  6
CONTINUOUS
 10
2.068880
 20
1.354760
  0
VERTEX
  8
0
  6
CONTINUOUS
 10
1.984840
 20
1.016400
  0
VERTEX
  8
0
  6
CONTINUOUS
 10
1.758680
 20
0.973280
  0
VERTEX
  8
0
  6
CONTINUOUS
 10
1.774080
 20
1.838320
  0
VERTEX
  8
0
  6
CONTINUOUS
 10
2.618000
 20
2.742960
  0
VERTEX
  8
0
  6
CONTINUOUS
 10
2.630760
 20
2.747360
  0
SEQEND
  8
0
  0
TEXT
  8
0
 10
3.283280
 20
0.789360
 40
0.138118
  1
BA  920
 41
1.000000
  7
SN0
 71
     0
 72
     5
 11
3.874501
 21
0.789360
  0
TEXT
  8
0
 10
3.081320
 20
0.597520
 40
0.138118
  1
3/4" x 2-7/16"
 41
1.000000
  7
SN0
 71
     0
 72
     5
 11
4.075737
 21
0.597520
  0
ENDSEC
  0
EOF
