  0
SECTION
  2
HEADER
  9
$ACADVER
  1
AC1006
  9
$EXTMIN
 10
3.366880
 20
0.652960
  9
$EXTMAX
 10
6.797120
 20
3.952960
  9
$LTSCALE
 40
0.044000
  9
$PDMODE
 70
    35
  9
$PDSIZE
 40
0.035200
  0
ENDSEC
  0
SECTION
  2
TABLES
  0
TABLE
  2
LTYPE
 70
     9
  0
LTYPE
  2
CONTINUOUS
 70
    64
  3
Solid line
 72
    65
 73
     0
 40
0.000000
  0
LTYPE
  2
DASHED
 70
    64
  3
__ __ __ __ __ __ __ __ __ __ __ __ __ __ __
 72
    65
 73
     2
 40
0.000330
 49
0.000220
 49
-0.000110
  0
LTYPE
  2
HIDDEN
 70
    64
  3
 _ _ _ _ _ _ _ _ _ _ _ _ _ _ _ _ _ _ _ _ _ _
 72
    65
 73
     2
 40
0.000165
 49
0.000110
 49
-0.000055
  0
LTYPE
  2
CENTER
 70
    64
  3
____ _ ____ _ ____ _ ____ _ ____ _ ____ _ ____
 72
    65
 73
     4
 40
0.000880
 49
0.000550
 49
-0.000110
 49
0.000110
 49
-0.000110
  0
LTYPE
  2
PHANTOM
 70
    64
  3
_____ _ _ _____ _ _ _____ _ _ _____ _ _ ____
 72
    65
 73
     6
 40
0.001100
 49
0.000550
 49
-0.000110
 49
0.000110
 49
-0.000110
 49
0.000110
 49
-0.000110
  0
LTYPE
  2
DOT
 70
    64
  3
...............................................
 72
    65
 73
     2
 40
0.000110
 49
0.000000
 49
-0.000110
  0
LTYPE
  2
DASHDOT
 70
    64
  3
__ . __ . __ . __ . __ . __ . __ . __ . __ . __
 72
    65
 73
     4
 40
0.000440
 49
0.000220
 49
-0.000110
 49
0.000000
 49
-0.000110
  0
LTYPE
  2
BORDER
 70
    64
  3
__ __ . __ __ . __ __ . __ __ . __ __ . __ __
 72
    65
 73
     6
 40
0.000770
 49
0.000220
 49
-0.000110
 49
0.000220
 49
-0.000110
 49
0.000000
 49
-0.000110
  0
LTYPE
  2
DIVIDE
 70
    64
  3
__ . . __ . . __ . . __ . . __ . . __ . . __
 72
    65
 73
     6
 40
0.000550
 49
0.000220
 49
-0.000110
 49
0.000000
 49
-0.000110
 49
0.000000
 49
-0.000110
  0
LTYPE
  2
DOTDOT
 70
    64
  3
 . .  . .  . .  . .  . .  . . 
 72
    65
 73
     5
 40
0.000242
 49
-0.000110
 49
0.000000
 49
-0.000110
 49
0.000000
 49
-0.000110
  0
ENDTAB
  0
TABLE
  2
STYLE
 70
     2
  0
STYLE
 70
     0
  2
SN0
 40
0.000000
 41
0.000440
 50
0.000000
 71
     0
 42
0.000000
  3
ROMAND
  0
STYLE
 70
    68
  2
SV0
 40
0.000000
 41
0.000440
 50
0.000000
 71
     0
 42
0.000000
  3
ROMAND
  0
ENDTAB
  0
TABLE
  2
LAYER
 70
     3
  0
LAYER
  2
FOREGROUND
 70
    64
 62
     7
  6
CONTINUOUS
  0
LAYER
  2
BACKGROUND
 70
    65
 62
    -7
  6
CONTINUOUS
  0
LAYER
  2
0
 70
    64
 62
     7
  6
CONTINUOUS
  0
ENDTAB
  0
ENDSEC
  0
SECTION
  2
ENTITIES
  0
POLYLINE
  8
FOREGROUND
  6
CONTINUOUS
 66
     1
 40
0.000000
 41
0.000000
  0
VERTEX
  8
FOREGROUND
  6
CONTINUOUS
 10
0.000000
 20
4.605920
  0
VERTEX
  8
FOREGROUND
  6
CONTINUOUS
 10
8.499920
 20
4.605920
  0
VERTEX
  8
FOREGROUND
  6
CONTINUOUS
 10
8.499920
 20
-6.394080
  0
VERTEX
  8
FOREGROUND
  6
CONTINUOUS
 10
0.000000
 20
-6.394080
  0
VERTEX
  8
FOREGROUND
  6
CONTINUOUS
 10
0.000000
 20
4.605920
  0
SEQEND
  8
0
  0
POLYLINE
  8
FOREGROUND
  6
CONTINUOUS
 66
     1
 40
0.000000
 41
0.000000
  0
VERTEX
  8
FOREGROUND
  6
CONTINUOUS
 10
0.000000
 20
4.605920
  0
VERTEX
  8
FOREGROUND
  6
CONTINUOUS
 10
8.499920
 20
4.605920
  0
VERTEX
  8
FOREGROUND
  6
CONTINUOUS
 10
8.499920
 20
-6.394080
  0
VERTEX
  8
FOREGROUND
  6
CONTINUOUS
 10
0.000000
 20
-6.394080
  0
VERTEX
  8
FOREGROUND
  6
CONTINUOUS
 10
0.000000
 20
4.605920
  0
SEQEND
  8
0
  0
POLYLINE
  8
0
  6
CONTINUOUS
 66
     1
 40
0.014080
 41
0.014080
  0
VERTEX
  8
0
  6
CONTINUOUS
 10
6.350520
 20
3.945480
  0
VERTEX
  8
0
  6
CONTINUOUS
 10
5.546200
 20
3.945480
  0
VERTEX
  8
0
  6
CONTINUOUS
 10
5.546200
 20
1.187120
  0
VERTEX
  8
0
  6
CONTINUOUS
 10
5.976960
 20
1.187120
  0
VERTEX
  8
0
  6
CONTINUOUS
 10
6.017000
 20
1.191960
  0
VERTEX
  8
0
  6
CONTINUOUS
 10
6.052200
 20
1.200760
  0
VERTEX
  8
0
  6
CONTINUOUS
 10
6.073320
 20
1.208680
  0
VERTEX
  8
0
  6
CONTINUOUS
 10
6.092680
 20
1.217920
  0
VERTEX
  8
0
  6
CONTINUOUS
 10
6.109840
 20
1.228480
  0
VERTEX
  8
0
  6
CONTINUOUS
 10
6.139320
 20
1.253560
  0
VERTEX
  8
0
  6
CONTINUOUS
 10
6.151200
 20
1.267640
  0
VERTEX
  8
0
  6
CONTINUOUS
 10
6.169680
 20
1.298000
  0
VERTEX
  8
0
  6
CONTINUOUS
 10
6.176720
 20
1.314280
  0
VERTEX
  8
0
  6
CONTINUOUS
 10
6.185520
 20
1.348600
  0
VERTEX
  8
0
  6
CONTINUOUS
 10
6.187720
 20
1.383800
  0
VERTEX
  8
0
  6
CONTINUOUS
 10
6.186840
 20
1.401400
  0
VERTEX
  8
0
  6
CONTINUOUS
 10
6.180240
 20
1.436600
  0
VERTEX
  8
0
  6
CONTINUOUS
 10
6.168360
 20
1.470920
  0
VERTEX
  8
0
  6
CONTINUOUS
 10
6.151200
 20
1.502600
  0
VERTEX
  8
0
  6
CONTINUOUS
 10
6.128760
 20
1.531640
  0
VERTEX
  8
0
  6
CONTINUOUS
 10
6.101920
 20
1.556280
  0
VERTEX
  8
0
  6
CONTINUOUS
 10
6.070240
 20
1.576080
  0
VERTEX
  8
0
  6
CONTINUOUS
 10
6.053080
 20
1.584000
  0
VERTEX
  8
0
  6
CONTINUOUS
 10
6.034600
 20
1.590160
  0
VERTEX
  8
0
  6
CONTINUOUS
 10
6.015240
 20
1.594560
  0
VERTEX
  8
0
  6
CONTINUOUS
 10
6.015240
 20
1.676400
  0
VERTEX
  8
0
  6
CONTINUOUS
 10
5.968600
 20
1.677720
  0
VERTEX
  8
0
  6
CONTINUOUS
 10
5.926800
 20
1.683440
  0
VERTEX
  8
0
  6
CONTINUOUS
 10
5.890280
 20
1.693560
  0
VERTEX
  8
0
  6
CONTINUOUS
 10
5.858160
 20
1.707640
  0
VERTEX
  8
0
  6
CONTINUOUS
 10
5.839680
 20
1.718640
  0
VERTEX
  8
0
  6
CONTINUOUS
 10
5.808000
 20
1.745040
  0
VERTEX
  8
0
  6
CONTINUOUS
 10
5.795240
 20
1.760440
  0
VERTEX
  8
0
  6
CONTINUOUS
 10
5.784680
 20
1.776720
  0
VERTEX
  8
0
  6
CONTINUOUS
 10
5.775880
 20
1.793880
  0
VERTEX
  8
0
  6
CONTINUOUS
 10
5.768840
 20
1.811920
  0
VERTEX
  8
0
  6
CONTINUOUS
 10
5.763560
 20
1.830840
  0
VERTEX
  8
0
  6
CONTINUOUS
 10
5.760040
 20
1.850200
  0
VERTEX
  8
0
  6
CONTINUOUS
 10
5.758720
 20
1.891120
  0
VERTEX
  8
0
  6
CONTINUOUS
 10
5.760480
 20
1.912240
  0
VERTEX
  8
0
  6
CONTINUOUS
 10
5.764000
 20
1.933360
  0
VERTEX
  8
0
  6
CONTINUOUS
 10
5.775880
 20
1.975600
  0
VERTEX
  8
0
  6
CONTINUOUS
 10
5.784240
 20
1.997160
  0
VERTEX
  8
0
  6
CONTINUOUS
 10
5.805360
 20
2.038520
  0
VERTEX
  8
0
  6
CONTINUOUS
 10
5.818120
 20
2.059200
  0
VERTEX
  8
0
  6
CONTINUOUS
 10
5.848040
 20
2.097920
  0
VERTEX
  8
0
  6
CONTINUOUS
 10
5.883680
 20
2.134000
  0
VERTEX
  8
0
  6
CONTINUOUS
 10
5.924160
 20
2.165680
  0
VERTEX
  8
0
  6
CONTINUOUS
 10
6.011280
 20
2.222440
  0
VERTEX
  8
0
  6
CONTINUOUS
 10
6.051760
 20
2.251480
  0
VERTEX
  8
0
  6
CONTINUOUS
 10
6.107200
 20
2.298120
  0
VERTEX
  8
0
  6
CONTINUOUS
 10
6.140640
 20
2.330680
  0
VERTEX
  8
0
  6
CONTINUOUS
 10
6.185080
 20
2.383920
  0
VERTEX
  8
0
  6
CONTINUOUS
 10
6.210600
 20
2.421760
  0
VERTEX
  8
0
  6
CONTINUOUS
 10
6.233480
 20
2.462240
  0
VERTEX
  8
0
  6
CONTINUOUS
 10
6.252400
 20
2.505360
  0
VERTEX
  8
0
  6
CONTINUOUS
 10
6.268240
 20
2.551120
  0
VERTEX
  8
0
  6
CONTINUOUS
 10
6.280560
 20
2.600400
  0
VERTEX
  8
0
  6
CONTINUOUS
 10
6.288920
 20
2.652760
  0
VERTEX
  8
0
  6
CONTINUOUS
 10
6.293760
 20
2.708640
  0
VERTEX
  8
0
  6
CONTINUOUS
 10
6.294640
 20
2.768040
  0
VERTEX
  8
0
  6
CONTINUOUS
 10
6.291560
 20
2.831840
  0
VERTEX
  8
0
  6
CONTINUOUS
 10
6.288480
 20
2.865280
  0
VERTEX
  8
0
  6
CONTINUOUS
 10
6.350080
 20
2.865280
  0
VERTEX
  8
0
  6
CONTINUOUS
 10
6.350080
 20
3.064600
  0
VERTEX
  8
0
  6
CONTINUOUS
 10
6.394960
 20
3.066800
  0
VERTEX
  8
0
  6
CONTINUOUS
 10
6.438520
 20
3.073400
  0
VERTEX
  8
0
  6
CONTINUOUS
 10
6.480760
 20
3.084400
  0
VERTEX
  8
0
  6
CONTINUOUS
 10
6.521240
 20
3.098920
  0
VERTEX
  8
0
  6
CONTINUOUS
 10
6.559520
 20
3.117840
  0
VERTEX
  8
0
  6
CONTINUOUS
 10
6.596040
 20
3.139840
  0
VERTEX
  8
0
  6
CONTINUOUS
 10
6.629920
 20
3.164920
  0
VERTEX
  8
0
  6
CONTINUOUS
 10
6.675680
 20
3.208480
  0
VERTEX
  8
0
  6
CONTINUOUS
 10
6.702520
 20
3.241040
  0
VERTEX
  8
0
  6
CONTINUOUS
 10
6.725840
 20
3.276240
  0
VERTEX
  8
0
  6
CONTINUOUS
 10
6.746520
 20
3.313640
  0
VERTEX
  8
0
  6
CONTINUOUS
 10
6.762800
 20
3.353240
  0
VERTEX
  8
0
  6
CONTINUOUS
 10
6.776000
 20
3.394600
  0
VERTEX
  8
0
  6
CONTINUOUS
 10
6.784360
 20
3.437720
  0
VERTEX
  8
0
  6
CONTINUOUS
 10
6.789200
 20
3.481720
  0
VERTEX
  8
0
  6
CONTINUOUS
 10
6.789200
 20
3.527040
  0
VERTEX
  8
0
  6
CONTINUOUS
 10
6.784360
 20
3.571480
  0
VERTEX
  8
0
  6
CONTINUOUS
 10
6.776000
 20
3.614600
  0
VERTEX
  8
0
  6
CONTINUOUS
 10
6.755320
 20
3.675760
  0
VERTEX
  8
0
  6
CONTINUOUS
 10
6.736400
 20
3.714040
  0
VERTEX
  8
0
  6
CONTINUOUS
 10
6.714400
 20
3.750560
  0
VERTEX
  8
0
  6
CONTINUOUS
 10
6.689320
 20
3.784440
  0
VERTEX
  8
0
  6
CONTINUOUS
 10
6.661160
 20
3.815240
  0
VERTEX
  8
0
  6
CONTINUOUS
 10
6.629920
 20
3.843840
  0
VERTEX
  8
0
  6
CONTINUOUS
 10
6.596040
 20
3.868920
  0
VERTEX
  8
0
  6
CONTINUOUS
 10
6.540600
 20
3.901040
  0
VERTEX
  8
0
  6
CONTINUOUS
 10
6.501440
 20
3.917320
  0
VERTEX
  8
0
  6
CONTINUOUS
 10
6.460080
 20
3.930520
  0
VERTEX
  8
0
  6
CONTINUOUS
 10
6.416960
 20
3.938880
  0
VERTEX
  8
0
  6
CONTINUOUS
 10
6.372520
 20
3.943720
  0
VERTEX
  8
0
  6
CONTINUOUS
 10
6.350080
 20
3.944160
  0
VERTEX
  8
0
  6
CONTINUOUS
 10
6.350520
 20
3.945480
  0
SEQEND
  8
0
  0
SOLID
  8
0
 62
    15
 10
3.626920
 20
2.038520
 11
4.375800
 21
2.033680
 12
3.605800
 22
1.996720
 13
4.354680
 23
1.991880
  0
POLYLINE
  8
0
  6
CONTINUOUS
 66
     1
 40
0.000000
 41
0.000000
  0
VERTEX
  8
0
  6
CONTINUOUS
 10
3.626920
 20
2.038520
  0
VERTEX
  8
0
  6
CONTINUOUS
 10
4.375800
 20
2.033680
  0
VERTEX
  8
0
  6
CONTINUOUS
 10
4.354680
 20
1.991880
  0
VERTEX
  8
0
  6
CONTINUOUS
 10
3.605800
 20
1.996720
  0
VERTEX
  8
0
  6
CONTINUOUS
 10
3.626920
 20
2.038520
  0
SEQEND
  8
0
  0
SOLID
  8
0
 62
    15
 10
4.172080
 20
3.945040
 11
4.920960
 21
3.940200
 12
4.171200
 22
3.944160
 13
4.920080
 23
3.939320
  0
POLYLINE
  8
0
  6
CONTINUOUS
 66
     1
 40
0.000000
 41
0.000000
  0
VERTEX
  8
0
  6
CONTINUOUS
 10
4.172080
 20
3.945040
  0
VERTEX
  8
0
  6
CONTINUOUS
 10
4.920960
 20
3.940200
  0
VERTEX
  8
0
  6
CONTINUOUS
 10
4.920080
 20
3.939320
  0
VERTEX
  8
0
  6
CONTINUOUS
 10
4.171200
 20
3.944160
  0
VERTEX
  8
0
  6
CONTINUOUS
 10
4.172080
 20
3.945040
  0
SEQEND
  8
0
  0
SOLID
  8
0
 62
    15
 10
4.342360
 20
3.909400
 11
5.091240
 21
3.904560
 12
4.417160
 22
3.868920
 13
5.166040
 23
3.864080
  0
POLYLINE
  8
0
  6
CONTINUOUS
 66
     1
 40
0.000000
 41
0.000000
  0
VERTEX
  8
0
  6
CONTINUOUS
 10
4.342360
 20
3.909400
  0
VERTEX
  8
0
  6
CONTINUOUS
 10
5.091240
 20
3.904560
  0
VERTEX
  8
0
  6
CONTINUOUS
 10
5.166040
 20
3.864080
  0
VERTEX
  8
0
  6
CONTINUOUS
 10
4.417160
 20
3.868920
  0
VERTEX
  8
0
  6
CONTINUOUS
 10
4.342360
 20
3.909400
  0
SEQEND
  8
0
  0
SOLID
  8
0
 62
    15
 10
4.417160
 20
3.868920
 11
5.166040
 21
3.864080
 12
4.482280
 22
3.815240
 13
5.231160
 23
3.810400
  0
POLYLINE
  8
0
  6
CONTINUOUS
 66
     1
 40
0.000000
 41
0.000000
  0
VERTEX
  8
0
  6
CONTINUOUS
 10
4.417160
 20
3.868920
  0
VERTEX
  8
0
  6
CONTINUOUS
 10
5.166040
 20
3.864080
  0
VERTEX
  8
0
  6
CONTINUOUS
 10
5.231160
 20
3.810400
  0
VERTEX
  8
0
  6
CONTINUOUS
 10
4.482280
 20
3.815240
  0
VERTEX
  8
0
  6
CONTINUOUS
 10
4.417160
 20
3.868920
  0
SEQEND
  8
0
  0
SOLID
  8
0
 62
    15
 10
4.482280
 20
3.815240
 11
5.231160
 21
3.810400
 12
4.535960
 22
3.750120
 13
5.284840
 23
3.745280
  0
POLYLINE
  8
0
  6
CONTINUOUS
 66
     1
 40
0.000000
 41
0.000000
  0
VERTEX
  8
0
  6
CONTINUOUS
 10
4.482280
 20
3.815240
  0
VERTEX
  8
0
  6
CONTINUOUS
 10
5.231160
 20
3.810400
  0
VERTEX
  8
0
  6
CONTINUOUS
 10
5.284840
 20
3.745280
  0
VERTEX
  8
0
  6
CONTINUOUS
 10
4.535960
 20
3.750120
  0
VERTEX
  8
0
  6
CONTINUOUS
 10
4.482280
 20
3.815240
  0
SEQEND
  8
0
  0
SOLID
  8
0
 62
    15
 10
4.535960
 20
3.750120
 11
5.284840
 21
3.745280
 12
4.576440
 22
3.675320
 13
5.325320
 23
3.670480
  0
POLYLINE
  8
0
  6
CONTINUOUS
 66
     1
 40
0.000000
 41
0.000000
  0
VERTEX
  8
0
  6
CONTINUOUS
 10
4.535960
 20
3.750120
  0
VERTEX
  8
0
  6
CONTINUOUS
 10
5.284840
 20
3.745280
  0
VERTEX
  8
0
  6
CONTINUOUS
 10
5.325320
 20
3.670480
  0
VERTEX
  8
0
  6
CONTINUOUS
 10
4.576440
 20
3.675320
  0
VERTEX
  8
0
  6
CONTINUOUS
 10
4.535960
 20
3.750120
  0
SEQEND
  8
0
  0
SOLID
  8
0
 62
    15
 10
4.576440
 20
3.675320
 11
5.325320
 21
3.670480
 12
4.601960
 22
3.592600
 13
5.351280
 23
3.588200
  0
POLYLINE
  8
0
  6
CONTINUOUS
 66
     1
 40
0.000000
 41
0.000000
  0
VERTEX
  8
0
  6
CONTINUOUS
 10
4.576440
 20
3.675320
  0
VERTEX
  8
0
  6
CONTINUOUS
 10
5.325320
 20
3.670480
  0
VERTEX
  8
0
  6
CONTINUOUS
 10
5.351280
 20
3.588200
  0
VERTEX
  8
0
  6
CONTINUOUS
 10
4.601960
 20
3.592600
  0
VERTEX
  8
0
  6
CONTINUOUS
 10
4.576440
 20
3.675320
  0
SEQEND
  8
0
  0
SOLID
  8
0
 62
    15
 10
4.601960
 20
3.592600
 11
5.351280
 21
3.588200
 12
4.611200
 22
3.504160
 13
5.360080
 23
3.499320
  0
POLYLINE
  8
0
  6
CONTINUOUS
 66
     1
 40
0.000000
 41
0.000000
  0
VERTEX
  8
0
  6
CONTINUOUS
 10
4.601960
 20
3.592600
  0
VERTEX
  8
0
  6
CONTINUOUS
 10
5.351280
 20
3.588200
  0
VERTEX
  8
0
  6
CONTINUOUS
 10
5.360080
 20
3.499320
  0
VERTEX
  8
0
  6
CONTINUOUS
 10
4.611200
 20
3.504160
  0
VERTEX
  8
0
  6
CONTINUOUS
 10
4.601960
 20
3.592600
  0
SEQEND
  8
0
  0
SOLID
  8
0
 62
    15
 10
4.611200
 20
3.504160
 11
5.360080
 21
3.499320
 12
4.601960
 22
3.415280
 13
5.351280
 23
3.410880
  0
POLYLINE
  8
0
  6
CONTINUOUS
 66
     1
 40
0.000000
 41
0.000000
  0
VERTEX
  8
0
  6
CONTINUOUS
 10
4.611200
 20
3.504160
  0
VERTEX
  8
0
  6
CONTINUOUS
 10
5.360080
 20
3.499320
  0
VERTEX
  8
0
  6
CONTINUOUS
 10
5.351280
 20
3.410880
  0
VERTEX
  8
0
  6
CONTINUOUS
 10
4.601960
 20
3.415280
  0
VERTEX
  8
0
  6
CONTINUOUS
 10
4.611200
 20
3.504160
  0
SEQEND
  8
0
  0
SOLID
  8
0
 62
    15
 10
4.601960
 20
3.415280
 11
5.351280
 21
3.410880
 12
4.576440
 22
3.333000
 13
5.325320
 23
3.328160
  0
POLYLINE
  8
0
  6
CONTINUOUS
 66
     1
 40
0.000000
 41
0.000000
  0
VERTEX
  8
0
  6
CONTINUOUS
 10
4.601960
 20
3.415280
  0
VERTEX
  8
0
  6
CONTINUOUS
 10
5.351280
 20
3.410880
  0
VERTEX
  8
0
  6
CONTINUOUS
 10
5.325320
 20
3.328160
  0
VERTEX
  8
0
  6
CONTINUOUS
 10
4.576440
 20
3.333000
  0
VERTEX
  8
0
  6
CONTINUOUS
 10
4.601960
 20
3.415280
  0
SEQEND
  8
0
  0
SOLID
  8
0
 62
    15
 10
4.576440
 20
3.333000
 11
5.325320
 21
3.328160
 12
4.535960
 22
3.258200
 13
5.284840
 23
3.253360
  0
POLYLINE
  8
0
  6
CONTINUOUS
 66
     1
 40
0.000000
 41
0.000000
  0
VERTEX
  8
0
  6
CONTINUOUS
 10
4.576440
 20
3.333000
  0
VERTEX
  8
0
  6
CONTINUOUS
 10
5.325320
 20
3.328160
  0
VERTEX
  8
0
  6
CONTINUOUS
 10
5.284840
 20
3.253360
  0
VERTEX
  8
0
  6
CONTINUOUS
 10
4.535960
 20
3.258200
  0
VERTEX
  8
0
  6
CONTINUOUS
 10
4.576440
 20
3.333000
  0
SEQEND
  8
0
  0
SOLID
  8
0
 62
    15
 10
4.535960
 20
3.258200
 11
5.284840
 21
3.253360
 12
4.482280
 22
3.193080
 13
5.231160
 23
3.188240
  0
POLYLINE
  8
0
  6
CONTINUOUS
 66
     1
 40
0.000000
 41
0.000000
  0
VERTEX
  8
0
  6
CONTINUOUS
 10
4.535960
 20
3.258200
  0
VERTEX
  8
0
  6
CONTINUOUS
 10
5.284840
 20
3.253360
  0
VERTEX
  8
0
  6
CONTINUOUS
 10
5.231160
 20
3.188240
  0
VERTEX
  8
0
  6
CONTINUOUS
 10
4.482280
 20
3.193080
  0
VERTEX
  8
0
  6
CONTINUOUS
 10
4.535960
 20
3.258200
  0
SEQEND
  8
0
  0
SOLID
  8
0
 62
    15
 10
4.482280
 20
3.193080
 11
5.231160
 21
3.188240
 12
4.417160
 22
3.139400
 13
5.166040
 23
3.134560
  0
POLYLINE
  8
0
  6
CONTINUOUS
 66
     1
 40
0.000000
 41
0.000000
  0
VERTEX
  8
0
  6
CONTINUOUS
 10
4.482280
 20
3.193080
  0
VERTEX
  8
0
  6
CONTINUOUS
 10
5.231160
 20
3.188240
  0
VERTEX
  8
0
  6
CONTINUOUS
 10
5.166040
 20
3.134560
  0
VERTEX
  8
0
  6
CONTINUOUS
 10
4.417160
 20
3.139400
  0
VERTEX
  8
0
  6
CONTINUOUS
 10
4.482280
 20
3.193080
  0
SEQEND
  8
0
  0
SOLID
  8
0
 62
    15
 10
4.417160
 20
3.139400
 11
5.166040
 21
3.134560
 12
4.342360
 22
3.098920
 13
5.091240
 23
3.094080
  0
POLYLINE
  8
0
  6
CONTINUOUS
 66
     1
 40
0.000000
 41
0.000000
  0
VERTEX
  8
0
  6
CONTINUOUS
 10
4.417160
 20
3.139400
  0
VERTEX
  8
0
  6
CONTINUOUS
 10
5.166040
 20
3.134560
  0
VERTEX
  8
0
  6
CONTINUOUS
 10
5.091240
 20
3.094080
  0
VERTEX
  8
0
  6
CONTINUOUS
 10
4.342360
 20
3.098920
  0
VERTEX
  8
0
  6
CONTINUOUS
 10
4.417160
 20
3.139400
  0
SEQEND
  8
0
  0
SOLID
  8
0
 62
    15
 10
4.342360
 20
3.098920
 11
5.091240
 21
3.094080
 12
4.260080
 22
3.073400
 13
5.008960
 23
3.068560
  0
POLYLINE
  8
0
  6
CONTINUOUS
 66
     1
 40
0.000000
 41
0.000000
  0
VERTEX
  8
0
  6
CONTINUOUS
 10
4.342360
 20
3.098920
  0
VERTEX
  8
0
  6
CONTINUOUS
 10
5.091240
 20
3.094080
  0
VERTEX
  8
0
  6
CONTINUOUS
 10
5.008960
 20
3.068560
  0
VERTEX
  8
0
  6
CONTINUOUS
 10
4.260080
 20
3.073400
  0
VERTEX
  8
0
  6
CONTINUOUS
 10
4.342360
 20
3.098920
  0
SEQEND
  8
0
  0
SOLID
  8
0
 62
    15
 10
4.260080
 20
3.073400
 11
5.008960
 21
3.068560
 12
4.171200
 22
3.064160
 13
4.920080
 23
3.059760
  0
POLYLINE
  8
0
  6
CONTINUOUS
 66
     1
 40
0.000000
 41
0.000000
  0
VERTEX
  8
0
  6
CONTINUOUS
 10
4.260080
 20
3.073400
  0
VERTEX
  8
0
  6
CONTINUOUS
 10
5.008960
 20
3.068560
  0
VERTEX
  8
0
  6
CONTINUOUS
 10
4.920080
 20
3.059760
  0
VERTEX
  8
0
  6
CONTINUOUS
 10
4.171200
 20
3.064160
  0
VERTEX
  8
0
  6
CONTINUOUS
 10
4.260080
 20
3.073400
  0
SEQEND
  8
0
  0
SOLID
  8
0
 62
    15
 10
4.171200
 20
3.064160
 11
4.920080
 21
3.059760
 12
4.171200
 22
2.864840
 13
4.920080
 23
2.860440
  0
POLYLINE
  8
0
  6
CONTINUOUS
 66
     1
 40
0.000000
 41
0.000000
  0
VERTEX
  8
0
  6
CONTINUOUS
 10
4.171200
 20
3.064160
  0
VERTEX
  8
0
  6
CONTINUOUS
 10
4.920080
 20
3.059760
  0
VERTEX
  8
0
  6
CONTINUOUS
 10
4.920080
 20
2.860440
  0
VERTEX
  8
0
  6
CONTINUOUS
 10
4.171200
 20
2.864840
  0
VERTEX
  8
0
  6
CONTINUOUS
 10
4.171200
 20
3.064160
  0
SEQEND
  8
0
  0
SOLID
  8
0
 62
    15
 10
4.171200
 20
2.864840
 11
4.920080
 21
2.860440
 12
4.109600
 22
2.864840
 13
4.858480
 23
2.860440
  0
POLYLINE
  8
0
  6
CONTINUOUS
 66
     1
 40
0.000000
 41
0.000000
  0
VERTEX
  8
0
  6
CONTINUOUS
 10
4.171200
 20
2.864840
  0
VERTEX
  8
0
  6
CONTINUOUS
 10
4.920080
 20
2.860440
  0
VERTEX
  8
0
  6
CONTINUOUS
 10
4.858480
 20
2.860440
  0
VERTEX
  8
0
  6
CONTINUOUS
 10
4.109600
 20
2.864840
  0
VERTEX
  8
0
  6
CONTINUOUS
 10
4.171200
 20
2.864840
  0
SEQEND
  8
0
  0
SOLID
  8
0
 62
    15
 10
4.109600
 20
2.864840
 11
4.858480
 21
2.860440
 12
4.115760
 22
2.737680
 13
4.865080
 23
2.732840
  0
POLYLINE
  8
0
  6
CONTINUOUS
 66
     1
 40
0.000000
 41
0.000000
  0
VERTEX
  8
0
  6
CONTINUOUS
 10
4.109600
 20
2.864840
  0
VERTEX
  8
0
  6
CONTINUOUS
 10
4.858480
 20
2.860440
  0
VERTEX
  8
0
  6
CONTINUOUS
 10
4.865080
 20
2.732840
  0
VERTEX
  8
0
  6
CONTINUOUS
 10
4.115760
 20
2.737680
  0
VERTEX
  8
0
  6
CONTINUOUS
 10
4.109600
 20
2.864840
  0
SEQEND
  8
0
  0
SOLID
  8
0
 62
    15
 10
4.115760
 20
2.737680
 11
4.865080
 21
2.732840
 12
4.106520
 22
2.625480
 13
4.855400
 23
2.621080
  0
POLYLINE
  8
0
  6
CONTINUOUS
 66
     1
 40
0.000000
 41
0.000000
  0
VERTEX
  8
0
  6
CONTINUOUS
 10
4.115760
 20
2.737680
  0
VERTEX
  8
0
  6
CONTINUOUS
 10
4.865080
 20
2.732840
  0
VERTEX
  8
0
  6
CONTINUOUS
 10
4.855400
 20
2.621080
  0
VERTEX
  8
0
  6
CONTINUOUS
 10
4.106520
 20
2.625480
  0
VERTEX
  8
0
  6
CONTINUOUS
 10
4.115760
 20
2.737680
  0
SEQEND
  8
0
  0
SOLID
  8
0
 62
    15
 10
4.106520
 20
2.625480
 11
4.855400
 21
2.621080
 12
4.082320
 22
2.527360
 13
4.831200
 23
2.522960
  0
POLYLINE
  8
0
  6
CONTINUOUS
 66
     1
 40
0.000000
 41
0.000000
  0
VERTEX
  8
0
  6
CONTINUOUS
 10
4.106520
 20
2.625480
  0
VERTEX
  8
0
  6
CONTINUOUS
 10
4.855400
 20
2.621080
  0
VERTEX
  8
0
  6
CONTINUOUS
 10
4.831200
 20
2.522960
  0
VERTEX
  8
0
  6
CONTINUOUS
 10
4.082320
 20
2.527360
  0
VERTEX
  8
0
  6
CONTINUOUS
 10
4.106520
 20
2.625480
  0
SEQEND
  8
0
  0
SOLID
  8
0
 62
    15
 10
4.082320
 20
2.527360
 11
4.831200
 21
2.522960
 12
4.043600
 22
2.441120
 13
4.792920
 23
2.436720
  0
POLYLINE
  8
0
  6
CONTINUOUS
 66
     1
 40
0.000000
 41
0.000000
  0
VERTEX
  8
0
  6
CONTINUOUS
 10
4.082320
 20
2.527360
  0
VERTEX
  8
0
  6
CONTINUOUS
 10
4.831200
 20
2.522960
  0
VERTEX
  8
0
  6
CONTINUOUS
 10
4.792920
 20
2.436720
  0
VERTEX
  8
0
  6
CONTINUOUS
 10
4.043600
 20
2.441120
  0
VERTEX
  8
0
  6
CONTINUOUS
 10
4.082320
 20
2.527360
  0
SEQEND
  8
0
  0
SOLID
  8
0
 62
    15
 10
4.043600
 20
2.441120
 11
4.792920
 21
2.436720
 12
3.992120
 22
2.365440
 13
4.741440
 23
2.360600
  0
POLYLINE
  8
0
  6
CONTINUOUS
 66
     1
 40
0.000000
 41
0.000000
  0
VERTEX
  8
0
  6
CONTINUOUS
 10
4.043600
 20
2.441120
  0
VERTEX
  8
0
  6
CONTINUOUS
 10
4.792920
 20
2.436720
  0
VERTEX
  8
0
  6
CONTINUOUS
 10
4.741440
 20
2.360600
  0
VERTEX
  8
0
  6
CONTINUOUS
 10
3.992120
 20
2.365440
  0
VERTEX
  8
0
  6
CONTINUOUS
 10
4.043600
 20
2.441120
  0
SEQEND
  8
0
  0
SOLID
  8
0
 62
    15
 10
3.992120
 20
2.365440
 11
4.741440
 21
2.360600
 12
3.928760
 22
2.297680
 13
4.677640
 23
2.292840
  0
POLYLINE
  8
0
  6
CONTINUOUS
 66
     1
 40
0.000000
 41
0.000000
  0
VERTEX
  8
0
  6
CONTINUOUS
 10
3.992120
 20
2.365440
  0
VERTEX
  8
0
  6
CONTINUOUS
 10
4.741440
 20
2.360600
  0
VERTEX
  8
0
  6
CONTINUOUS
 10
4.677640
 20
2.292840
  0
VERTEX
  8
0
  6
CONTINUOUS
 10
3.928760
 20
2.297680
  0
VERTEX
  8
0
  6
CONTINUOUS
 10
3.992120
 20
2.365440
  0
SEQEND
  8
0
  0
SOLID
  8
0
 62
    15
 10
3.928760
 20
2.297680
 11
4.677640
 21
2.292840
 12
3.853520
 22
2.236520
 13
4.602400
 23
2.231680
  0
POLYLINE
  8
0
  6
CONTINUOUS
 66
     1
 40
0.000000
 41
0.000000
  0
VERTEX
  8
0
  6
CONTINUOUS
 10
3.928760
 20
2.297680
  0
VERTEX
  8
0
  6
CONTINUOUS
 10
4.677640
 20
2.292840
  0
VERTEX
  8
0
  6
CONTINUOUS
 10
4.602400
 20
2.231680
  0
VERTEX
  8
0
  6
CONTINUOUS
 10
3.853520
 20
2.236520
  0
VERTEX
  8
0
  6
CONTINUOUS
 10
3.928760
 20
2.297680
  0
SEQEND
  8
0
  0
SOLID
  8
0
 62
    15
 10
3.853520
 20
2.236520
 11
4.602400
 21
2.231680
 12
3.767280
 22
2.179760
 13
4.516600
 23
2.174920
  0
POLYLINE
  8
0
  6
CONTINUOUS
 66
     1
 40
0.000000
 41
0.000000
  0
VERTEX
  8
0
  6
CONTINUOUS
 10
3.853520
 20
2.236520
  0
VERTEX
  8
0
  6
CONTINUOUS
 10
4.602400
 20
2.231680
  0
VERTEX
  8
0
  6
CONTINUOUS
 10
4.516600
 20
2.174920
  0
VERTEX
  8
0
  6
CONTINUOUS
 10
3.767280
 20
2.179760
  0
VERTEX
  8
0
  6
CONTINUOUS
 10
3.853520
 20
2.236520
  0
SEQEND
  8
0
  0
SOLID
  8
0
 62
    15
 10
3.767280
 20
2.179760
 11
4.516600
 21
2.174920
 12
3.724600
 22
2.149840
 13
4.473480
 23
2.145440
  0
POLYLINE
  8
0
  6
CONTINUOUS
 66
     1
 40
0.000000
 41
0.000000
  0
VERTEX
  8
0
  6
CONTINUOUS
 10
3.767280
 20
2.179760
  0
VERTEX
  8
0
  6
CONTINUOUS
 10
4.516600
 20
2.174920
  0
VERTEX
  8
0
  6
CONTINUOUS
 10
4.473480
 20
2.145440
  0
VERTEX
  8
0
  6
CONTINUOUS
 10
3.724600
 20
2.149840
  0
VERTEX
  8
0
  6
CONTINUOUS
 10
3.767280
 20
2.179760
  0
SEQEND
  8
0
  0
SOLID
  8
0
 62
    15
 10
3.724600
 20
2.149840
 11
4.473480
 21
2.145440
 12
3.686760
 22
2.115960
 13
4.435640
 23
2.111120
  0
POLYLINE
  8
0
  6
CONTINUOUS
 66
     1
 40
0.000000
 41
0.000000
  0
VERTEX
  8
0
  6
CONTINUOUS
 10
3.724600
 20
2.149840
  0
VERTEX
  8
0
  6
CONTINUOUS
 10
4.473480
 20
2.145440
  0
VERTEX
  8
0
  6
CONTINUOUS
 10
4.435640
 20
2.111120
  0
VERTEX
  8
0
  6
CONTINUOUS
 10
3.686760
 20
2.115960
  0
VERTEX
  8
0
  6
CONTINUOUS
 10
3.724600
 20
2.149840
  0
SEQEND
  8
0
  0
SOLID
  8
0
 62
    15
 10
3.686760
 20
2.115960
 11
4.435640
 21
2.111120
 12
3.653760
 22
2.078560
 13
4.403080
 23
2.073720
  0
POLYLINE
  8
0
  6
CONTINUOUS
 66
     1
 40
0.000000
 41
0.000000
  0
VERTEX
  8
0
  6
CONTINUOUS
 10
3.686760
 20
2.115960
  0
VERTEX
  8
0
  6
CONTINUOUS
 10
4.435640
 20
2.111120
  0
VERTEX
  8
0
  6
CONTINUOUS
 10
4.403080
 20
2.073720
  0
VERTEX
  8
0
  6
CONTINUOUS
 10
3.653760
 20
2.078560
  0
VERTEX
  8
0
  6
CONTINUOUS
 10
3.686760
 20
2.115960
  0
SEQEND
  8
0
  0
SOLID
  8
0
 62
    15
 10
3.653760
 20
2.078560
 11
4.403080
 21
2.073720
 12
3.626920
 22
2.038520
 13
4.375800
 23
2.033680
  0
POLYLINE
  8
0
  6
CONTINUOUS
 66
     1
 40
0.000000
 41
0.000000
  0
VERTEX
  8
0
  6
CONTINUOUS
 10
3.653760
 20
2.078560
  0
VERTEX
  8
0
  6
CONTINUOUS
 10
4.403080
 20
2.073720
  0
VERTEX
  8
0
  6
CONTINUOUS
 10
4.375800
 20
2.033680
  0
VERTEX
  8
0
  6
CONTINUOUS
 10
3.626920
 20
2.038520
  0
VERTEX
  8
0
  6
CONTINUOUS
 10
3.653760
 20
2.078560
  0
SEQEND
  8
0
  0
SOLID
  8
0
 62
    15
 10
4.171200
 20
3.944160
 11
4.920080
 21
3.939320
 12
4.259640
 22
3.934920
 13
5.008960
 23
3.930520
  0
POLYLINE
  8
0
  6
CONTINUOUS
 66
     1
 40
0.000000
 41
0.000000
  0
VERTEX
  8
0
  6
CONTINUOUS
 10
4.171200
 20
3.944160
  0
VERTEX
  8
0
  6
CONTINUOUS
 10
4.920080
 20
3.939320
  0
VERTEX
  8
0
  6
CONTINUOUS
 10
5.008960
 20
3.930520
  0
VERTEX
  8
0
  6
CONTINUOUS
 10
4.259640
 20
3.934920
  0
VERTEX
  8
0
  6
CONTINUOUS
 10
4.171200
 20
3.944160
  0
SEQEND
  8
0
  0
SOLID
  8
0
 62
    15
 10
3.605800
 20
1.996720
 11
4.354680
 21
1.991880
 12
3.590840
 22
1.954040
 13
4.339720
 23
1.949640
  0
POLYLINE
  8
0
  6
CONTINUOUS
 66
     1
 40
0.000000
 41
0.000000
  0
VERTEX
  8
0
  6
CONTINUOUS
 10
3.605800
 20
1.996720
  0
VERTEX
  8
0
  6
CONTINUOUS
 10
4.354680
 20
1.991880
  0
VERTEX
  8
0
  6
CONTINUOUS
 10
4.339720
 20
1.949640
  0
VERTEX
  8
0
  6
CONTINUOUS
 10
3.590840
 20
1.954040
  0
VERTEX
  8
0
  6
CONTINUOUS
 10
3.605800
 20
1.996720
  0
SEQEND
  8
0
  0
SOLID
  8
0
 62
    15
 10
3.590840
 20
1.954040
 11
4.339720
 21
1.949640
 12
3.582040
 22
1.911800
 13
4.330920
 23
1.906960
  0
POLYLINE
  8
0
  6
CONTINUOUS
 66
     1
 40
0.000000
 41
0.000000
  0
VERTEX
  8
0
  6
CONTINUOUS
 10
3.590840
 20
1.954040
  0
VERTEX
  8
0
  6
CONTINUOUS
 10
4.339720
 20
1.949640
  0
VERTEX
  8
0
  6
CONTINUOUS
 10
4.330920
 20
1.906960
  0
VERTEX
  8
0
  6
CONTINUOUS
 10
3.582040
 20
1.911800
  0
VERTEX
  8
0
  6
CONTINUOUS
 10
3.590840
 20
1.954040
  0
SEQEND
  8
0
  0
SOLID
  8
0
 62
    15
 10
3.582040
 20
1.911800
 11
4.330920
 21
1.906960
 12
3.579840
 22
1.870440
 13
4.329160
 23
1.865600
  0
POLYLINE
  8
0
  6
CONTINUOUS
 66
     1
 40
0.000000
 41
0.000000
  0
VERTEX
  8
0
  6
CONTINUOUS
 10
3.582040
 20
1.911800
  0
VERTEX
  8
0
  6
CONTINUOUS
 10
4.330920
 20
1.906960
  0
VERTEX
  8
0
  6
CONTINUOUS
 10
4.329160
 20
1.865600
  0
VERTEX
  8
0
  6
CONTINUOUS
 10
3.579840
 20
1.870440
  0
VERTEX
  8
0
  6
CONTINUOUS
 10
3.582040
 20
1.911800
  0
SEQEND
  8
0
  0
SOLID
  8
0
 62
    15
 10
3.579840
 20
1.870440
 11
4.329160
 21
1.865600
 12
3.585120
 22
1.830400
 13
4.334000
 23
1.826000
  0
POLYLINE
  8
0
  6
CONTINUOUS
 66
     1
 40
0.000000
 41
0.000000
  0
VERTEX
  8
0
  6
CONTINUOUS
 10
3.579840
 20
1.870440
  0
VERTEX
  8
0
  6
CONTINUOUS
 10
4.329160
 20
1.865600
  0
VERTEX
  8
0
  6
CONTINUOUS
 10
4.334000
 20
1.826000
  0
VERTEX
  8
0
  6
CONTINUOUS
 10
3.585120
 20
1.830400
  0
VERTEX
  8
0
  6
CONTINUOUS
 10
3.579840
 20
1.870440
  0
SEQEND
  8
0
  0
SOLID
  8
0
 62
    15
 10
3.585120
 20
1.830400
 11
4.334000
 21
1.826000
 12
3.597000
 22
1.793440
 13
4.346320
 23
1.789040
  0
POLYLINE
  8
0
  6
CONTINUOUS
 66
     1
 40
0.000000
 41
0.000000
  0
VERTEX
  8
0
  6
CONTINUOUS
 10
3.585120
 20
1.830400
  0
VERTEX
  8
0
  6
CONTINUOUS
 10
4.334000
 20
1.826000
  0
VERTEX
  8
0
  6
CONTINUOUS
 10
4.346320
 20
1.789040
  0
VERTEX
  8
0
  6
CONTINUOUS
 10
3.597000
 20
1.793440
  0
VERTEX
  8
0
  6
CONTINUOUS
 10
3.585120
 20
1.830400
  0
SEQEND
  8
0
  0
SOLID
  8
0
 62
    15
 10
3.597000
 20
1.793440
 11
4.346320
 21
1.789040
 12
3.616800
 22
1.760000
 13
4.365680
 23
1.755160
  0
POLYLINE
  8
0
  6
CONTINUOUS
 66
     1
 40
0.000000
 41
0.000000
  0
VERTEX
  8
0
  6
CONTINUOUS
 10
3.597000
 20
1.793440
  0
VERTEX
  8
0
  6
CONTINUOUS
 10
4.346320
 20
1.789040
  0
VERTEX
  8
0
  6
CONTINUOUS
 10
4.365680
 20
1.755160
  0
VERTEX
  8
0
  6
CONTINUOUS
 10
3.616800
 20
1.760000
  0
VERTEX
  8
0
  6
CONTINUOUS
 10
3.597000
 20
1.793440
  0
SEQEND
  8
0
  0
SOLID
  8
0
 62
    15
 10
3.616800
 20
1.760000
 11
4.365680
 21
1.755160
 12
3.644080
 22
1.730960
 13
4.393400
 23
1.726120
  0
POLYLINE
  8
0
  6
CONTINUOUS
 66
     1
 40
0.000000
 41
0.000000
  0
VERTEX
  8
0
  6
CONTINUOUS
 10
3.616800
 20
1.760000
  0
VERTEX
  8
0
  6
CONTINUOUS
 10
4.365680
 20
1.755160
  0
VERTEX
  8
0
  6
CONTINUOUS
 10
4.393400
 20
1.726120
  0
VERTEX
  8
0
  6
CONTINUOUS
 10
3.644080
 20
1.730960
  0
VERTEX
  8
0
  6
CONTINUOUS
 10
3.616800
 20
1.760000
  0
SEQEND
  8
0
  0
SOLID
  8
0
 62
    15
 10
3.644080
 20
1.730960
 11
4.393400
 21
1.726120
 12
3.679720
 22
1.707200
 13
4.428600
 23
1.702360
  0
POLYLINE
  8
0
  6
CONTINUOUS
 66
     1
 40
0.000000
 41
0.000000
  0
VERTEX
  8
0
  6
CONTINUOUS
 10
3.644080
 20
1.730960
  0
VERTEX
  8
0
  6
CONTINUOUS
 10
4.393400
 20
1.726120
  0
VERTEX
  8
0
  6
CONTINUOUS
 10
4.428600
 20
1.702360
  0
VERTEX
  8
0
  6
CONTINUOUS
 10
3.679720
 20
1.707200
  0
VERTEX
  8
0
  6
CONTINUOUS
 10
3.644080
 20
1.730960
  0
SEQEND
  8
0
  0
SOLID
  8
0
 62
    15
 10
3.679720
 20
1.707200
 11
4.428600
 21
1.702360
 12
3.723280
 22
1.689600
 13
4.472160
 23
1.684760
  0
POLYLINE
  8
0
  6
CONTINUOUS
 66
     1
 40
0.000000
 41
0.000000
  0
VERTEX
  8
0
  6
CONTINUOUS
 10
3.679720
 20
1.707200
  0
VERTEX
  8
0
  6
CONTINUOUS
 10
4.428600
 20
1.702360
  0
VERTEX
  8
0
  6
CONTINUOUS
 10
4.472160
 20
1.684760
  0
VERTEX
  8
0
  6
CONTINUOUS
 10
3.723280
 20
1.689600
  0
VERTEX
  8
0
  6
CONTINUOUS
 10
3.679720
 20
1.707200
  0
SEQEND
  8
0
  0
SOLID
  8
0
 62
    15
 10
3.723280
 20
1.689600
 11
4.472160
 21
1.684760
 12
3.775640
 22
1.679040
 13
4.524520
 23
1.674200
  0
POLYLINE
  8
0
  6
CONTINUOUS
 66
     1
 40
0.000000
 41
0.000000
  0
VERTEX
  8
0
  6
CONTINUOUS
 10
3.723280
 20
1.689600
  0
VERTEX
  8
0
  6
CONTINUOUS
 10
4.472160
 20
1.684760
  0
VERTEX
  8
0
  6
CONTINUOUS
 10
4.524520
 20
1.674200
  0
VERTEX
  8
0
  6
CONTINUOUS
 10
3.775640
 20
1.679040
  0
VERTEX
  8
0
  6
CONTINUOUS
 10
3.723280
 20
1.689600
  0
SEQEND
  8
0
  0
SOLID
  8
0
 62
    15
 10
3.775640
 20
1.679040
 11
4.524520
 21
1.674200
 12
3.836800
 22
1.675960
 13
4.585680
 23
1.671560
  0
POLYLINE
  8
0
  6
CONTINUOUS
 66
     1
 40
0.000000
 41
0.000000
  0
VERTEX
  8
0
  6
CONTINUOUS
 10
3.775640
 20
1.679040
  0
VERTEX
  8
0
  6
CONTINUOUS
 10
4.524520
 20
1.674200
  0
VERTEX
  8
0
  6
CONTINUOUS
 10
4.585680
 20
1.671560
  0
VERTEX
  8
0
  6
CONTINUOUS
 10
3.836800
 20
1.675960
  0
VERTEX
  8
0
  6
CONTINUOUS
 10
3.775640
 20
1.679040
  0
SEQEND
  8
0
  0
SOLID
  8
0
 62
    15
 10
3.836800
 20
1.675960
 11
4.585680
 21
1.671560
 12
3.836800
 22
1.594560
 13
4.585680
 23
1.589720
  0
POLYLINE
  8
0
  6
CONTINUOUS
 66
     1
 40
0.000000
 41
0.000000
  0
VERTEX
  8
0
  6
CONTINUOUS
 10
3.836800
 20
1.675960
  0
VERTEX
  8
0
  6
CONTINUOUS
 10
4.585680
 20
1.671560
  0
VERTEX
  8
0
  6
CONTINUOUS
 10
4.585680
 20
1.589720
  0
VERTEX
  8
0
  6
CONTINUOUS
 10
3.836800
 20
1.594560
  0
VERTEX
  8
0
  6
CONTINUOUS
 10
3.836800
 20
1.675960
  0
SEQEND
  8
0
  0
SOLID
  8
0
 62
    15
 10
3.836800
 20
1.594560
 11
4.585680
 21
1.589720
 12
3.874200
 22
1.584000
 13
4.623520
 23
1.579160
  0
POLYLINE
  8
0
  6
CONTINUOUS
 66
     1
 40
0.000000
 41
0.000000
  0
VERTEX
  8
0
  6
CONTINUOUS
 10
3.836800
 20
1.594560
  0
VERTEX
  8
0
  6
CONTINUOUS
 10
4.585680
 20
1.589720
  0
VERTEX
  8
0
  6
CONTINUOUS
 10
4.623520
 20
1.579160
  0
VERTEX
  8
0
  6
CONTINUOUS
 10
3.874200
 20
1.584000
  0
VERTEX
  8
0
  6
CONTINUOUS
 10
3.836800
 20
1.594560
  0
SEQEND
  8
0
  0
SOLID
  8
0
 62
    15
 10
3.874200
 20
1.584000
 11
4.623520
 21
1.579160
 12
3.908080
 22
1.566840
 13
4.656960
 23
1.562000
  0
POLYLINE
  8
0
  6
CONTINUOUS
 66
     1
 40
0.000000
 41
0.000000
  0
VERTEX
  8
0
  6
CONTINUOUS
 10
3.874200
 20
1.584000
  0
VERTEX
  8
0
  6
CONTINUOUS
 10
4.623520
 20
1.579160
  0
VERTEX
  8
0
  6
CONTINUOUS
 10
4.656960
 20
1.562000
  0
VERTEX
  8
0
  6
CONTINUOUS
 10
3.908080
 20
1.566840
  0
VERTEX
  8
0
  6
CONTINUOUS
 10
3.874200
 20
1.584000
  0
SEQEND
  8
0
  0
SOLID
  8
0
 62
    15
 10
3.908080
 20
1.566840
 11
4.656960
 21
1.562000
 12
3.937120
 22
1.544400
 13
4.686440
 23
1.539560
  0
POLYLINE
  8
0
  6
CONTINUOUS
 66
     1
 40
0.000000
 41
0.000000
  0
VERTEX
  8
0
  6
CONTINUOUS
 10
3.908080
 20
1.566840
  0
VERTEX
  8
0
  6
CONTINUOUS
 10
4.656960
 20
1.562000
  0
VERTEX
  8
0
  6
CONTINUOUS
 10
4.686440
 20
1.539560
  0
VERTEX
  8
0
  6
CONTINUOUS
 10
3.937120
 20
1.544400
  0
VERTEX
  8
0
  6
CONTINUOUS
 10
3.908080
 20
1.566840
  0
SEQEND
  8
0
  0
SOLID
  8
0
 62
    15
 10
3.937120
 20
1.544400
 11
4.686440
 21
1.539560
 12
3.962200
 22
1.517120
 13
4.711080
 23
1.512720
  0
POLYLINE
  8
0
  6
CONTINUOUS
 66
     1
 40
0.000000
 41
0.000000
  0
VERTEX
  8
0
  6
CONTINUOUS
 10
3.937120
 20
1.544400
  0
VERTEX
  8
0
  6
CONTINUOUS
 10
4.686440
 20
1.539560
  0
VERTEX
  8
0
  6
CONTINUOUS
 10
4.711080
 20
1.512720
  0
VERTEX
  8
0
  6
CONTINUOUS
 10
3.962200
 20
1.517120
  0
VERTEX
  8
0
  6
CONTINUOUS
 10
3.937120
 20
1.544400
  0
SEQEND
  8
0
  0
SOLID
  8
0
 62
    15
 10
3.962200
 20
1.517120
 11
4.711080
 21
1.512720
 12
3.982000
 22
1.486760
 13
4.730880
 23
1.482360
  0
POLYLINE
  8
0
  6
CONTINUOUS
 66
     1
 40
0.000000
 41
0.000000
  0
VERTEX
  8
0
  6
CONTINUOUS
 10
3.962200
 20
1.517120
  0
VERTEX
  8
0
  6
CONTINUOUS
 10
4.711080
 20
1.512720
  0
VERTEX
  8
0
  6
CONTINUOUS
 10
4.730880
 20
1.482360
  0
VERTEX
  8
0
  6
CONTINUOUS
 10
3.982000
 20
1.486760
  0
VERTEX
  8
0
  6
CONTINUOUS
 10
3.962200
 20
1.517120
  0
SEQEND
  8
0
  0
SOLID
  8
0
 62
    15
 10
3.982000
 20
1.486760
 11
4.730880
 21
1.482360
 12
3.996520
 22
1.453760
 13
4.745400
 23
1.448920
  0
POLYLINE
  8
0
  6
CONTINUOUS
 66
     1
 40
0.000000
 41
0.000000
  0
VERTEX
  8
0
  6
CONTINUOUS
 10
3.982000
 20
1.486760
  0
VERTEX
  8
0
  6
CONTINUOUS
 10
4.730880
 20
1.482360
  0
VERTEX
  8
0
  6
CONTINUOUS
 10
4.745400
 20
1.448920
  0
VERTEX
  8
0
  6
CONTINUOUS
 10
3.996520
 20
1.453760
  0
VERTEX
  8
0
  6
CONTINUOUS
 10
3.982000
 20
1.486760
  0
SEQEND
  8
0
  0
SOLID
  8
0
 62
    15
 10
3.996520
 20
1.453760
 11
4.745400
 21
1.448920
 12
4.009280
 22
1.383360
 13
4.758160
 23
1.378960
  0
POLYLINE
  8
0
  6
CONTINUOUS
 66
     1
 40
0.000000
 41
0.000000
  0
VERTEX
  8
0
  6
CONTINUOUS
 10
3.996520
 20
1.453760
  0
VERTEX
  8
0
  6
CONTINUOUS
 10
4.745400
 20
1.448920
  0
VERTEX
  8
0
  6
CONTINUOUS
 10
4.758160
 20
1.378960
  0
VERTEX
  8
0
  6
CONTINUOUS
 10
4.009280
 20
1.383360
  0
VERTEX
  8
0
  6
CONTINUOUS
 10
3.996520
 20
1.453760
  0
SEQEND
  8
0
  0
SOLID
  8
0
 62
    15
 10
4.009280
 20
1.383360
 11
4.758160
 21
1.378960
 12
4.006640
 22
1.348160
 13
4.755520
 23
1.343760
  0
POLYLINE
  8
0
  6
CONTINUOUS
 66
     1
 40
0.000000
 41
0.000000
  0
VERTEX
  8
0
  6
CONTINUOUS
 10
4.009280
 20
1.383360
  0
VERTEX
  8
0
  6
CONTINUOUS
 10
4.758160
 20
1.378960
  0
VERTEX
  8
0
  6
CONTINUOUS
 10
4.755520
 20
1.343760
  0
VERTEX
  8
0
  6
CONTINUOUS
 10
4.006640
 20
1.348160
  0
VERTEX
  8
0
  6
CONTINUOUS
 10
4.009280
 20
1.383360
  0
SEQEND
  8
0
  0
SOLID
  8
0
 62
    15
 10
4.006640
 20
1.348160
 11
4.755520
 21
1.343760
 12
3.997840
 22
1.314280
 13
4.746720
 23
1.309440
  0
POLYLINE
  8
0
  6
CONTINUOUS
 66
     1
 40
0.000000
 41
0.000000
  0
VERTEX
  8
0
  6
CONTINUOUS
 10
4.006640
 20
1.348160
  0
VERTEX
  8
0
  6
CONTINUOUS
 10
4.755520
 20
1.343760
  0
VERTEX
  8
0
  6
CONTINUOUS
 10
4.746720
 20
1.309440
  0
VERTEX
  8
0
  6
CONTINUOUS
 10
3.997840
 20
1.314280
  0
VERTEX
  8
0
  6
CONTINUOUS
 10
4.006640
 20
1.348160
  0
SEQEND
  8
0
  0
SOLID
  8
0
 62
    15
 10
3.997840
 20
1.314280
 11
4.746720
 21
1.309440
 12
3.982440
 22
1.282160
 13
4.731760
 23
1.277760
  0
POLYLINE
  8
0
  6
CONTINUOUS
 66
     1
 40
0.000000
 41
0.000000
  0
VERTEX
  8
0
  6
CONTINUOUS
 10
3.997840
 20
1.314280
  0
VERTEX
  8
0
  6
CONTINUOUS
 10
4.746720
 20
1.309440
  0
VERTEX
  8
0
  6
CONTINUOUS
 10
4.731760
 20
1.277760
  0
VERTEX
  8
0
  6
CONTINUOUS
 10
3.982440
 20
1.282160
  0
VERTEX
  8
0
  6
CONTINUOUS
 10
3.997840
 20
1.314280
  0
SEQEND
  8
0
  0
SOLID
  8
0
 62
    15
 10
3.982440
 20
1.282160
 11
4.731760
 21
1.277760
 12
3.960440
 22
1.253560
 13
4.709320
 23
1.248720
  0
POLYLINE
  8
0
  6
CONTINUOUS
 66
     1
 40
0.000000
 41
0.000000
  0
VERTEX
  8
0
  6
CONTINUOUS
 10
3.982440
 20
1.282160
  0
VERTEX
  8
0
  6
CONTINUOUS
 10
4.731760
 20
1.277760
  0
VERTEX
  8
0
  6
CONTINUOUS
 10
4.709320
 20
1.248720
  0
VERTEX
  8
0
  6
CONTINUOUS
 10
3.960440
 20
1.253560
  0
VERTEX
  8
0
  6
CONTINUOUS
 10
3.982440
 20
1.282160
  0
SEQEND
  8
0
  0
SOLID
  8
0
 62
    15
 10
3.960440
 20
1.253560
 11
4.709320
 21
1.248720
 12
3.931400
 22
1.228480
 13
4.680280
 23
1.223640
  0
POLYLINE
  8
0
  6
CONTINUOUS
 66
     1
 40
0.000000
 41
0.000000
  0
VERTEX
  8
0
  6
CONTINUOUS
 10
3.960440
 20
1.253560
  0
VERTEX
  8
0
  6
CONTINUOUS
 10
4.709320
 20
1.248720
  0
VERTEX
  8
0
  6
CONTINUOUS
 10
4.680280
 20
1.223640
  0
VERTEX
  8
0
  6
CONTINUOUS
 10
3.931400
 20
1.228480
  0
VERTEX
  8
0
  6
CONTINUOUS
 10
3.960440
 20
1.253560
  0
SEQEND
  8
0
  0
SOLID
  8
0
 62
    15
 10
3.931400
 20
1.228480
 11
4.680280
 21
1.223640
 12
3.894440
 22
1.208240
 13
4.643760
 23
1.203840
  0
POLYLINE
  8
0
  6
CONTINUOUS
 66
     1
 40
0.000000
 41
0.000000
  0
VERTEX
  8
0
  6
CONTINUOUS
 10
3.931400
 20
1.228480
  0
VERTEX
  8
0
  6
CONTINUOUS
 10
4.680280
 20
1.223640
  0
VERTEX
  8
0
  6
CONTINUOUS
 10
4.643760
 20
1.203840
  0
VERTEX
  8
0
  6
CONTINUOUS
 10
3.894440
 20
1.208240
  0
VERTEX
  8
0
  6
CONTINUOUS
 10
3.931400
 20
1.228480
  0
SEQEND
  8
0
  0
SOLID
  8
0
 62
    15
 10
3.850440
 20
1.194160
 11
4.599320
 21
1.189760
 12
3.798080
 22
1.187120
 13
4.547400
 23
1.182280
  0
POLYLINE
  8
0
  6
CONTINUOUS
 66
     1
 40
0.000000
 41
0.000000
  0
VERTEX
  8
0
  6
CONTINUOUS
 10
3.850440
 20
1.194160
  0
VERTEX
  8
0
  6
CONTINUOUS
 10
4.599320
 20
1.189760
  0
VERTEX
  8
0
  6
CONTINUOUS
 10
4.547400
 20
1.182280
  0
VERTEX
  8
0
  6
CONTINUOUS
 10
3.798080
 20
1.187120
  0
VERTEX
  8
0
  6
CONTINUOUS
 10
3.850440
 20
1.194160
  0
SEQEND
  8
0
  0
SOLID
  8
0
 62
    15
 10
3.894440
 20
1.208240
 11
4.643760
 21
1.203840
 12
3.850440
 22
1.194160
 13
4.599320
 23
1.189760
  0
POLYLINE
  8
0
  6
CONTINUOUS
 66
     1
 40
0.000000
 41
0.000000
  0
VERTEX
  8
0
  6
CONTINUOUS
 10
3.894440
 20
1.208240
  0
VERTEX
  8
0
  6
CONTINUOUS
 10
4.643760
 20
1.203840
  0
VERTEX
  8
0
  6
CONTINUOUS
 10
4.599320
 20
1.189760
  0
VERTEX
  8
0
  6
CONTINUOUS
 10
3.850440
 20
1.194160
  0
VERTEX
  8
0
  6
CONTINUOUS
 10
3.894440
 20
1.208240
  0
SEQEND
  8
0
  0
SOLID
  8
0
 62
    15
 10
3.798080
 20
1.187120
 11
4.547400
 21
1.182280
 12
3.367760
 22
1.187120
 13
4.116640
 23
1.182280
  0
POLYLINE
  8
0
  6
CONTINUOUS
 66
     1
 40
0.000000
 41
0.000000
  0
VERTEX
  8
0
  6
CONTINUOUS
 10
3.798080
 20
1.187120
  0
VERTEX
  8
0
  6
CONTINUOUS
 10
4.547400
 20
1.182280
  0
VERTEX
  8
0
  6
CONTINUOUS
 10
4.116640
 20
1.182280
  0
VERTEX
  8
0
  6
CONTINUOUS
 10
3.367760
 20
1.187120
  0
VERTEX
  8
0
  6
CONTINUOUS
 10
3.798080
 20
1.187120
  0
SEQEND
  8
0
  0
SOLID
  8
0
 62
    15
 10
4.259640
 20
3.934920
 11
5.008960
 21
3.930520
 12
4.342360
 22
3.909400
 13
5.091240
 23
3.904560
  0
POLYLINE
  8
0
  6
CONTINUOUS
 66
     1
 40
0.000000
 41
0.000000
  0
VERTEX
  8
0
  6
CONTINUOUS
 10
4.259640
 20
3.934920
  0
VERTEX
  8
0
  6
CONTINUOUS
 10
5.008960
 20
3.930520
  0
VERTEX
  8
0
  6
CONTINUOUS
 10
5.091240
 20
3.904560
  0
VERTEX
  8
0
  6
CONTINUOUS
 10
4.342360
 20
3.909400
  0
VERTEX
  8
0
  6
CONTINUOUS
 10
4.259640
 20
3.934920
  0
SEQEND
  8
0
  0
POLYLINE
  8
0
  6
CONTINUOUS
 66
     1
 40
0.000000
 41
0.000000
  0
VERTEX
  8
0
  6
CONTINUOUS
 10
4.171200
 20
3.944160
  0
VERTEX
  8
0
  6
CONTINUOUS
 10
4.259640
 20
3.934920
  0
VERTEX
  8
0
  6
CONTINUOUS
 10
4.342360
 20
3.909400
  0
VERTEX
  8
0
  6
CONTINUOUS
 10
4.417160
 20
3.868920
  0
VERTEX
  8
0
  6
CONTINUOUS
 10
4.482280
 20
3.815240
  0
VERTEX
  8
0
  6
CONTINUOUS
 10
4.535960
 20
3.750120
  0
VERTEX
  8
0
  6
CONTINUOUS
 10
4.576440
 20
3.675320
  0
VERTEX
  8
0
  6
CONTINUOUS
 10
4.601960
 20
3.592600
  0
VERTEX
  8
0
  6
CONTINUOUS
 10
4.611200
 20
3.504160
  0
VERTEX
  8
0
  6
CONTINUOUS
 10
4.601960
 20
3.415280
  0
VERTEX
  8
0
  6
CONTINUOUS
 10
4.576440
 20
3.333000
  0
VERTEX
  8
0
  6
CONTINUOUS
 10
4.535960
 20
3.258200
  0
VERTEX
  8
0
  6
CONTINUOUS
 10
4.482280
 20
3.193080
  0
VERTEX
  8
0
  6
CONTINUOUS
 10
4.417160
 20
3.139400
  0
VERTEX
  8
0
  6
CONTINUOUS
 10
4.342360
 20
3.098920
  0
VERTEX
  8
0
  6
CONTINUOUS
 10
4.260080
 20
3.073400
  0
VERTEX
  8
0
  6
CONTINUOUS
 10
4.171200
 20
3.064160
  0
VERTEX
  8
0
  6
CONTINUOUS
 10
4.171200
 20
2.864840
  0
VERTEX
  8
0
  6
CONTINUOUS
 10
4.109600
 20
2.864840
  0
VERTEX
  8
0
  6
CONTINUOUS
 10
4.115760
 20
2.737680
  0
VERTEX
  8
0
  6
CONTINUOUS
 10
4.106520
 20
2.625480
  0
VERTEX
  8
0
  6
CONTINUOUS
 10
4.082320
 20
2.527360
  0
VERTEX
  8
0
  6
CONTINUOUS
 10
4.043600
 20
2.441120
  0
VERTEX
  8
0
  6
CONTINUOUS
 10
3.992120
 20
2.365440
  0
VERTEX
  8
0
  6
CONTINUOUS
 10
3.928760
 20
2.297680
  0
VERTEX
  8
0
  6
CONTINUOUS
 10
3.853520
 20
2.236520
  0
VERTEX
  8
0
  6
CONTINUOUS
 10
3.767280
 20
2.179760
  0
VERTEX
  8
0
  6
CONTINUOUS
 10
3.724600
 20
2.149840
  0
VERTEX
  8
0
  6
CONTINUOUS
 10
3.686760
 20
2.115960
  0
VERTEX
  8
0
  6
CONTINUOUS
 10
3.653760
 20
2.078560
  0
VERTEX
  8
0
  6
CONTINUOUS
 10
3.626920
 20
2.038520
  0
VERTEX
  8
0
  6
CONTINUOUS
 10
3.605800
 20
1.996720
  0
VERTEX
  8
0
  6
CONTINUOUS
 10
3.590840
 20
1.954040
  0
VERTEX
  8
0
  6
CONTINUOUS
 10
3.582040
 20
1.911800
  0
VERTEX
  8
0
  6
CONTINUOUS
 10
3.579840
 20
1.870440
  0
VERTEX
  8
0
  6
CONTINUOUS
 10
3.585120
 20
1.830400
  0
VERTEX
  8
0
  6
CONTINUOUS
 10
3.597000
 20
1.793440
  0
VERTEX
  8
0
  6
CONTINUOUS
 10
3.616800
 20
1.760000
  0
VERTEX
  8
0
  6
CONTINUOUS
 10
3.644080
 20
1.730960
  0
VERTEX
  8
0
  6
CONTINUOUS
 10
3.679720
 20
1.707200
  0
VERTEX
  8
0
  6
CONTINUOUS
 10
3.723280
 20
1.689600
  0
VERTEX
  8
0
  6
CONTINUOUS
 10
3.775640
 20
1.679040
  0
VERTEX
  8
0
  6
CONTINUOUS
 10
3.836800
 20
1.675960
  0
VERTEX
  8
0
  6
CONTINUOUS
 10
3.836800
 20
1.594560
  0
VERTEX
  8
0
  6
CONTINUOUS
 10
3.874200
 20
1.584000
  0
VERTEX
  8
0
  6
CONTINUOUS
 10
3.908080
 20
1.566840
  0
VERTEX
  8
0
  6
CONTINUOUS
 10
3.937120
 20
1.544400
  0
VERTEX
  8
0
  6
CONTINUOUS
 10
3.962200
 20
1.517120
  0
VERTEX
  8
0
  6
CONTINUOUS
 10
3.982000
 20
1.486760
  0
VERTEX
  8
0
  6
CONTINUOUS
 10
3.996520
 20
1.453760
  0
VERTEX
  8
0
  6
CONTINUOUS
 10
4.009280
 20
1.383360
  0
VERTEX
  8
0
  6
CONTINUOUS
 10
4.006640
 20
1.348160
  0
VERTEX
  8
0
  6
CONTINUOUS
 10
3.997840
 20
1.314280
  0
VERTEX
  8
0
  6
CONTINUOUS
 10
3.982440
 20
1.282160
  0
VERTEX
  8
0
  6
CONTINUOUS
 10
3.960440
 20
1.253560
  0
VERTEX
  8
0
  6
CONTINUOUS
 10
3.931400
 20
1.228480
  0
VERTEX
  8
0
  6
CONTINUOUS
 10
3.894440
 20
1.208240
  0
VERTEX
  8
0
  6
CONTINUOUS
 10
3.850440
 20
1.194160
  0
VERTEX
  8
0
  6
CONTINUOUS
 10
3.798080
 20
1.187120
  0
VERTEX
  8
0
  6
CONTINUOUS
 10
3.367760
 20
1.187120
  0
VERTEX
  8
0
  6
CONTINUOUS
 10
3.367760
 20
3.945040
  0
VERTEX
  8
0
  6
CONTINUOUS
 10
4.172080
 20
3.945040
  0
VERTEX
  8
0
  6
CONTINUOUS
 10
4.171200
 20
3.944160
  0
SEQEND
  8
0
  0
TEXT
  8
0
 10
4.068680
 20
0.887920
 40
0.138044
  1
BA  918
 41
1.000000
  7
SN0
 71
     0
 72
     5
 11
4.658167
 21
0.887920
  0
TEXT
  8
0
 10
3.839000
 20
0.696520
 40
0.138044
  1
2-3/4" x 1-1/4"
 41
1.000000
  7
SN0
 71
     0
 72
     5
 11
4.885395
 21
0.696520
  0
ENDSEC
  0
EOF
