  0
SECTION
  2
HEADER
  9
$ACADVER
  1
AC1006
  9
$EXTMIN
 10
2.441560
 20
1.578280
  9
$EXTMAX
 10
7.017560
 20
6.826160
  9
$LTSCALE
 40
0.044000
  9
$PDMODE
 70
    35
  9
$PDSIZE
 40
0.035200
  0
ENDSEC
  0
SECTION
  2
TABLES
  0
TABLE
  2
LTYPE
 70
     9
  0
LTYPE
  2
CONTINUOUS
 70
    64
  3
Solid line
 72
    65
 73
     0
 40
0.000000
  0
LTYPE
  2
DASHED
 70
    64
  3
__ __ __ __ __ __ __ __ __ __ __ __ __ __ __
 72
    65
 73
     2
 40
0.000330
 49
0.000220
 49
-0.000110
  0
LTYPE
  2
HIDDEN
 70
    64
  3
 _ _ _ _ _ _ _ _ _ _ _ _ _ _ _ _ _ _ _ _ _ _
 72
    65
 73
     2
 40
0.000165
 49
0.000110
 49
-0.000055
  0
LTYPE
  2
CENTER
 70
    64
  3
____ _ ____ _ ____ _ ____ _ ____ _ ____ _ ____
 72
    65
 73
     4
 40
0.000880
 49
0.000550
 49
-0.000110
 49
0.000110
 49
-0.000110
  0
LTYPE
  2
PHANTOM
 70
    64
  3
_____ _ _ _____ _ _ _____ _ _ _____ _ _ ____
 72
    65
 73
     6
 40
0.001100
 49
0.000550
 49
-0.000110
 49
0.000110
 49
-0.000110
 49
0.000110
 49
-0.000110
  0
LTYPE
  2
DOT
 70
    64
  3
...............................................
 72
    65
 73
     2
 40
0.000110
 49
0.000000
 49
-0.000110
  0
LTYPE
  2
DASHDOT
 70
    64
  3
__ . __ . __ . __ . __ . __ . __ . __ . __ . __
 72
    65
 73
     4
 40
0.000440
 49
0.000220
 49
-0.000110
 49
0.000000
 49
-0.000110
  0
LTYPE
  2
BORDER
 70
    64
  3
__ __ . __ __ . __ __ . __ __ . __ __ . __ __
 72
    65
 73
     6
 40
0.000770
 49
0.000220
 49
-0.000110
 49
0.000220
 49
-0.000110
 49
0.000000
 49
-0.000110
  0
LTYPE
  2
DIVIDE
 70
    64
  3
__ . . __ . . __ . . __ . . __ . . __ . . __
 72
    65
 73
     6
 40
0.000550
 49
0.000220
 49
-0.000110
 49
0.000000
 49
-0.000110
 49
0.000000
 49
-0.000110
  0
LTYPE
  2
DOTDOT
 70
    64
  3
 . .  . .  . .  . .  . .  . . 
 72
    65
 73
     5
 40
0.000242
 49
-0.000110
 49
0.000000
 49
-0.000110
 49
0.000000
 49
-0.000110
  0
ENDTAB
  0
TABLE
  2
STYLE
 70
     2
  0
STYLE
 70
     0
  2
SN0
 40
0.000000
 41
0.000440
 50
0.000000
 71
     0
 42
0.000000
  3
ROMAND
  0
STYLE
 70
    68
  2
SV0
 40
0.000000
 41
0.000440
 50
0.000000
 71
     0
 42
0.000000
  3
ROMAND
  0
ENDTAB
  0
TABLE
  2
LAYER
 70
     3
  0
LAYER
  2
FOREGROUND
 70
    64
 62
     7
  6
CONTINUOUS
  0
LAYER
  2
BACKGROUND
 70
    65
 62
    -7
  6
CONTINUOUS
  0
LAYER
  2
0
 70
    64
 62
     7
  6
CONTINUOUS
  0
ENDTAB
  0
ENDSEC
  0
SECTION
  2
ENTITIES
  0
POLYLINE
  8
FOREGROUND
  6
CONTINUOUS
 66
     1
 40
0.000000
 41
0.000000
  0
VERTEX
  8
FOREGROUND
  6
CONTINUOUS
 10
0.000000
 20
8.404440
  0
VERTEX
  8
FOREGROUND
  6
CONTINUOUS
 10
8.499920
 20
8.404440
  0
VERTEX
  8
FOREGROUND
  6
CONTINUOUS
 10
8.499920
 20
-2.595560
  0
VERTEX
  8
FOREGROUND
  6
CONTINUOUS
 10
0.000000
 20
-2.595560
  0
VERTEX
  8
FOREGROUND
  6
CONTINUOUS
 10
0.000000
 20
8.404440
  0
SEQEND
  8
0
  0
POLYLINE
  8
FOREGROUND
  6
CONTINUOUS
 66
     1
 40
0.000000
 41
0.000000
  0
VERTEX
  8
FOREGROUND
  6
CONTINUOUS
 10
0.000000
 20
8.404440
  0
VERTEX
  8
FOREGROUND
  6
CONTINUOUS
 10
8.499920
 20
8.404440
  0
VERTEX
  8
FOREGROUND
  6
CONTINUOUS
 10
8.499920
 20
-2.595560
  0
VERTEX
  8
FOREGROUND
  6
CONTINUOUS
 10
0.000000
 20
-2.595560
  0
VERTEX
  8
FOREGROUND
  6
CONTINUOUS
 10
0.000000
 20
8.404440
  0
SEQEND
  8
0
  0
POLYLINE
  8
0
  6
CONTINUOUS
 66
     1
 40
0.014080
 41
0.014080
  0
VERTEX
  8
0
  6
CONTINUOUS
 10
6.893480
 20
6.064080
  0
VERTEX
  8
0
  6
CONTINUOUS
 10
6.889520
 20
6.014360
  0
VERTEX
  8
0
  6
CONTINUOUS
 10
6.879840
 20
5.958920
  0
VERTEX
  8
0
  6
CONTINUOUS
 10
6.863560
 20
5.899520
  0
VERTEX
  8
0
  6
CONTINUOUS
 10
6.848160
 20
5.859040
  0
VERTEX
  8
0
  6
CONTINUOUS
 10
6.829240
 20
5.818560
  0
VERTEX
  8
0
  6
CONTINUOUS
 10
6.792280
 20
5.758720
  0
VERTEX
  8
0
  6
CONTINUOUS
 10
6.761920
 20
5.720880
  0
VERTEX
  8
0
  6
CONTINUOUS
 10
6.726280
 20
5.685240
  0
VERTEX
  8
0
  6
CONTINUOUS
 10
6.684920
 20
5.652680
  0
VERTEX
  8
0
  6
CONTINUOUS
 10
6.637840
 20
5.623200
  0
VERTEX
  8
0
  6
CONTINUOUS
 10
6.584600
 20
5.598120
  0
VERTEX
  8
0
  6
CONTINUOUS
 10
6.524760
 20
5.577880
  0
VERTEX
  8
0
  6
CONTINUOUS
 10
6.492200
 20
5.569960
  0
VERTEX
  8
0
  6
CONTINUOUS
 10
6.457880
 20
5.563360
  0
VERTEX
  8
0
  6
CONTINUOUS
 10
6.421800
 20
5.558080
  0
VERTEX
  8
0
  6
CONTINUOUS
 10
6.383520
 20
5.554560
  0
VERTEX
  8
0
  6
CONTINUOUS
 10
6.383520
 20
5.501760
  0
VERTEX
  8
0
  6
CONTINUOUS
 10
6.420040
 20
5.487680
  0
VERTEX
  8
0
  6
CONTINUOUS
 10
6.438960
 20
5.475800
  0
VERTEX
  8
0
  6
CONTINUOUS
 10
6.453920
 20
5.462160
  0
VERTEX
  8
0
  6
CONTINUOUS
 10
6.464920
 20
5.447640
  0
VERTEX
  8
0
  6
CONTINUOUS
 10
6.471960
 20
5.432240
  0
VERTEX
  8
0
  6
CONTINUOUS
 10
6.475920
 20
5.416400
  0
VERTEX
  8
0
  6
CONTINUOUS
 10
6.476360
 20
5.400560
  0
VERTEX
  8
0
  6
CONTINUOUS
 10
6.474160
 20
5.384720
  0
VERTEX
  8
0
  6
CONTINUOUS
 10
6.465360
 20
5.361840
  0
VERTEX
  8
0
  6
CONTINUOUS
 10
6.450840
 20
5.341600
  0
VERTEX
  8
0
  6
CONTINUOUS
 10
6.431920
 20
5.324000
  0
VERTEX
  8
0
  6
CONTINUOUS
 10
6.409040
 20
5.311240
  0
VERTEX
  8
0
  6
CONTINUOUS
 10
6.383080
 20
5.304200
  0
VERTEX
  8
0
  6
CONTINUOUS
 10
6.383080
 20
5.243920
  0
VERTEX
  8
0
  6
CONTINUOUS
 10
6.330720
 20
5.239960
  0
VERTEX
  8
0
  6
CONTINUOUS
 10
6.279680
 20
5.229400
  0
VERTEX
  8
0
  6
CONTINUOUS
 10
6.230840
 20
5.212680
  0
VERTEX
  8
0
  6
CONTINUOUS
 10
6.184640
 20
5.189800
  0
VERTEX
  8
0
  6
CONTINUOUS
 10
6.156040
 20
5.171320
  0
VERTEX
  8
0
  6
CONTINUOUS
 10
6.116440
 20
5.138320
  0
VERTEX
  8
0
  6
CONTINUOUS
 10
6.092680
 20
5.112800
  0
VERTEX
  8
0
  6
CONTINUOUS
 10
6.071120
 20
5.085080
  0
VERTEX
  8
0
  6
CONTINUOUS
 10
6.052640
 20
5.054720
  0
VERTEX
  8
0
  6
CONTINUOUS
 10
6.030200
 20
5.004120
  0
VERTEX
  8
0
  6
CONTINUOUS
 10
6.019200
 20
4.967160
  0
VERTEX
  8
0
  6
CONTINUOUS
 10
6.012160
 20
4.927560
  0
VERTEX
  8
0
  6
CONTINUOUS
 10
6.008200
 20
4.885760
  0
VERTEX
  8
0
  6
CONTINUOUS
 10
5.875760
 20
4.885760
  0
VERTEX
  8
0
  6
CONTINUOUS
 10
5.875760
 20
6.509800
  0
VERTEX
  8
0
  6
CONTINUOUS
 10
7.010520
 20
6.509800
  0
VERTEX
  8
0
  6
CONTINUOUS
 10
7.010520
 20
6.066720
  0
VERTEX
  8
0
  6
CONTINUOUS
 10
6.893480
 20
6.066720
  0
VERTEX
  8
0
  6
CONTINUOUS
 10
6.893480
 20
6.064080
  0
SEQEND
  8
0
  0
SOLID
  8
0
 62
     7
 10
3.041720
 20
5.708560
 11
3.693360
 21
5.333680
 12
3.031600
 22
5.677760
 13
3.683240
 23
5.303320
  0
POLYLINE
  8
0
  6
CONTINUOUS
 66
     1
 40
0.000000
 41
0.000000
  0
VERTEX
  8
0
  6
CONTINUOUS
 10
3.041720
 20
5.708560
  0
VERTEX
  8
0
  6
CONTINUOUS
 10
3.693360
 20
5.333680
  0
VERTEX
  8
0
  6
CONTINUOUS
 10
3.683240
 20
5.303320
  0
VERTEX
  8
0
  6
CONTINUOUS
 10
3.031600
 20
5.677760
  0
VERTEX
  8
0
  6
CONTINUOUS
 10
3.041720
 20
5.708560
  0
SEQEND
  8
0
  0
SOLID
  8
0
 62
     7
 10
3.453120
 20
6.312240
 11
4.104760
 21
5.937800
 12
3.435960
 22
6.235240
 13
4.087600
 23
5.860800
  0
POLYLINE
  8
0
  6
CONTINUOUS
 66
     1
 40
0.000000
 41
0.000000
  0
VERTEX
  8
0
  6
CONTINUOUS
 10
3.453120
 20
6.312240
  0
VERTEX
  8
0
  6
CONTINUOUS
 10
4.104760
 20
5.937800
  0
VERTEX
  8
0
  6
CONTINUOUS
 10
4.087600
 20
5.860800
  0
VERTEX
  8
0
  6
CONTINUOUS
 10
3.435960
 20
6.235240
  0
VERTEX
  8
0
  6
CONTINUOUS
 10
3.453120
 20
6.312240
  0
SEQEND
  8
0
  0
SOLID
  8
0
 62
     7
 10
3.435960
 20
6.235240
 11
4.087600
 21
5.860800
 12
3.405600
 22
6.154280
 13
4.057240
 23
5.779840
  0
POLYLINE
  8
0
  6
CONTINUOUS
 66
     1
 40
0.000000
 41
0.000000
  0
VERTEX
  8
0
  6
CONTINUOUS
 10
3.435960
 20
6.235240
  0
VERTEX
  8
0
  6
CONTINUOUS
 10
4.087600
 20
5.860800
  0
VERTEX
  8
0
  6
CONTINUOUS
 10
4.057240
 20
5.779840
  0
VERTEX
  8
0
  6
CONTINUOUS
 10
3.405600
 20
6.154280
  0
VERTEX
  8
0
  6
CONTINUOUS
 10
3.435960
 20
6.235240
  0
SEQEND
  8
0
  0
SOLID
  8
0
 62
    15
 10
3.405600
 20
6.154280
 11
4.057240
 21
5.779840
 12
3.358520
 22
6.074640
 13
4.010160
 23
5.700200
  0
POLYLINE
  8
0
  6
CONTINUOUS
 66
     1
 40
0.000000
 41
0.000000
  0
VERTEX
  8
0
  6
CONTINUOUS
 10
3.405600
 20
6.154280
  0
VERTEX
  8
0
  6
CONTINUOUS
 10
4.057240
 20
5.779840
  0
VERTEX
  8
0
  6
CONTINUOUS
 10
4.010160
 20
5.700200
  0
VERTEX
  8
0
  6
CONTINUOUS
 10
3.358520
 20
6.074640
  0
VERTEX
  8
0
  6
CONTINUOUS
 10
3.405600
 20
6.154280
  0
SEQEND
  8
0
  0
SOLID
  8
0
 62
    15
 10
3.358520
 20
6.074640
 11
4.010160
 21
5.700200
 12
3.328160
 22
6.036800
 13
3.979800
 23
5.662360
  0
POLYLINE
  8
0
  6
CONTINUOUS
 66
     1
 40
0.000000
 41
0.000000
  0
VERTEX
  8
0
  6
CONTINUOUS
 10
3.358520
 20
6.074640
  0
VERTEX
  8
0
  6
CONTINUOUS
 10
4.010160
 20
5.700200
  0
VERTEX
  8
0
  6
CONTINUOUS
 10
3.979800
 20
5.662360
  0
VERTEX
  8
0
  6
CONTINUOUS
 10
3.328160
 20
6.036800
  0
VERTEX
  8
0
  6
CONTINUOUS
 10
3.358520
 20
6.074640
  0
SEQEND
  8
0
  0
SOLID
  8
0
 62
    15
 10
3.328160
 20
6.036800
 11
3.979800
 21
5.662360
 12
3.292520
 22
6.001160
 13
3.944160
 23
5.626720
  0
POLYLINE
  8
0
  6
CONTINUOUS
 66
     1
 40
0.000000
 41
0.000000
  0
VERTEX
  8
0
  6
CONTINUOUS
 10
3.328160
 20
6.036800
  0
VERTEX
  8
0
  6
CONTINUOUS
 10
3.979800
 20
5.662360
  0
VERTEX
  8
0
  6
CONTINUOUS
 10
3.944160
 20
5.626720
  0
VERTEX
  8
0
  6
CONTINUOUS
 10
3.292520
 20
6.001160
  0
VERTEX
  8
0
  6
CONTINUOUS
 10
3.328160
 20
6.036800
  0
SEQEND
  8
0
  0
SOLID
  8
0
 62
    15
 10
3.292520
 20
6.001160
 11
3.944160
 21
5.626720
 12
3.251160
 22
5.968600
 13
3.902800
 23
5.593720
  0
POLYLINE
  8
0
  6
CONTINUOUS
 66
     1
 40
0.000000
 41
0.000000
  0
VERTEX
  8
0
  6
CONTINUOUS
 10
3.292520
 20
6.001160
  0
VERTEX
  8
0
  6
CONTINUOUS
 10
3.944160
 20
5.626720
  0
VERTEX
  8
0
  6
CONTINUOUS
 10
3.902800
 20
5.593720
  0
VERTEX
  8
0
  6
CONTINUOUS
 10
3.251160
 20
5.968600
  0
VERTEX
  8
0
  6
CONTINUOUS
 10
3.292520
 20
6.001160
  0
SEQEND
  8
0
  0
SOLID
  8
0
 62
    15
 10
3.251160
 20
5.968600
 11
3.902800
 21
5.593720
 12
3.204080
 22
5.939120
 13
3.855720
 23
5.564680
  0
POLYLINE
  8
0
  6
CONTINUOUS
 66
     1
 40
0.000000
 41
0.000000
  0
VERTEX
  8
0
  6
CONTINUOUS
 10
3.251160
 20
5.968600
  0
VERTEX
  8
0
  6
CONTINUOUS
 10
3.902800
 20
5.593720
  0
VERTEX
  8
0
  6
CONTINUOUS
 10
3.855720
 20
5.564680
  0
VERTEX
  8
0
  6
CONTINUOUS
 10
3.204080
 20
5.939120
  0
VERTEX
  8
0
  6
CONTINUOUS
 10
3.251160
 20
5.968600
  0
SEQEND
  8
0
  0
SOLID
  8
0
 62
    15
 10
3.204080
 20
5.939120
 11
3.855720
 21
5.564680
 12
3.150840
 22
5.914040
 13
3.802480
 23
5.539600
  0
POLYLINE
  8
0
  6
CONTINUOUS
 66
     1
 40
0.000000
 41
0.000000
  0
VERTEX
  8
0
  6
CONTINUOUS
 10
3.204080
 20
5.939120
  0
VERTEX
  8
0
  6
CONTINUOUS
 10
3.855720
 20
5.564680
  0
VERTEX
  8
0
  6
CONTINUOUS
 10
3.802480
 20
5.539600
  0
VERTEX
  8
0
  6
CONTINUOUS
 10
3.150840
 20
5.914040
  0
VERTEX
  8
0
  6
CONTINUOUS
 10
3.204080
 20
5.939120
  0
SEQEND
  8
0
  0
SOLID
  8
0
 62
    15
 10
3.150840
 20
5.914040
 11
3.802480
 21
5.539600
 12
3.091000
 22
5.893800
 13
3.742640
 23
5.519360
  0
POLYLINE
  8
0
  6
CONTINUOUS
 66
     1
 40
0.000000
 41
0.000000
  0
VERTEX
  8
0
  6
CONTINUOUS
 10
3.150840
 20
5.914040
  0
VERTEX
  8
0
  6
CONTINUOUS
 10
3.802480
 20
5.539600
  0
VERTEX
  8
0
  6
CONTINUOUS
 10
3.742640
 20
5.519360
  0
VERTEX
  8
0
  6
CONTINUOUS
 10
3.091000
 20
5.893800
  0
VERTEX
  8
0
  6
CONTINUOUS
 10
3.150840
 20
5.914040
  0
SEQEND
  8
0
  0
SOLID
  8
0
 62
    15
 10
3.091000
 20
5.893800
 11
3.742640
 21
5.519360
 12
3.024120
 22
5.879280
 13
3.675760
 23
5.504400
  0
POLYLINE
  8
0
  6
CONTINUOUS
 66
     1
 40
0.000000
 41
0.000000
  0
VERTEX
  8
0
  6
CONTINUOUS
 10
3.091000
 20
5.893800
  0
VERTEX
  8
0
  6
CONTINUOUS
 10
3.742640
 20
5.519360
  0
VERTEX
  8
0
  6
CONTINUOUS
 10
3.675760
 20
5.504400
  0
VERTEX
  8
0
  6
CONTINUOUS
 10
3.024120
 20
5.879280
  0
VERTEX
  8
0
  6
CONTINUOUS
 10
3.091000
 20
5.893800
  0
SEQEND
  8
0
  0
SOLID
  8
0
 62
    15
 10
3.024120
 20
5.879280
 11
3.675760
 21
5.504400
 12
2.949760
 22
5.870480
 13
3.601400
 23
5.495600
  0
POLYLINE
  8
0
  6
CONTINUOUS
 66
     1
 40
0.000000
 41
0.000000
  0
VERTEX
  8
0
  6
CONTINUOUS
 10
3.024120
 20
5.879280
  0
VERTEX
  8
0
  6
CONTINUOUS
 10
3.675760
 20
5.504400
  0
VERTEX
  8
0
  6
CONTINUOUS
 10
3.601400
 20
5.495600
  0
VERTEX
  8
0
  6
CONTINUOUS
 10
2.949760
 20
5.870480
  0
VERTEX
  8
0
  6
CONTINUOUS
 10
3.024120
 20
5.879280
  0
SEQEND
  8
0
  0
SOLID
  8
0
 62
     7
 10
2.949760
 20
5.870480
 11
3.601400
 21
5.495600
 12
2.949760
 22
5.817680
 13
3.601400
 23
5.442800
  0
POLYLINE
  8
0
  6
CONTINUOUS
 66
     1
 40
0.000000
 41
0.000000
  0
VERTEX
  8
0
  6
CONTINUOUS
 10
2.949760
 20
5.870480
  0
VERTEX
  8
0
  6
CONTINUOUS
 10
3.601400
 20
5.495600
  0
VERTEX
  8
0
  6
CONTINUOUS
 10
3.601400
 20
5.442800
  0
VERTEX
  8
0
  6
CONTINUOUS
 10
2.949760
 20
5.817680
  0
VERTEX
  8
0
  6
CONTINUOUS
 10
2.949760
 20
5.870480
  0
SEQEND
  8
0
  0
SOLID
  8
0
 62
    15
 10
2.996400
 20
5.797440
 11
3.648040
 21
5.423000
 12
3.025880
 22
5.771040
 13
3.677520
 23
5.396160
  0
POLYLINE
  8
0
  6
CONTINUOUS
 66
     1
 40
0.000000
 41
0.000000
  0
VERTEX
  8
0
  6
CONTINUOUS
 10
2.996400
 20
5.797440
  0
VERTEX
  8
0
  6
CONTINUOUS
 10
3.648040
 20
5.423000
  0
VERTEX
  8
0
  6
CONTINUOUS
 10
3.677520
 20
5.396160
  0
VERTEX
  8
0
  6
CONTINUOUS
 10
3.025880
 20
5.771040
  0
VERTEX
  8
0
  6
CONTINUOUS
 10
2.996400
 20
5.797440
  0
SEQEND
  8
0
  0
SOLID
  8
0
 62
    15
 10
3.025880
 20
5.771040
 11
3.677520
 21
5.396160
 12
3.040400
 22
5.740240
 13
3.692040
 23
5.365800
  0
POLYLINE
  8
0
  6
CONTINUOUS
 66
     1
 40
0.000000
 41
0.000000
  0
VERTEX
  8
0
  6
CONTINUOUS
 10
3.025880
 20
5.771040
  0
VERTEX
  8
0
  6
CONTINUOUS
 10
3.677520
 20
5.396160
  0
VERTEX
  8
0
  6
CONTINUOUS
 10
3.692040
 20
5.365800
  0
VERTEX
  8
0
  6
CONTINUOUS
 10
3.040400
 20
5.740240
  0
VERTEX
  8
0
  6
CONTINUOUS
 10
3.025880
 20
5.771040
  0
SEQEND
  8
0
  0
SOLID
  8
0
 62
     7
 10
3.040400
 20
5.740240
 11
3.692040
 21
5.365800
 12
3.041720
 22
5.708560
 13
3.693360
 23
5.333680
  0
POLYLINE
  8
0
  6
CONTINUOUS
 66
     1
 40
0.000000
 41
0.000000
  0
VERTEX
  8
0
  6
CONTINUOUS
 10
3.040400
 20
5.740240
  0
VERTEX
  8
0
  6
CONTINUOUS
 10
3.692040
 20
5.365800
  0
VERTEX
  8
0
  6
CONTINUOUS
 10
3.693360
 20
5.333680
  0
VERTEX
  8
0
  6
CONTINUOUS
 10
3.041720
 20
5.708560
  0
VERTEX
  8
0
  6
CONTINUOUS
 10
3.040400
 20
5.740240
  0
SEQEND
  8
0
  0
SOLID
  8
0
 62
    15
 10
3.459720
 20
6.380000
 11
4.111360
 21
6.005560
 12
3.453120
 22
6.312240
 13
4.104760
 23
5.937800
  0
POLYLINE
  8
0
  6
CONTINUOUS
 66
     1
 40
0.000000
 41
0.000000
  0
VERTEX
  8
0
  6
CONTINUOUS
 10
3.459720
 20
6.380000
  0
VERTEX
  8
0
  6
CONTINUOUS
 10
4.111360
 20
6.005560
  0
VERTEX
  8
0
  6
CONTINUOUS
 10
4.104760
 20
5.937800
  0
VERTEX
  8
0
  6
CONTINUOUS
 10
3.453120
 20
6.312240
  0
VERTEX
  8
0
  6
CONTINUOUS
 10
3.459720
 20
6.380000
  0
SEQEND
  8
0
  0
SOLID
  8
0
 62
    15
 10
3.031600
 20
5.677760
 11
3.683240
 21
5.303320
 12
3.011360
 22
5.651360
 13
3.663000
 23
5.276480
  0
POLYLINE
  8
0
  6
CONTINUOUS
 66
     1
 40
0.000000
 41
0.000000
  0
VERTEX
  8
0
  6
CONTINUOUS
 10
3.031600
 20
5.677760
  0
VERTEX
  8
0
  6
CONTINUOUS
 10
3.683240
 20
5.303320
  0
VERTEX
  8
0
  6
CONTINUOUS
 10
3.663000
 20
5.276480
  0
VERTEX
  8
0
  6
CONTINUOUS
 10
3.011360
 20
5.651360
  0
VERTEX
  8
0
  6
CONTINUOUS
 10
3.031600
 20
5.677760
  0
SEQEND
  8
0
  0
SOLID
  8
0
 62
    15
 10
3.011360
 20
5.651360
 11
3.663000
 21
5.276480
 12
2.983640
 22
5.631120
 13
3.635280
 23
5.256240
  0
POLYLINE
  8
0
  6
CONTINUOUS
 66
     1
 40
0.000000
 41
0.000000
  0
VERTEX
  8
0
  6
CONTINUOUS
 10
3.011360
 20
5.651360
  0
VERTEX
  8
0
  6
CONTINUOUS
 10
3.663000
 20
5.276480
  0
VERTEX
  8
0
  6
CONTINUOUS
 10
3.635280
 20
5.256240
  0
VERTEX
  8
0
  6
CONTINUOUS
 10
2.983640
 20
5.631120
  0
VERTEX
  8
0
  6
CONTINUOUS
 10
3.011360
 20
5.651360
  0
SEQEND
  8
0
  0
SOLID
  8
0
 62
    15
 10
2.983640
 20
5.631120
 11
3.635280
 21
5.256240
 12
2.949320
 22
5.620120
 13
3.600960
 23
5.245240
  0
POLYLINE
  8
0
  6
CONTINUOUS
 66
     1
 40
0.000000
 41
0.000000
  0
VERTEX
  8
0
  6
CONTINUOUS
 10
2.983640
 20
5.631120
  0
VERTEX
  8
0
  6
CONTINUOUS
 10
3.635280
 20
5.256240
  0
VERTEX
  8
0
  6
CONTINUOUS
 10
3.600960
 20
5.245240
  0
VERTEX
  8
0
  6
CONTINUOUS
 10
2.949320
 20
5.620120
  0
VERTEX
  8
0
  6
CONTINUOUS
 10
2.983640
 20
5.631120
  0
SEQEND
  8
0
  0
SOLID
  8
0
 62
     7
 10
2.949320
 20
5.620120
 11
3.600960
 21
5.245240
 12
2.949320
 22
5.559840
 13
3.600960
 23
5.185400
  0
POLYLINE
  8
0
  6
CONTINUOUS
 66
     1
 40
0.000000
 41
0.000000
  0
VERTEX
  8
0
  6
CONTINUOUS
 10
2.949320
 20
5.620120
  0
VERTEX
  8
0
  6
CONTINUOUS
 10
3.600960
 20
5.245240
  0
VERTEX
  8
0
  6
CONTINUOUS
 10
3.600960
 20
5.185400
  0
VERTEX
  8
0
  6
CONTINUOUS
 10
2.949320
 20
5.559840
  0
VERTEX
  8
0
  6
CONTINUOUS
 10
2.949320
 20
5.620120
  0
SEQEND
  8
0
  0
SOLID
  8
0
 62
    15
 10
2.949320
 20
5.559840
 11
3.600960
 21
5.185400
 12
2.879800
 22
5.552800
 13
3.531440
 23
5.178360
  0
POLYLINE
  8
0
  6
CONTINUOUS
 66
     1
 40
0.000000
 41
0.000000
  0
VERTEX
  8
0
  6
CONTINUOUS
 10
2.949320
 20
5.559840
  0
VERTEX
  8
0
  6
CONTINUOUS
 10
3.600960
 20
5.185400
  0
VERTEX
  8
0
  6
CONTINUOUS
 10
3.531440
 20
5.178360
  0
VERTEX
  8
0
  6
CONTINUOUS
 10
2.879800
 20
5.552800
  0
VERTEX
  8
0
  6
CONTINUOUS
 10
2.949320
 20
5.559840
  0
SEQEND
  8
0
  0
SOLID
  8
0
 62
    15
 10
2.879800
 20
5.552800
 11
3.531440
 21
5.178360
 12
2.812920
 22
5.534760
 13
3.464560
 23
5.160320
  0
POLYLINE
  8
0
  6
CONTINUOUS
 66
     1
 40
0.000000
 41
0.000000
  0
VERTEX
  8
0
  6
CONTINUOUS
 10
2.879800
 20
5.552800
  0
VERTEX
  8
0
  6
CONTINUOUS
 10
3.531440
 20
5.178360
  0
VERTEX
  8
0
  6
CONTINUOUS
 10
3.464560
 20
5.160320
  0
VERTEX
  8
0
  6
CONTINUOUS
 10
2.812920
 20
5.534760
  0
VERTEX
  8
0
  6
CONTINUOUS
 10
2.879800
 20
5.552800
  0
SEQEND
  8
0
  0
SOLID
  8
0
 62
    15
 10
2.812920
 20
5.534760
 11
3.464560
 21
5.160320
 12
2.750880
 22
5.505720
 13
3.402520
 23
5.130840
  0
POLYLINE
  8
0
  6
CONTINUOUS
 66
     1
 40
0.000000
 41
0.000000
  0
VERTEX
  8
0
  6
CONTINUOUS
 10
2.812920
 20
5.534760
  0
VERTEX
  8
0
  6
CONTINUOUS
 10
3.464560
 20
5.160320
  0
VERTEX
  8
0
  6
CONTINUOUS
 10
3.402520
 20
5.130840
  0
VERTEX
  8
0
  6
CONTINUOUS
 10
2.750880
 20
5.505720
  0
VERTEX
  8
0
  6
CONTINUOUS
 10
2.812920
 20
5.534760
  0
SEQEND
  8
0
  0
SOLID
  8
0
 62
    15
 10
2.750880
 20
5.505720
 11
3.402520
 21
5.130840
 12
2.695000
 22
5.465680
 13
3.346640
 23
5.091240
  0
POLYLINE
  8
0
  6
CONTINUOUS
 66
     1
 40
0.000000
 41
0.000000
  0
VERTEX
  8
0
  6
CONTINUOUS
 10
2.750880
 20
5.505720
  0
VERTEX
  8
0
  6
CONTINUOUS
 10
3.402520
 20
5.130840
  0
VERTEX
  8
0
  6
CONTINUOUS
 10
3.346640
 20
5.091240
  0
VERTEX
  8
0
  6
CONTINUOUS
 10
2.695000
 20
5.465680
  0
VERTEX
  8
0
  6
CONTINUOUS
 10
2.750880
 20
5.505720
  0
SEQEND
  8
0
  0
SOLID
  8
0
 62
    15
 10
2.695000
 20
5.465680
 11
3.346640
 21
5.091240
 12
2.647920
 22
5.415080
 13
3.299560
 23
5.040640
  0
POLYLINE
  8
0
  6
CONTINUOUS
 66
     1
 40
0.000000
 41
0.000000
  0
VERTEX
  8
0
  6
CONTINUOUS
 10
2.695000
 20
5.465680
  0
VERTEX
  8
0
  6
CONTINUOUS
 10
3.346640
 20
5.091240
  0
VERTEX
  8
0
  6
CONTINUOUS
 10
3.299560
 20
5.040640
  0
VERTEX
  8
0
  6
CONTINUOUS
 10
2.647920
 20
5.415080
  0
VERTEX
  8
0
  6
CONTINUOUS
 10
2.695000
 20
5.465680
  0
SEQEND
  8
0
  0
SOLID
  8
0
 62
    15
 10
2.647920
 20
5.415080
 11
3.299560
 21
5.040640
 12
2.610520
 22
5.354360
 13
3.262160
 23
4.979480
  0
POLYLINE
  8
0
  6
CONTINUOUS
 66
     1
 40
0.000000
 41
0.000000
  0
VERTEX
  8
0
  6
CONTINUOUS
 10
2.647920
 20
5.415080
  0
VERTEX
  8
0
  6
CONTINUOUS
 10
3.299560
 20
5.040640
  0
VERTEX
  8
0
  6
CONTINUOUS
 10
3.262160
 20
4.979480
  0
VERTEX
  8
0
  6
CONTINUOUS
 10
2.610520
 20
5.354360
  0
VERTEX
  8
0
  6
CONTINUOUS
 10
2.647920
 20
5.415080
  0
SEQEND
  8
0
  0
SOLID
  8
0
 62
     7
 10
2.610520
 20
5.354360
 11
3.262160
 21
4.979480
 12
2.585880
 22
5.283080
 13
3.237520
 23
4.908640
  0
POLYLINE
  8
0
  6
CONTINUOUS
 66
     1
 40
0.000000
 41
0.000000
  0
VERTEX
  8
0
  6
CONTINUOUS
 10
2.610520
 20
5.354360
  0
VERTEX
  8
0
  6
CONTINUOUS
 10
3.262160
 20
4.979480
  0
VERTEX
  8
0
  6
CONTINUOUS
 10
3.237520
 20
4.908640
  0
VERTEX
  8
0
  6
CONTINUOUS
 10
2.585880
 20
5.283080
  0
VERTEX
  8
0
  6
CONTINUOUS
 10
2.610520
 20
5.354360
  0
SEQEND
  8
0
  0
SOLID
  8
0
 62
     7
 10
2.585880
 20
5.283080
 11
3.237520
 21
4.908640
 12
2.574440
 22
5.201680
 13
3.226080
 23
4.827240
  0
POLYLINE
  8
0
  6
CONTINUOUS
 66
     1
 40
0.000000
 41
0.000000
  0
VERTEX
  8
0
  6
CONTINUOUS
 10
2.585880
 20
5.283080
  0
VERTEX
  8
0
  6
CONTINUOUS
 10
3.237520
 20
4.908640
  0
VERTEX
  8
0
  6
CONTINUOUS
 10
3.226080
 20
4.827240
  0
VERTEX
  8
0
  6
CONTINUOUS
 10
2.574440
 20
5.201680
  0
VERTEX
  8
0
  6
CONTINUOUS
 10
2.585880
 20
5.283080
  0
SEQEND
  8
0
  0
SOLID
  8
0
 62
    15
 10
2.574440
 20
5.201680
 11
3.226080
 21
4.827240
 12
2.442000
 22
5.201680
 13
3.093640
 23
4.827240
  0
POLYLINE
  8
0
  6
CONTINUOUS
 66
     1
 40
0.000000
 41
0.000000
  0
VERTEX
  8
0
  6
CONTINUOUS
 10
2.574440
 20
5.201680
  0
VERTEX
  8
0
  6
CONTINUOUS
 10
3.226080
 20
4.827240
  0
VERTEX
  8
0
  6
CONTINUOUS
 10
3.093640
 20
4.827240
  0
VERTEX
  8
0
  6
CONTINUOUS
 10
2.442000
 20
5.201680
  0
VERTEX
  8
0
  6
CONTINUOUS
 10
2.574440
 20
5.201680
  0
SEQEND
  8
0
  0
SOLID
  8
0
 62
    15
 10
3.576760
 20
6.825720
 11
4.228400
 21
6.450840
 12
3.576760
 22
6.382640
 13
4.228400
 23
6.007760
  0
POLYLINE
  8
0
  6
CONTINUOUS
 66
     1
 40
0.000000
 41
0.000000
  0
VERTEX
  8
0
  6
CONTINUOUS
 10
3.576760
 20
6.825720
  0
VERTEX
  8
0
  6
CONTINUOUS
 10
4.228400
 20
6.450840
  0
VERTEX
  8
0
  6
CONTINUOUS
 10
4.228400
 20
6.007760
  0
VERTEX
  8
0
  6
CONTINUOUS
 10
3.576760
 20
6.382640
  0
VERTEX
  8
0
  6
CONTINUOUS
 10
3.576760
 20
6.825720
  0
SEQEND
  8
0
  0
SOLID
  8
0
 62
    15
 10
3.576760
 20
6.382640
 11
4.228400
 21
6.007760
 12
3.459720
 22
6.382640
 13
4.111360
 23
6.007760
  0
POLYLINE
  8
0
  6
CONTINUOUS
 66
     1
 40
0.000000
 41
0.000000
  0
VERTEX
  8
0
  6
CONTINUOUS
 10
3.576760
 20
6.382640
  0
VERTEX
  8
0
  6
CONTINUOUS
 10
4.228400
 20
6.007760
  0
VERTEX
  8
0
  6
CONTINUOUS
 10
4.111360
 20
6.007760
  0
VERTEX
  8
0
  6
CONTINUOUS
 10
3.459720
 20
6.382640
  0
VERTEX
  8
0
  6
CONTINUOUS
 10
3.576760
 20
6.382640
  0
SEQEND
  8
0
  0
SOLID
  8
0
 62
    15
 10
3.459720
 20
6.382640
 11
4.111360
 21
6.007760
 12
3.459720
 22
6.380000
 13
4.111360
 23
6.005560
  0
POLYLINE
  8
0
  6
CONTINUOUS
 66
     1
 40
0.000000
 41
0.000000
  0
VERTEX
  8
0
  6
CONTINUOUS
 10
3.459720
 20
6.382640
  0
VERTEX
  8
0
  6
CONTINUOUS
 10
4.111360
 20
6.007760
  0
VERTEX
  8
0
  6
CONTINUOUS
 10
4.111360
 20
6.005560
  0
VERTEX
  8
0
  6
CONTINUOUS
 10
3.459720
 20
6.380000
  0
VERTEX
  8
0
  6
CONTINUOUS
 10
3.459720
 20
6.382640
  0
SEQEND
  8
0
  0
POLYLINE
  8
0
  6
CONTINUOUS
 66
     1
 40
0.000000
 41
0.000000
  0
VERTEX
  8
0
  6
CONTINUOUS
 10
3.459720
 20
6.380000
  0
VERTEX
  8
0
  6
CONTINUOUS
 10
3.453120
 20
6.312240
  0
VERTEX
  8
0
  6
CONTINUOUS
 10
3.435960
 20
6.235240
  0
VERTEX
  8
0
  6
CONTINUOUS
 10
3.405600
 20
6.154280
  0
VERTEX
  8
0
  6
CONTINUOUS
 10
3.358520
 20
6.074640
  0
VERTEX
  8
0
  6
CONTINUOUS
 10
3.328160
 20
6.036800
  0
VERTEX
  8
0
  6
CONTINUOUS
 10
3.292520
 20
6.001160
  0
VERTEX
  8
0
  6
CONTINUOUS
 10
3.251160
 20
5.968600
  0
VERTEX
  8
0
  6
CONTINUOUS
 10
3.204080
 20
5.939120
  0
VERTEX
  8
0
  6
CONTINUOUS
 10
3.150840
 20
5.914040
  0
VERTEX
  8
0
  6
CONTINUOUS
 10
3.091000
 20
5.893800
  0
VERTEX
  8
0
  6
CONTINUOUS
 10
3.024120
 20
5.879280
  0
VERTEX
  8
0
  6
CONTINUOUS
 10
2.949760
 20
5.870480
  0
VERTEX
  8
0
  6
CONTINUOUS
 10
2.949760
 20
5.817680
  0
VERTEX
  8
0
  6
CONTINUOUS
 10
2.996400
 20
5.797440
  0
VERTEX
  8
0
  6
CONTINUOUS
 10
3.025880
 20
5.771040
  0
VERTEX
  8
0
  6
CONTINUOUS
 10
3.040400
 20
5.740240
  0
VERTEX
  8
0
  6
CONTINUOUS
 10
3.041720
 20
5.708560
  0
VERTEX
  8
0
  6
CONTINUOUS
 10
3.031600
 20
5.677760
  0
VERTEX
  8
0
  6
CONTINUOUS
 10
3.011360
 20
5.651360
  0
VERTEX
  8
0
  6
CONTINUOUS
 10
2.983640
 20
5.631120
  0
VERTEX
  8
0
  6
CONTINUOUS
 10
2.949320
 20
5.620120
  0
VERTEX
  8
0
  6
CONTINUOUS
 10
2.949320
 20
5.559840
  0
VERTEX
  8
0
  6
CONTINUOUS
 10
2.879800
 20
5.552800
  0
VERTEX
  8
0
  6
CONTINUOUS
 10
2.812920
 20
5.534760
  0
VERTEX
  8
0
  6
CONTINUOUS
 10
2.750880
 20
5.505720
  0
VERTEX
  8
0
  6
CONTINUOUS
 10
2.695000
 20
5.465680
  0
VERTEX
  8
0
  6
CONTINUOUS
 10
2.647920
 20
5.415080
  0
VERTEX
  8
0
  6
CONTINUOUS
 10
2.610520
 20
5.354360
  0
VERTEX
  8
0
  6
CONTINUOUS
 10
2.585880
 20
5.283080
  0
VERTEX
  8
0
  6
CONTINUOUS
 10
2.574440
 20
5.201680
  0
VERTEX
  8
0
  6
CONTINUOUS
 10
2.442000
 20
5.201680
  0
VERTEX
  8
0
  6
CONTINUOUS
 10
2.442000
 20
6.825720
  0
VERTEX
  8
0
  6
CONTINUOUS
 10
3.576760
 20
6.825720
  0
VERTEX
  8
0
  6
CONTINUOUS
 10
3.576760
 20
6.382640
  0
VERTEX
  8
0
  6
CONTINUOUS
 10
3.459720
 20
6.382640
  0
VERTEX
  8
0
  6
CONTINUOUS
 10
3.459720
 20
6.380000
  0
SEQEND
  8
0
  0
TEXT
  8
0
 10
3.890040
 20
5.018200
 40
0.138068
  1
BA  917
 41
1.000000
  7
SN0
 71
     0
 72
     5
 11
4.480689
 21
5.018200
  0
TEXT
  8
0
 10
3.637480
 20
4.826800
 40
0.138068
  1
 1-1/8" x 1-5/8"
 41
1.000000
  7
SN0
 71
     0
 72
     5
 11
4.736124
 21
4.826800
  0
SOLID
  8
0
 62
     7
 10
3.495800
 20
2.516360
 11
4.147440
 21
2.141920
 12
3.485680
 22
2.486000
 13
4.137320
 23
2.111120
  0
POLYLINE
  8
0
  6
CONTINUOUS
 66
     1
 40
0.000000
 41
0.000000
  0
VERTEX
  8
0
  6
CONTINUOUS
 10
3.495800
 20
2.516360
  0
VERTEX
  8
0
  6
CONTINUOUS
 10
4.147440
 20
2.141920
  0
VERTEX
  8
0
  6
CONTINUOUS
 10
4.137320
 20
2.111120
  0
VERTEX
  8
0
  6
CONTINUOUS
 10
3.485680
 20
2.486000
  0
VERTEX
  8
0
  6
CONTINUOUS
 10
3.495800
 20
2.516360
  0
SEQEND
  8
0
  0
SOLID
  8
0
 62
     7
 10
3.907200
 20
3.120480
 11
4.558840
 21
2.745600
 12
3.890040
 22
3.043480
 13
4.541680
 23
2.668600
  0
POLYLINE
  8
0
  6
CONTINUOUS
 66
     1
 40
0.000000
 41
0.000000
  0
VERTEX
  8
0
  6
CONTINUOUS
 10
3.907200
 20
3.120480
  0
VERTEX
  8
0
  6
CONTINUOUS
 10
4.558840
 20
2.745600
  0
VERTEX
  8
0
  6
CONTINUOUS
 10
4.541680
 20
2.668600
  0
VERTEX
  8
0
  6
CONTINUOUS
 10
3.890040
 20
3.043480
  0
VERTEX
  8
0
  6
CONTINUOUS
 10
3.907200
 20
3.120480
  0
SEQEND
  8
0
  0
SOLID
  8
0
 62
     7
 10
3.890040
 20
3.043480
 11
4.541680
 21
2.668600
 12
3.859680
 22
2.962520
 13
4.511320
 23
2.587640
  0
POLYLINE
  8
0
  6
CONTINUOUS
 66
     1
 40
0.000000
 41
0.000000
  0
VERTEX
  8
0
  6
CONTINUOUS
 10
3.890040
 20
3.043480
  0
VERTEX
  8
0
  6
CONTINUOUS
 10
4.541680
 20
2.668600
  0
VERTEX
  8
0
  6
CONTINUOUS
 10
4.511320
 20
2.587640
  0
VERTEX
  8
0
  6
CONTINUOUS
 10
3.859680
 20
2.962520
  0
VERTEX
  8
0
  6
CONTINUOUS
 10
3.890040
 20
3.043480
  0
SEQEND
  8
0
  0
SOLID
  8
0
 62
    15
 10
3.859680
 20
2.962520
 11
4.511320
 21
2.587640
 12
3.812600
 22
2.882880
 13
4.464240
 23
2.508000
  0
POLYLINE
  8
0
  6
CONTINUOUS
 66
     1
 40
0.000000
 41
0.000000
  0
VERTEX
  8
0
  6
CONTINUOUS
 10
3.859680
 20
2.962520
  0
VERTEX
  8
0
  6
CONTINUOUS
 10
4.511320
 20
2.587640
  0
VERTEX
  8
0
  6
CONTINUOUS
 10
4.464240
 20
2.508000
  0
VERTEX
  8
0
  6
CONTINUOUS
 10
3.812600
 20
2.882880
  0
VERTEX
  8
0
  6
CONTINUOUS
 10
3.859680
 20
2.962520
  0
SEQEND
  8
0
  0
SOLID
  8
0
 62
    15
 10
3.812600
 20
2.882880
 11
4.464240
 21
2.508000
 12
3.782240
 22
2.845040
 13
4.433880
 23
2.470160
  0
POLYLINE
  8
0
  6
CONTINUOUS
 66
     1
 40
0.000000
 41
0.000000
  0
VERTEX
  8
0
  6
CONTINUOUS
 10
3.812600
 20
2.882880
  0
VERTEX
  8
0
  6
CONTINUOUS
 10
4.464240
 20
2.508000
  0
VERTEX
  8
0
  6
CONTINUOUS
 10
4.433880
 20
2.470160
  0
VERTEX
  8
0
  6
CONTINUOUS
 10
3.782240
 20
2.845040
  0
VERTEX
  8
0
  6
CONTINUOUS
 10
3.812600
 20
2.882880
  0
SEQEND
  8
0
  0
SOLID
  8
0
 62
    15
 10
3.782240
 20
2.845040
 11
4.433880
 21
2.470160
 12
3.746600
 22
2.809400
 13
4.398240
 23
2.434520
  0
POLYLINE
  8
0
  6
CONTINUOUS
 66
     1
 40
0.000000
 41
0.000000
  0
VERTEX
  8
0
  6
CONTINUOUS
 10
3.782240
 20
2.845040
  0
VERTEX
  8
0
  6
CONTINUOUS
 10
4.433880
 20
2.470160
  0
VERTEX
  8
0
  6
CONTINUOUS
 10
4.398240
 20
2.434520
  0
VERTEX
  8
0
  6
CONTINUOUS
 10
3.746600
 20
2.809400
  0
VERTEX
  8
0
  6
CONTINUOUS
 10
3.782240
 20
2.845040
  0
SEQEND
  8
0
  0
SOLID
  8
0
 62
    15
 10
3.746600
 20
2.809400
 11
4.398240
 21
2.434520
 12
3.705240
 22
2.776400
 13
4.356880
 23
2.401960
  0
POLYLINE
  8
0
  6
CONTINUOUS
 66
     1
 40
0.000000
 41
0.000000
  0
VERTEX
  8
0
  6
CONTINUOUS
 10
3.746600
 20
2.809400
  0
VERTEX
  8
0
  6
CONTINUOUS
 10
4.398240
 20
2.434520
  0
VERTEX
  8
0
  6
CONTINUOUS
 10
4.356880
 20
2.401960
  0
VERTEX
  8
0
  6
CONTINUOUS
 10
3.705240
 20
2.776400
  0
VERTEX
  8
0
  6
CONTINUOUS
 10
3.746600
 20
2.809400
  0
SEQEND
  8
0
  0
SOLID
  8
0
 62
    15
 10
3.705240
 20
2.776400
 11
4.356880
 21
2.401960
 12
3.658160
 22
2.747360
 13
4.309800
 23
2.372480
  0
POLYLINE
  8
0
  6
CONTINUOUS
 66
     1
 40
0.000000
 41
0.000000
  0
VERTEX
  8
0
  6
CONTINUOUS
 10
3.705240
 20
2.776400
  0
VERTEX
  8
0
  6
CONTINUOUS
 10
4.356880
 20
2.401960
  0
VERTEX
  8
0
  6
CONTINUOUS
 10
4.309800
 20
2.372480
  0
VERTEX
  8
0
  6
CONTINUOUS
 10
3.658160
 20
2.747360
  0
VERTEX
  8
0
  6
CONTINUOUS
 10
3.705240
 20
2.776400
  0
SEQEND
  8
0
  0
SOLID
  8
0
 62
    15
 10
3.658160
 20
2.747360
 11
4.309800
 21
2.372480
 12
3.604920
 22
2.722280
 13
4.256560
 23
2.347400
  0
POLYLINE
  8
0
  6
CONTINUOUS
 66
     1
 40
0.000000
 41
0.000000
  0
VERTEX
  8
0
  6
CONTINUOUS
 10
3.658160
 20
2.747360
  0
VERTEX
  8
0
  6
CONTINUOUS
 10
4.309800
 20
2.372480
  0
VERTEX
  8
0
  6
CONTINUOUS
 10
4.256560
 20
2.347400
  0
VERTEX
  8
0
  6
CONTINUOUS
 10
3.604920
 20
2.722280
  0
VERTEX
  8
0
  6
CONTINUOUS
 10
3.658160
 20
2.747360
  0
SEQEND
  8
0
  0
SOLID
  8
0
 62
    15
 10
3.604920
 20
2.722280
 11
4.256560
 21
2.347400
 12
3.545080
 22
2.702040
 13
4.196720
 23
2.327160
  0
POLYLINE
  8
0
  6
CONTINUOUS
 66
     1
 40
0.000000
 41
0.000000
  0
VERTEX
  8
0
  6
CONTINUOUS
 10
3.604920
 20
2.722280
  0
VERTEX
  8
0
  6
CONTINUOUS
 10
4.256560
 20
2.347400
  0
VERTEX
  8
0
  6
CONTINUOUS
 10
4.196720
 20
2.327160
  0
VERTEX
  8
0
  6
CONTINUOUS
 10
3.545080
 20
2.702040
  0
VERTEX
  8
0
  6
CONTINUOUS
 10
3.604920
 20
2.722280
  0
SEQEND
  8
0
  0
SOLID
  8
0
 62
    15
 10
3.545080
 20
2.702040
 11
4.196720
 21
2.327160
 12
3.478200
 22
2.687080
 13
4.129840
 23
2.312200
  0
POLYLINE
  8
0
  6
CONTINUOUS
 66
     1
 40
0.000000
 41
0.000000
  0
VERTEX
  8
0
  6
CONTINUOUS
 10
3.545080
 20
2.702040
  0
VERTEX
  8
0
  6
CONTINUOUS
 10
4.196720
 20
2.327160
  0
VERTEX
  8
0
  6
CONTINUOUS
 10
4.129840
 20
2.312200
  0
VERTEX
  8
0
  6
CONTINUOUS
 10
3.478200
 20
2.687080
  0
VERTEX
  8
0
  6
CONTINUOUS
 10
3.545080
 20
2.702040
  0
SEQEND
  8
0
  0
SOLID
  8
0
 62
    15
 10
3.478200
 20
2.687080
 11
4.129840
 21
2.312200
 12
3.403840
 22
2.678280
 13
4.055480
 23
2.303840
  0
POLYLINE
  8
0
  6
CONTINUOUS
 66
     1
 40
0.000000
 41
0.000000
  0
VERTEX
  8
0
  6
CONTINUOUS
 10
3.478200
 20
2.687080
  0
VERTEX
  8
0
  6
CONTINUOUS
 10
4.129840
 20
2.312200
  0
VERTEX
  8
0
  6
CONTINUOUS
 10
4.055480
 20
2.303840
  0
VERTEX
  8
0
  6
CONTINUOUS
 10
3.403840
 20
2.678280
  0
VERTEX
  8
0
  6
CONTINUOUS
 10
3.478200
 20
2.687080
  0
SEQEND
  8
0
  0
SOLID
  8
0
 62
     7
 10
3.403840
 20
2.678280
 11
4.055480
 21
2.303840
 12
3.403840
 22
2.625480
 13
4.055480
 23
2.251040
  0
POLYLINE
  8
0
  6
CONTINUOUS
 66
     1
 40
0.000000
 41
0.000000
  0
VERTEX
  8
0
  6
CONTINUOUS
 10
3.403840
 20
2.678280
  0
VERTEX
  8
0
  6
CONTINUOUS
 10
4.055480
 20
2.303840
  0
VERTEX
  8
0
  6
CONTINUOUS
 10
4.055480
 20
2.251040
  0
VERTEX
  8
0
  6
CONTINUOUS
 10
3.403840
 20
2.625480
  0
VERTEX
  8
0
  6
CONTINUOUS
 10
3.403840
 20
2.678280
  0
SEQEND
  8
0
  0
SOLID
  8
0
 62
    15
 10
3.450480
 20
2.605680
 11
4.102120
 21
2.230800
 12
3.479960
 22
2.578840
 13
4.131600
 23
2.204400
  0
POLYLINE
  8
0
  6
CONTINUOUS
 66
     1
 40
0.000000
 41
0.000000
  0
VERTEX
  8
0
  6
CONTINUOUS
 10
3.450480
 20
2.605680
  0
VERTEX
  8
0
  6
CONTINUOUS
 10
4.102120
 20
2.230800
  0
VERTEX
  8
0
  6
CONTINUOUS
 10
4.131600
 20
2.204400
  0
VERTEX
  8
0
  6
CONTINUOUS
 10
3.479960
 20
2.578840
  0
VERTEX
  8
0
  6
CONTINUOUS
 10
3.450480
 20
2.605680
  0
SEQEND
  8
0
  0
SOLID
  8
0
 62
    15
 10
3.479960
 20
2.578840
 11
4.131600
 21
2.204400
 12
3.494480
 22
2.548480
 13
4.146120
 23
2.173600
  0
POLYLINE
  8
0
  6
CONTINUOUS
 66
     1
 40
0.000000
 41
0.000000
  0
VERTEX
  8
0
  6
CONTINUOUS
 10
3.479960
 20
2.578840
  0
VERTEX
  8
0
  6
CONTINUOUS
 10
4.131600
 20
2.204400
  0
VERTEX
  8
0
  6
CONTINUOUS
 10
4.146120
 20
2.173600
  0
VERTEX
  8
0
  6
CONTINUOUS
 10
3.494480
 20
2.548480
  0
VERTEX
  8
0
  6
CONTINUOUS
 10
3.479960
 20
2.578840
  0
SEQEND
  8
0
  0
SOLID
  8
0
 62
     7
 10
3.494480
 20
2.548480
 11
4.146120
 21
2.173600
 12
3.495800
 22
2.516360
 13
4.147440
 23
2.141920
  0
POLYLINE
  8
0
  6
CONTINUOUS
 66
     1
 40
0.000000
 41
0.000000
  0
VERTEX
  8
0
  6
CONTINUOUS
 10
3.494480
 20
2.548480
  0
VERTEX
  8
0
  6
CONTINUOUS
 10
4.146120
 20
2.173600
  0
VERTEX
  8
0
  6
CONTINUOUS
 10
4.147440
 20
2.141920
  0
VERTEX
  8
0
  6
CONTINUOUS
 10
3.495800
 20
2.516360
  0
VERTEX
  8
0
  6
CONTINUOUS
 10
3.494480
 20
2.548480
  0
SEQEND
  8
0
  0
SOLID
  8
0
 62
    15
 10
3.913800
 20
3.188240
 11
4.565440
 21
2.813360
 12
3.907200
 22
3.120480
 13
4.558840
 23
2.745600
  0
POLYLINE
  8
0
  6
CONTINUOUS
 66
     1
 40
0.000000
 41
0.000000
  0
VERTEX
  8
0
  6
CONTINUOUS
 10
3.913800
 20
3.188240
  0
VERTEX
  8
0
  6
CONTINUOUS
 10
4.565440
 20
2.813360
  0
VERTEX
  8
0
  6
CONTINUOUS
 10
4.558840
 20
2.745600
  0
VERTEX
  8
0
  6
CONTINUOUS
 10
3.907200
 20
3.120480
  0
VERTEX
  8
0
  6
CONTINUOUS
 10
3.913800
 20
3.188240
  0
SEQEND
  8
0
  0
SOLID
  8
0
 62
    15
 10
3.485680
 20
2.486000
 11
4.137320
 21
2.111120
 12
3.465440
 22
2.459160
 13
4.117080
 23
2.084720
  0
POLYLINE
  8
0
  6
CONTINUOUS
 66
     1
 40
0.000000
 41
0.000000
  0
VERTEX
  8
0
  6
CONTINUOUS
 10
3.485680
 20
2.486000
  0
VERTEX
  8
0
  6
CONTINUOUS
 10
4.137320
 20
2.111120
  0
VERTEX
  8
0
  6
CONTINUOUS
 10
4.117080
 20
2.084720
  0
VERTEX
  8
0
  6
CONTINUOUS
 10
3.465440
 20
2.459160
  0
VERTEX
  8
0
  6
CONTINUOUS
 10
3.485680
 20
2.486000
  0
SEQEND
  8
0
  0
SOLID
  8
0
 62
    15
 10
3.465440
 20
2.459160
 11
4.117080
 21
2.084720
 12
3.437720
 22
2.438920
 13
4.089360
 23
2.064480
  0
POLYLINE
  8
0
  6
CONTINUOUS
 66
     1
 40
0.000000
 41
0.000000
  0
VERTEX
  8
0
  6
CONTINUOUS
 10
3.465440
 20
2.459160
  0
VERTEX
  8
0
  6
CONTINUOUS
 10
4.117080
 20
2.084720
  0
VERTEX
  8
0
  6
CONTINUOUS
 10
4.089360
 20
2.064480
  0
VERTEX
  8
0
  6
CONTINUOUS
 10
3.437720
 20
2.438920
  0
VERTEX
  8
0
  6
CONTINUOUS
 10
3.465440
 20
2.459160
  0
SEQEND
  8
0
  0
SOLID
  8
0
 62
    15
 10
3.437720
 20
2.438920
 11
4.089360
 21
2.064480
 12
3.403400
 22
2.427920
 13
4.055040
 23
2.053480
  0
POLYLINE
  8
0
  6
CONTINUOUS
 66
     1
 40
0.000000
 41
0.000000
  0
VERTEX
  8
0
  6
CONTINUOUS
 10
3.437720
 20
2.438920
  0
VERTEX
  8
0
  6
CONTINUOUS
 10
4.089360
 20
2.064480
  0
VERTEX
  8
0
  6
CONTINUOUS
 10
4.055040
 20
2.053480
  0
VERTEX
  8
0
  6
CONTINUOUS
 10
3.403400
 20
2.427920
  0
VERTEX
  8
0
  6
CONTINUOUS
 10
3.437720
 20
2.438920
  0
SEQEND
  8
0
  0
SOLID
  8
0
 62
     7
 10
3.403400
 20
2.427920
 11
4.055040
 21
2.053480
 12
3.403400
 22
2.368080
 13
4.055040
 23
1.993200
  0
POLYLINE
  8
0
  6
CONTINUOUS
 66
     1
 40
0.000000
 41
0.000000
  0
VERTEX
  8
0
  6
CONTINUOUS
 10
3.403400
 20
2.427920
  0
VERTEX
  8
0
  6
CONTINUOUS
 10
4.055040
 20
2.053480
  0
VERTEX
  8
0
  6
CONTINUOUS
 10
4.055040
 20
1.993200
  0
VERTEX
  8
0
  6
CONTINUOUS
 10
3.403400
 20
2.368080
  0
VERTEX
  8
0
  6
CONTINUOUS
 10
3.403400
 20
2.427920
  0
SEQEND
  8
0
  0
SOLID
  8
0
 62
    15
 10
3.403400
 20
2.368080
 11
4.055040
 21
1.993200
 12
3.333880
 22
2.361040
 13
3.985520
 23
1.986160
  0
POLYLINE
  8
0
  6
CONTINUOUS
 66
     1
 40
0.000000
 41
0.000000
  0
VERTEX
  8
0
  6
CONTINUOUS
 10
3.403400
 20
2.368080
  0
VERTEX
  8
0
  6
CONTINUOUS
 10
4.055040
 20
1.993200
  0
VERTEX
  8
0
  6
CONTINUOUS
 10
3.985520
 20
1.986160
  0
VERTEX
  8
0
  6
CONTINUOUS
 10
3.333880
 20
2.361040
  0
VERTEX
  8
0
  6
CONTINUOUS
 10
3.403400
 20
2.368080
  0
SEQEND
  8
0
  0
SOLID
  8
0
 62
    15
 10
3.333880
 20
2.361040
 11
3.985520
 21
1.986160
 12
3.267000
 22
2.343000
 13
3.918640
 23
1.968120
  0
POLYLINE
  8
0
  6
CONTINUOUS
 66
     1
 40
0.000000
 41
0.000000
  0
VERTEX
  8
0
  6
CONTINUOUS
 10
3.333880
 20
2.361040
  0
VERTEX
  8
0
  6
CONTINUOUS
 10
3.985520
 20
1.986160
  0
VERTEX
  8
0
  6
CONTINUOUS
 10
3.918640
 20
1.968120
  0
VERTEX
  8
0
  6
CONTINUOUS
 10
3.267000
 20
2.343000
  0
VERTEX
  8
0
  6
CONTINUOUS
 10
3.333880
 20
2.361040
  0
SEQEND
  8
0
  0
SOLID
  8
0
 62
    15
 10
3.267000
 20
2.343000
 11
3.918640
 21
1.968120
 12
3.204960
 22
2.313520
 13
3.856600
 23
1.939080
  0
POLYLINE
  8
0
  6
CONTINUOUS
 66
     1
 40
0.000000
 41
0.000000
  0
VERTEX
  8
0
  6
CONTINUOUS
 10
3.267000
 20
2.343000
  0
VERTEX
  8
0
  6
CONTINUOUS
 10
3.918640
 20
1.968120
  0
VERTEX
  8
0
  6
CONTINUOUS
 10
3.856600
 20
1.939080
  0
VERTEX
  8
0
  6
CONTINUOUS
 10
3.204960
 20
2.313520
  0
VERTEX
  8
0
  6
CONTINUOUS
 10
3.267000
 20
2.343000
  0
SEQEND
  8
0
  0
SOLID
  8
0
 62
    15
 10
3.204960
 20
2.313520
 11
3.856600
 21
1.939080
 12
3.149080
 22
2.273920
 13
3.800720
 23
1.899040
  0
POLYLINE
  8
0
  6
CONTINUOUS
 66
     1
 40
0.000000
 41
0.000000
  0
VERTEX
  8
0
  6
CONTINUOUS
 10
3.204960
 20
2.313520
  0
VERTEX
  8
0
  6
CONTINUOUS
 10
3.856600
 20
1.939080
  0
VERTEX
  8
0
  6
CONTINUOUS
 10
3.800720
 20
1.899040
  0
VERTEX
  8
0
  6
CONTINUOUS
 10
3.149080
 20
2.273920
  0
VERTEX
  8
0
  6
CONTINUOUS
 10
3.204960
 20
2.313520
  0
SEQEND
  8
0
  0
SOLID
  8
0
 62
    15
 10
3.149080
 20
2.273920
 11
3.800720
 21
1.899040
 12
3.102000
 22
2.223320
 13
3.753640
 23
1.848440
  0
POLYLINE
  8
0
  6
CONTINUOUS
 66
     1
 40
0.000000
 41
0.000000
  0
VERTEX
  8
0
  6
CONTINUOUS
 10
3.149080
 20
2.273920
  0
VERTEX
  8
0
  6
CONTINUOUS
 10
3.800720
 20
1.899040
  0
VERTEX
  8
0
  6
CONTINUOUS
 10
3.753640
 20
1.848440
  0
VERTEX
  8
0
  6
CONTINUOUS
 10
3.102000
 20
2.223320
  0
VERTEX
  8
0
  6
CONTINUOUS
 10
3.149080
 20
2.273920
  0
SEQEND
  8
0
  0
SOLID
  8
0
 62
    15
 10
3.102000
 20
2.223320
 11
3.753640
 21
1.848440
 12
3.064600
 22
2.162160
 13
3.716240
 23
1.787720
  0
POLYLINE
  8
0
  6
CONTINUOUS
 66
     1
 40
0.000000
 41
0.000000
  0
VERTEX
  8
0
  6
CONTINUOUS
 10
3.102000
 20
2.223320
  0
VERTEX
  8
0
  6
CONTINUOUS
 10
3.753640
 20
1.848440
  0
VERTEX
  8
0
  6
CONTINUOUS
 10
3.716240
 20
1.787720
  0
VERTEX
  8
0
  6
CONTINUOUS
 10
3.064600
 20
2.162160
  0
VERTEX
  8
0
  6
CONTINUOUS
 10
3.102000
 20
2.223320
  0
SEQEND
  8
0
  0
SOLID
  8
0
 62
     7
 10
3.064600
 20
2.162160
 11
3.716240
 21
1.787720
 12
3.039960
 22
2.091320
 13
3.691160
 23
1.716440
  0
POLYLINE
  8
0
  6
CONTINUOUS
 66
     1
 40
0.000000
 41
0.000000
  0
VERTEX
  8
0
  6
CONTINUOUS
 10
3.064600
 20
2.162160
  0
VERTEX
  8
0
  6
CONTINUOUS
 10
3.716240
 20
1.787720
  0
VERTEX
  8
0
  6
CONTINUOUS
 10
3.691160
 20
1.716440
  0
VERTEX
  8
0
  6
CONTINUOUS
 10
3.039960
 20
2.091320
  0
VERTEX
  8
0
  6
CONTINUOUS
 10
3.064600
 20
2.162160
  0
SEQEND
  8
0
  0
SOLID
  8
0
 62
     7
 10
3.039960
 20
2.091320
 11
3.691160
 21
1.716440
 12
3.028520
 22
2.009920
 13
3.680160
 23
1.635040
  0
POLYLINE
  8
0
  6
CONTINUOUS
 66
     1
 40
0.000000
 41
0.000000
  0
VERTEX
  8
0
  6
CONTINUOUS
 10
3.039960
 20
2.091320
  0
VERTEX
  8
0
  6
CONTINUOUS
 10
3.691160
 20
1.716440
  0
VERTEX
  8
0
  6
CONTINUOUS
 10
3.680160
 20
1.635040
  0
VERTEX
  8
0
  6
CONTINUOUS
 10
3.028520
 20
2.009920
  0
VERTEX
  8
0
  6
CONTINUOUS
 10
3.039960
 20
2.091320
  0
SEQEND
  8
0
  0
SOLID
  8
0
 62
    15
 10
3.028520
 20
2.009920
 11
3.680160
 21
1.635040
 12
2.896080
 22
2.009920
 13
3.547720
 23
1.635040
  0
POLYLINE
  8
0
  6
CONTINUOUS
 66
     1
 40
0.000000
 41
0.000000
  0
VERTEX
  8
0
  6
CONTINUOUS
 10
3.028520
 20
2.009920
  0
VERTEX
  8
0
  6
CONTINUOUS
 10
3.680160
 20
1.635040
  0
VERTEX
  8
0
  6
CONTINUOUS
 10
3.547720
 20
1.635040
  0
VERTEX
  8
0
  6
CONTINUOUS
 10
2.896080
 20
2.009920
  0
VERTEX
  8
0
  6
CONTINUOUS
 10
3.028520
 20
2.009920
  0
SEQEND
  8
0
  0
SOLID
  8
0
 62
    15
 10
4.030840
 20
3.633520
 11
4.682480
 21
3.259080
 12
4.030840
 22
3.190440
 13
4.682480
 23
2.816000
  0
POLYLINE
  8
0
  6
CONTINUOUS
 66
     1
 40
0.000000
 41
0.000000
  0
VERTEX
  8
0
  6
CONTINUOUS
 10
4.030840
 20
3.633520
  0
VERTEX
  8
0
  6
CONTINUOUS
 10
4.682480
 20
3.259080
  0
VERTEX
  8
0
  6
CONTINUOUS
 10
4.682480
 20
2.816000
  0
VERTEX
  8
0
  6
CONTINUOUS
 10
4.030840
 20
3.190440
  0
VERTEX
  8
0
  6
CONTINUOUS
 10
4.030840
 20
3.633520
  0
SEQEND
  8
0
  0
SOLID
  8
0
 62
    15
 10
4.030840
 20
3.190440
 11
4.682480
 21
2.816000
 12
3.913800
 22
3.190440
 13
4.565440
 23
2.816000
  0
POLYLINE
  8
0
  6
CONTINUOUS
 66
     1
 40
0.000000
 41
0.000000
  0
VERTEX
  8
0
  6
CONTINUOUS
 10
4.030840
 20
3.190440
  0
VERTEX
  8
0
  6
CONTINUOUS
 10
4.682480
 20
2.816000
  0
VERTEX
  8
0
  6
CONTINUOUS
 10
4.565440
 20
2.816000
  0
VERTEX
  8
0
  6
CONTINUOUS
 10
3.913800
 20
3.190440
  0
VERTEX
  8
0
  6
CONTINUOUS
 10
4.030840
 20
3.190440
  0
SEQEND
  8
0
  0
SOLID
  8
0
 62
    15
 10
3.913800
 20
3.190440
 11
4.565440
 21
2.816000
 12
3.913800
 22
3.188240
 13
4.565440
 23
2.813360
  0
POLYLINE
  8
0
  6
CONTINUOUS
 66
     1
 40
0.000000
 41
0.000000
  0
VERTEX
  8
0
  6
CONTINUOUS
 10
3.913800
 20
3.190440
  0
VERTEX
  8
0
  6
CONTINUOUS
 10
4.565440
 20
2.816000
  0
VERTEX
  8
0
  6
CONTINUOUS
 10
4.565440
 20
2.813360
  0
VERTEX
  8
0
  6
CONTINUOUS
 10
3.913800
 20
3.188240
  0
VERTEX
  8
0
  6
CONTINUOUS
 10
3.913800
 20
3.190440
  0
SEQEND
  8
0
  0
POLYLINE
  8
0
  6
CONTINUOUS
 66
     1
 40
0.000000
 41
0.000000
  0
VERTEX
  8
0
  6
CONTINUOUS
 10
3.913800
 20
3.188240
  0
VERTEX
  8
0
  6
CONTINUOUS
 10
3.907200
 20
3.120480
  0
VERTEX
  8
0
  6
CONTINUOUS
 10
3.890040
 20
3.043480
  0
VERTEX
  8
0
  6
CONTINUOUS
 10
3.859680
 20
2.962520
  0
VERTEX
  8
0
  6
CONTINUOUS
 10
3.812600
 20
2.882880
  0
VERTEX
  8
0
  6
CONTINUOUS
 10
3.782240
 20
2.845040
  0
VERTEX
  8
0
  6
CONTINUOUS
 10
3.746600
 20
2.809400
  0
VERTEX
  8
0
  6
CONTINUOUS
 10
3.705240
 20
2.776400
  0
VERTEX
  8
0
  6
CONTINUOUS
 10
3.658160
 20
2.747360
  0
VERTEX
  8
0
  6
CONTINUOUS
 10
3.604920
 20
2.722280
  0
VERTEX
  8
0
  6
CONTINUOUS
 10
3.545080
 20
2.702040
  0
VERTEX
  8
0
  6
CONTINUOUS
 10
3.478200
 20
2.687080
  0
VERTEX
  8
0
  6
CONTINUOUS
 10
3.403840
 20
2.678280
  0
VERTEX
  8
0
  6
CONTINUOUS
 10
3.403840
 20
2.625480
  0
VERTEX
  8
0
  6
CONTINUOUS
 10
3.450480
 20
2.605680
  0
VERTEX
  8
0
  6
CONTINUOUS
 10
3.479960
 20
2.578840
  0
VERTEX
  8
0
  6
CONTINUOUS
 10
3.494480
 20
2.548480
  0
VERTEX
  8
0
  6
CONTINUOUS
 10
3.495800
 20
2.516360
  0
VERTEX
  8
0
  6
CONTINUOUS
 10
3.485680
 20
2.486000
  0
VERTEX
  8
0
  6
CONTINUOUS
 10
3.465440
 20
2.459160
  0
VERTEX
  8
0
  6
CONTINUOUS
 10
3.437720
 20
2.438920
  0
VERTEX
  8
0
  6
CONTINUOUS
 10
3.403400
 20
2.427920
  0
VERTEX
  8
0
  6
CONTINUOUS
 10
3.403400
 20
2.368080
  0
VERTEX
  8
0
  6
CONTINUOUS
 10
3.333880
 20
2.361040
  0
VERTEX
  8
0
  6
CONTINUOUS
 10
3.267000
 20
2.343000
  0
VERTEX
  8
0
  6
CONTINUOUS
 10
3.204960
 20
2.313520
  0
VERTEX
  8
0
  6
CONTINUOUS
 10
3.149080
 20
2.273920
  0
VERTEX
  8
0
  6
CONTINUOUS
 10
3.102000
 20
2.223320
  0
VERTEX
  8
0
  6
CONTINUOUS
 10
3.064600
 20
2.162160
  0
VERTEX
  8
0
  6
CONTINUOUS
 10
3.039960
 20
2.091320
  0
VERTEX
  8
0
  6
CONTINUOUS
 10
3.028520
 20
2.009920
  0
VERTEX
  8
0
  6
CONTINUOUS
 10
2.896080
 20
2.009920
  0
VERTEX
  8
0
  6
CONTINUOUS
 10
2.896080
 20
3.633520
  0
VERTEX
  8
0
  6
CONTINUOUS
 10
4.030840
 20
3.633520
  0
VERTEX
  8
0
  6
CONTINUOUS
 10
4.030840
 20
3.190440
  0
VERTEX
  8
0
  6
CONTINUOUS
 10
3.913800
 20
3.190440
  0
VERTEX
  8
0
  6
CONTINUOUS
 10
3.913800
 20
3.188240
  0
SEQEND
  8
0
  0
SOLID
  8
0
 62
    15
 10
4.675440
 20
3.858360
 11
5.326200
 21
3.492280
 12
4.652560
 22
3.817880
 13
5.303320
 23
3.451800
  0
POLYLINE
  8
0
  6
CONTINUOUS
 66
     1
 40
0.000000
 41
0.000000
  0
VERTEX
  8
0
  6
CONTINUOUS
 10
4.675440
 20
3.858360
  0
VERTEX
  8
0
  6
CONTINUOUS
 10
5.326200
 20
3.492280
  0
VERTEX
  8
0
  6
CONTINUOUS
 10
5.303320
 20
3.451800
  0
VERTEX
  8
0
  6
CONTINUOUS
 10
4.652560
 20
3.817880
  0
VERTEX
  8
0
  6
CONTINUOUS
 10
4.675440
 20
3.858360
  0
SEQEND
  8
0
  0
SOLID
  8
0
 62
    15
 10
5.308160
 20
4.545200
 11
5.958920
 21
4.179120
 12
5.261080
 22
4.330480
 13
5.911840
 23
3.964400
  0
POLYLINE
  8
0
  6
CONTINUOUS
 66
     1
 40
0.000000
 41
0.000000
  0
VERTEX
  8
0
  6
CONTINUOUS
 10
5.308160
 20
4.545200
  0
VERTEX
  8
0
  6
CONTINUOUS
 10
5.958920
 20
4.179120
  0
VERTEX
  8
0
  6
CONTINUOUS
 10
5.911840
 20
3.964400
  0
VERTEX
  8
0
  6
CONTINUOUS
 10
5.261080
 20
4.330480
  0
VERTEX
  8
0
  6
CONTINUOUS
 10
5.308160
 20
4.545200
  0
SEQEND
  8
0
  0
SOLID
  8
0
 62
    15
 10
5.261080
 20
4.330480
 11
5.911840
 21
3.964400
 12
5.256240
 22
4.325640
 13
5.907000
 23
3.959560
  0
POLYLINE
  8
0
  6
CONTINUOUS
 66
     1
 40
0.000000
 41
0.000000
  0
VERTEX
  8
0
  6
CONTINUOUS
 10
5.261080
 20
4.330480
  0
VERTEX
  8
0
  6
CONTINUOUS
 10
5.911840
 20
3.964400
  0
VERTEX
  8
0
  6
CONTINUOUS
 10
5.907000
 20
3.959560
  0
VERTEX
  8
0
  6
CONTINUOUS
 10
5.256240
 20
4.325640
  0
VERTEX
  8
0
  6
CONTINUOUS
 10
5.261080
 20
4.330480
  0
SEQEND
  8
0
  0
SOLID
  8
0
 62
    15
 10
5.256240
 20
4.325640
 11
5.907000
 21
3.959560
 12
5.187160
 22
4.304960
 13
5.838360
 23
3.938880
  0
POLYLINE
  8
0
  6
CONTINUOUS
 66
     1
 40
0.000000
 41
0.000000
  0
VERTEX
  8
0
  6
CONTINUOUS
 10
5.256240
 20
4.325640
  0
VERTEX
  8
0
  6
CONTINUOUS
 10
5.907000
 20
3.959560
  0
VERTEX
  8
0
  6
CONTINUOUS
 10
5.838360
 20
3.938880
  0
VERTEX
  8
0
  6
CONTINUOUS
 10
5.187160
 20
4.304960
  0
VERTEX
  8
0
  6
CONTINUOUS
 10
5.256240
 20
4.325640
  0
SEQEND
  8
0
  0
SOLID
  8
0
 62
    15
 10
5.187160
 20
4.304960
 11
5.838360
 21
3.938880
 12
5.124240
 22
4.281640
 13
5.775000
 23
3.915560
  0
POLYLINE
  8
0
  6
CONTINUOUS
 66
     1
 40
0.000000
 41
0.000000
  0
VERTEX
  8
0
  6
CONTINUOUS
 10
5.187160
 20
4.304960
  0
VERTEX
  8
0
  6
CONTINUOUS
 10
5.838360
 20
3.938880
  0
VERTEX
  8
0
  6
CONTINUOUS
 10
5.775000
 20
3.915560
  0
VERTEX
  8
0
  6
CONTINUOUS
 10
5.124240
 20
4.281640
  0
VERTEX
  8
0
  6
CONTINUOUS
 10
5.187160
 20
4.304960
  0
SEQEND
  8
0
  0
SOLID
  8
0
 62
    15
 10
5.124240
 20
4.281640
 11
5.775000
 21
3.915560
 12
5.013360
 22
4.227080
 13
5.664120
 23
3.861000
  0
POLYLINE
  8
0
  6
CONTINUOUS
 66
     1
 40
0.000000
 41
0.000000
  0
VERTEX
  8
0
  6
CONTINUOUS
 10
5.124240
 20
4.281640
  0
VERTEX
  8
0
  6
CONTINUOUS
 10
5.775000
 20
3.915560
  0
VERTEX
  8
0
  6
CONTINUOUS
 10
5.664120
 20
3.861000
  0
VERTEX
  8
0
  6
CONTINUOUS
 10
5.013360
 20
4.227080
  0
VERTEX
  8
0
  6
CONTINUOUS
 10
5.124240
 20
4.281640
  0
SEQEND
  8
0
  0
SOLID
  8
0
 62
    15
 10
5.013360
 20
4.227080
 11
5.664120
 21
3.861000
 12
4.920960
 22
4.164160
 13
5.572160
 23
3.798080
  0
POLYLINE
  8
0
  6
CONTINUOUS
 66
     1
 40
0.000000
 41
0.000000
  0
VERTEX
  8
0
  6
CONTINUOUS
 10
5.013360
 20
4.227080
  0
VERTEX
  8
0
  6
CONTINUOUS
 10
5.664120
 20
3.861000
  0
VERTEX
  8
0
  6
CONTINUOUS
 10
5.572160
 20
3.798080
  0
VERTEX
  8
0
  6
CONTINUOUS
 10
4.920960
 20
4.164160
  0
VERTEX
  8
0
  6
CONTINUOUS
 10
5.013360
 20
4.227080
  0
SEQEND
  8
0
  0
SOLID
  8
0
 62
    15
 10
4.920960
 20
4.164160
 11
5.572160
 21
3.798080
 12
4.843960
 22
4.093760
 13
5.495160
 23
3.727680
  0
POLYLINE
  8
0
  6
CONTINUOUS
 66
     1
 40
0.000000
 41
0.000000
  0
VERTEX
  8
0
  6
CONTINUOUS
 10
4.920960
 20
4.164160
  0
VERTEX
  8
0
  6
CONTINUOUS
 10
5.572160
 20
3.798080
  0
VERTEX
  8
0
  6
CONTINUOUS
 10
5.495160
 20
3.727680
  0
VERTEX
  8
0
  6
CONTINUOUS
 10
4.843960
 20
4.093760
  0
VERTEX
  8
0
  6
CONTINUOUS
 10
4.920960
 20
4.164160
  0
SEQEND
  8
0
  0
SOLID
  8
0
 62
    15
 10
4.843960
 20
4.093760
 11
5.495160
 21
3.727680
 12
4.779720
 22
4.018520
 13
5.430480
 23
3.652440
  0
POLYLINE
  8
0
  6
CONTINUOUS
 66
     1
 40
0.000000
 41
0.000000
  0
VERTEX
  8
0
  6
CONTINUOUS
 10
4.843960
 20
4.093760
  0
VERTEX
  8
0
  6
CONTINUOUS
 10
5.495160
 20
3.727680
  0
VERTEX
  8
0
  6
CONTINUOUS
 10
5.430480
 20
3.652440
  0
VERTEX
  8
0
  6
CONTINUOUS
 10
4.779720
 20
4.018520
  0
VERTEX
  8
0
  6
CONTINUOUS
 10
4.843960
 20
4.093760
  0
SEQEND
  8
0
  0
SOLID
  8
0
 62
    15
 10
4.779720
 20
4.018520
 11
5.430480
 21
3.652440
 12
4.724280
 22
3.939760
 13
5.375040
 23
3.573240
  0
POLYLINE
  8
0
  6
CONTINUOUS
 66
     1
 40
0.000000
 41
0.000000
  0
VERTEX
  8
0
  6
CONTINUOUS
 10
4.779720
 20
4.018520
  0
VERTEX
  8
0
  6
CONTINUOUS
 10
5.430480
 20
3.652440
  0
VERTEX
  8
0
  6
CONTINUOUS
 10
5.375040
 20
3.573240
  0
VERTEX
  8
0
  6
CONTINUOUS
 10
4.724280
 20
3.939760
  0
VERTEX
  8
0
  6
CONTINUOUS
 10
4.779720
 20
4.018520
  0
SEQEND
  8
0
  0
SOLID
  8
0
 62
    15
 10
4.724280
 20
3.939760
 11
5.375040
 21
3.573240
 12
4.675440
 22
3.858360
 13
5.326200
 23
3.492280
  0
POLYLINE
  8
0
  6
CONTINUOUS
 66
     1
 40
0.000000
 41
0.000000
  0
VERTEX
  8
0
  6
CONTINUOUS
 10
4.724280
 20
3.939760
  0
VERTEX
  8
0
  6
CONTINUOUS
 10
5.375040
 20
3.573240
  0
VERTEX
  8
0
  6
CONTINUOUS
 10
5.326200
 20
3.492280
  0
VERTEX
  8
0
  6
CONTINUOUS
 10
4.675440
 20
3.858360
  0
VERTEX
  8
0
  6
CONTINUOUS
 10
4.724280
 20
3.939760
  0
SEQEND
  8
0
  0
SOLID
  8
0
 62
    15
 10
4.029520
 20
3.632640
 11
4.680720
 21
3.266120
 12
3.764640
 22
3.632640
 13
4.415400
 23
3.266120
  0
POLYLINE
  8
0
  6
CONTINUOUS
 66
     1
 40
0.000000
 41
0.000000
  0
VERTEX
  8
0
  6
CONTINUOUS
 10
4.029520
 20
3.632640
  0
VERTEX
  8
0
  6
CONTINUOUS
 10
4.680720
 20
3.266120
  0
VERTEX
  8
0
  6
CONTINUOUS
 10
4.415400
 20
3.266120
  0
VERTEX
  8
0
  6
CONTINUOUS
 10
3.764640
 20
3.632640
  0
VERTEX
  8
0
  6
CONTINUOUS
 10
4.029520
 20
3.632640
  0
SEQEND
  8
0
  0
SOLID
  8
0
 62
    15
 10
4.652560
 20
3.817880
 11
5.303320
 21
3.451800
 12
4.641120
 22
3.797640
 13
5.292320
 23
3.431560
  0
POLYLINE
  8
0
  6
CONTINUOUS
 66
     1
 40
0.000000
 41
0.000000
  0
VERTEX
  8
0
  6
CONTINUOUS
 10
4.652560
 20
3.817880
  0
VERTEX
  8
0
  6
CONTINUOUS
 10
5.303320
 20
3.451800
  0
VERTEX
  8
0
  6
CONTINUOUS
 10
5.292320
 20
3.431560
  0
VERTEX
  8
0
  6
CONTINUOUS
 10
4.641120
 20
3.797640
  0
VERTEX
  8
0
  6
CONTINUOUS
 10
4.652560
 20
3.817880
  0
SEQEND
  8
0
  0
SOLID
  8
0
 62
    15
 10
4.641120
 20
3.797640
 11
5.292320
 21
3.431560
 12
4.630120
 22
3.777400
 13
5.280880
 23
3.411320
  0
POLYLINE
  8
0
  6
CONTINUOUS
 66
     1
 40
0.000000
 41
0.000000
  0
VERTEX
  8
0
  6
CONTINUOUS
 10
4.641120
 20
3.797640
  0
VERTEX
  8
0
  6
CONTINUOUS
 10
5.292320
 20
3.431560
  0
VERTEX
  8
0
  6
CONTINUOUS
 10
5.280880
 20
3.411320
  0
VERTEX
  8
0
  6
CONTINUOUS
 10
4.630120
 20
3.777400
  0
VERTEX
  8
0
  6
CONTINUOUS
 10
4.641120
 20
3.797640
  0
SEQEND
  8
0
  0
SOLID
  8
0
 62
    15
 10
4.630120
 20
3.777400
 11
5.280880
 21
3.411320
 12
4.537280
 22
3.620760
 13
5.188040
 23
3.254680
  0
POLYLINE
  8
0
  6
CONTINUOUS
 66
     1
 40
0.000000
 41
0.000000
  0
VERTEX
  8
0
  6
CONTINUOUS
 10
4.630120
 20
3.777400
  0
VERTEX
  8
0
  6
CONTINUOUS
 10
5.280880
 20
3.411320
  0
VERTEX
  8
0
  6
CONTINUOUS
 10
5.188040
 20
3.254680
  0
VERTEX
  8
0
  6
CONTINUOUS
 10
4.537280
 20
3.620760
  0
VERTEX
  8
0
  6
CONTINUOUS
 10
4.630120
 20
3.777400
  0
SEQEND
  8
0
  0
SOLID
  8
0
 62
    15
 10
4.537280
 20
3.620760
 11
5.188040
 21
3.254680
 12
4.484040
 22
3.548600
 13
5.134800
 23
3.182520
  0
POLYLINE
  8
0
  6
CONTINUOUS
 66
     1
 40
0.000000
 41
0.000000
  0
VERTEX
  8
0
  6
CONTINUOUS
 10
4.537280
 20
3.620760
  0
VERTEX
  8
0
  6
CONTINUOUS
 10
5.188040
 20
3.254680
  0
VERTEX
  8
0
  6
CONTINUOUS
 10
5.134800
 20
3.182520
  0
VERTEX
  8
0
  6
CONTINUOUS
 10
4.484040
 20
3.548600
  0
VERTEX
  8
0
  6
CONTINUOUS
 10
4.537280
 20
3.620760
  0
SEQEND
  8
0
  0
SOLID
  8
0
 62
    15
 10
4.484040
 20
3.548600
 11
5.134800
 21
3.182520
 12
4.422000
 22
3.483040
 13
5.073200
 23
3.116960
  0
POLYLINE
  8
0
  6
CONTINUOUS
 66
     1
 40
0.000000
 41
0.000000
  0
VERTEX
  8
0
  6
CONTINUOUS
 10
4.484040
 20
3.548600
  0
VERTEX
  8
0
  6
CONTINUOUS
 10
5.134800
 20
3.182520
  0
VERTEX
  8
0
  6
CONTINUOUS
 10
5.073200
 20
3.116960
  0
VERTEX
  8
0
  6
CONTINUOUS
 10
4.422000
 20
3.483040
  0
VERTEX
  8
0
  6
CONTINUOUS
 10
4.484040
 20
3.548600
  0
SEQEND
  8
0
  0
SOLID
  8
0
 62
    15
 10
4.422000
 20
3.483040
 11
5.073200
 21
3.116960
 12
4.348520
 22
3.425840
 13
4.999280
 23
3.059320
  0
POLYLINE
  8
0
  6
CONTINUOUS
 66
     1
 40
0.000000
 41
0.000000
  0
VERTEX
  8
0
  6
CONTINUOUS
 10
4.422000
 20
3.483040
  0
VERTEX
  8
0
  6
CONTINUOUS
 10
5.073200
 20
3.116960
  0
VERTEX
  8
0
  6
CONTINUOUS
 10
4.999280
 20
3.059320
  0
VERTEX
  8
0
  6
CONTINUOUS
 10
4.348520
 20
3.425840
  0
VERTEX
  8
0
  6
CONTINUOUS
 10
4.422000
 20
3.483040
  0
SEQEND
  8
0
  0
SOLID
  8
0
 62
    15
 10
4.348520
 20
3.425840
 11
4.999280
 21
3.059320
 12
4.260520
 22
3.377880
 13
4.911280
 23
3.011800
  0
POLYLINE
  8
0
  6
CONTINUOUS
 66
     1
 40
0.000000
 41
0.000000
  0
VERTEX
  8
0
  6
CONTINUOUS
 10
4.348520
 20
3.425840
  0
VERTEX
  8
0
  6
CONTINUOUS
 10
4.999280
 20
3.059320
  0
VERTEX
  8
0
  6
CONTINUOUS
 10
4.911280
 20
3.011800
  0
VERTEX
  8
0
  6
CONTINUOUS
 10
4.260520
 20
3.377880
  0
VERTEX
  8
0
  6
CONTINUOUS
 10
4.348520
 20
3.425840
  0
SEQEND
  8
0
  0
SOLID
  8
0
 62
    15
 10
4.260520
 20
3.377880
 11
4.911280
 21
3.011800
 12
4.154920
 22
3.341800
 13
4.805680
 23
2.975720
  0
POLYLINE
  8
0
  6
CONTINUOUS
 66
     1
 40
0.000000
 41
0.000000
  0
VERTEX
  8
0
  6
CONTINUOUS
 10
4.260520
 20
3.377880
  0
VERTEX
  8
0
  6
CONTINUOUS
 10
4.911280
 20
3.011800
  0
VERTEX
  8
0
  6
CONTINUOUS
 10
4.805680
 20
2.975720
  0
VERTEX
  8
0
  6
CONTINUOUS
 10
4.154920
 20
3.341800
  0
VERTEX
  8
0
  6
CONTINUOUS
 10
4.260520
 20
3.377880
  0
SEQEND
  8
0
  0
SOLID
  8
0
 62
    15
 10
4.154920
 20
3.341800
 11
4.805680
 21
2.975720
 12
4.094640
 22
3.328600
 13
4.745400
 23
2.962520
  0
POLYLINE
  8
0
  6
CONTINUOUS
 66
     1
 40
0.000000
 41
0.000000
  0
VERTEX
  8
0
  6
CONTINUOUS
 10
4.154920
 20
3.341800
  0
VERTEX
  8
0
  6
CONTINUOUS
 10
4.805680
 20
2.975720
  0
VERTEX
  8
0
  6
CONTINUOUS
 10
4.745400
 20
2.962520
  0
VERTEX
  8
0
  6
CONTINUOUS
 10
4.094640
 20
3.328600
  0
VERTEX
  8
0
  6
CONTINUOUS
 10
4.154920
 20
3.341800
  0
SEQEND
  8
0
  0
SOLID
  8
0
 62
    15
 10
4.094640
 20
3.328600
 11
4.745400
 21
2.962520
 12
4.028640
 22
3.318920
 13
4.679400
 23
2.952400
  0
POLYLINE
  8
0
  6
CONTINUOUS
 66
     1
 40
0.000000
 41
0.000000
  0
VERTEX
  8
0
  6
CONTINUOUS
 10
4.094640
 20
3.328600
  0
VERTEX
  8
0
  6
CONTINUOUS
 10
4.745400
 20
2.962520
  0
VERTEX
  8
0
  6
CONTINUOUS
 10
4.679400
 20
2.952400
  0
VERTEX
  8
0
  6
CONTINUOUS
 10
4.028640
 20
3.318920
  0
VERTEX
  8
0
  6
CONTINUOUS
 10
4.094640
 20
3.328600
  0
SEQEND
  8
0
  0
POLYLINE
  8
0
  6
CONTINUOUS
 66
     1
 40
0.000000
 41
0.000000
  0
VERTEX
  8
0
  6
CONTINUOUS
 10
4.029520
 20
3.318920
  0
VERTEX
  8
0
  6
CONTINUOUS
 10
4.029520
 20
3.632640
  0
VERTEX
  8
0
  6
CONTINUOUS
 10
3.764640
 20
3.632640
  0
VERTEX
  8
0
  6
CONTINUOUS
 10
3.764640
 20
3.801600
  0
VERTEX
  8
0
  6
CONTINUOUS
 10
4.517920
 20
4.554880
  0
VERTEX
  8
0
  6
CONTINUOUS
 10
4.519680
 20
4.556640
  0
VERTEX
  8
0
  6
CONTINUOUS
 10
5.308160
 20
4.545200
  0
VERTEX
  8
0
  6
CONTINUOUS
 10
5.261080
 20
4.330480
  0
VERTEX
  8
0
  6
CONTINUOUS
 10
5.256240
 20
4.325640
  0
VERTEX
  8
0
  6
CONTINUOUS
 10
5.187160
 20
4.304960
  0
VERTEX
  8
0
  6
CONTINUOUS
 10
5.124240
 20
4.281640
  0
VERTEX
  8
0
  6
CONTINUOUS
 10
5.013360
 20
4.227080
  0
VERTEX
  8
0
  6
CONTINUOUS
 10
4.920960
 20
4.164160
  0
VERTEX
  8
0
  6
CONTINUOUS
 10
4.843960
 20
4.093760
  0
VERTEX
  8
0
  6
CONTINUOUS
 10
4.779720
 20
4.018520
  0
VERTEX
  8
0
  6
CONTINUOUS
 10
4.724280
 20
3.939760
  0
VERTEX
  8
0
  6
CONTINUOUS
 10
4.675440
 20
3.858360
  0
VERTEX
  8
0
  6
CONTINUOUS
 10
4.652560
 20
3.817880
  0
VERTEX
  8
0
  6
CONTINUOUS
 10
4.641120
 20
3.797640
  0
VERTEX
  8
0
  6
CONTINUOUS
 10
4.630120
 20
3.777400
  0
VERTEX
  8
0
  6
CONTINUOUS
 10
4.537280
 20
3.620760
  0
VERTEX
  8
0
  6
CONTINUOUS
 10
4.484040
 20
3.548600
  0
VERTEX
  8
0
  6
CONTINUOUS
 10
4.422000
 20
3.483040
  0
VERTEX
  8
0
  6
CONTINUOUS
 10
4.348520
 20
3.425840
  0
VERTEX
  8
0
  6
CONTINUOUS
 10
4.260520
 20
3.377880
  0
VERTEX
  8
0
  6
CONTINUOUS
 10
4.154920
 20
3.341800
  0
VERTEX
  8
0
  6
CONTINUOUS
 10
4.094640
 20
3.328600
  0
VERTEX
  8
0
  6
CONTINUOUS
 10
4.028640
 20
3.318920
  0
VERTEX
  8
0
  6
CONTINUOUS
 10
4.029520
 20
3.318920
  0
SEQEND
  8
0
  0
POLYLINE
  8
0
  6
CONTINUOUS
 66
     1
 40
0.000000
 41
0.000000
  0
VERTEX
  8
0
  6
CONTINUOUS
 10
3.914680
 20
3.191760
  0
VERTEX
  8
0
  6
CONTINUOUS
 10
3.910720
 20
3.142040
  0
VERTEX
  8
0
  6
CONTINUOUS
 10
3.901040
 20
3.086160
  0
VERTEX
  8
0
  6
CONTINUOUS
 10
3.890920
 20
3.047000
  0
VERTEX
  8
0
  6
CONTINUOUS
 10
3.869800
 20
2.986280
  0
VERTEX
  8
0
  6
CONTINUOUS
 10
3.839440
 20
2.925560
  0
VERTEX
  8
0
  6
CONTINUOUS
 10
3.813920
 20
2.886400
  0
VERTEX
  8
0
  6
CONTINUOUS
 10
3.783120
 20
2.848560
  0
VERTEX
  8
0
  6
CONTINUOUS
 10
3.747480
 20
2.812920
  0
VERTEX
  8
0
  6
CONTINUOUS
 10
3.706560
 20
2.779920
  0
VERTEX
  8
0
  6
CONTINUOUS
 10
3.659480
 20
2.750880
  0
VERTEX
  8
0
  6
CONTINUOUS
 10
3.633520
 20
2.737680
  0
VERTEX
  8
0
  6
CONTINUOUS
 10
3.577200
 20
2.714800
  0
VERTEX
  8
0
  6
CONTINUOUS
 10
3.513840
 20
2.697200
  0
VERTEX
  8
0
  6
CONTINUOUS
 10
3.479520
 20
2.690600
  0
VERTEX
  8
0
  6
CONTINUOUS
 10
3.443000
 20
2.685320
  0
VERTEX
  8
0
  6
CONTINUOUS
 10
3.405160
 20
2.681800
  0
VERTEX
  8
0
  6
CONTINUOUS
 10
3.405160
 20
2.629000
  0
VERTEX
  8
0
  6
CONTINUOUS
 10
3.430680
 20
2.620200
  0
VERTEX
  8
0
  6
CONTINUOUS
 10
3.451800
 20
2.609200
  0
VERTEX
  8
0
  6
CONTINUOUS
 10
3.468520
 20
2.596440
  0
VERTEX
  8
0
  6
CONTINUOUS
 10
3.481280
 20
2.582360
  0
VERTEX
  8
0
  6
CONTINUOUS
 10
3.493600
 20
2.559920
  0
VERTEX
  8
0
  6
CONTINUOUS
 10
3.498000
 20
2.535720
  0
VERTEX
  8
0
  6
CONTINUOUS
 10
3.497120
 20
2.519880
  0
VERTEX
  8
0
  6
CONTINUOUS
 10
3.490520
 20
2.496560
  0
VERTEX
  8
0
  6
CONTINUOUS
 10
3.477760
 20
2.475440
  0
VERTEX
  8
0
  6
CONTINUOUS
 10
3.460600
 20
2.456960
  0
VERTEX
  8
0
  6
CONTINUOUS
 10
3.439040
 20
2.442440
  0
VERTEX
  8
0
  6
CONTINUOUS
 10
3.413520
 20
2.433200
  0
VERTEX
  8
0
  6
CONTINUOUS
 10
3.404720
 20
2.431440
  0
VERTEX
  8
0
  6
CONTINUOUS
 10
3.404720
 20
2.371600
  0
VERTEX
  8
0
  6
CONTINUOUS
 10
3.369520
 20
2.369400
  0
VERTEX
  8
0
  6
CONTINUOUS
 10
3.318040
 20
2.361040
  0
VERTEX
  8
0
  6
CONTINUOUS
 10
3.268320
 20
2.346520
  0
VERTEX
  8
0
  6
CONTINUOUS
 10
3.236200
 20
2.333320
  0
VERTEX
  8
0
  6
CONTINUOUS
 10
3.191320
 20
2.308240
  0
VERTEX
  8
0
  6
CONTINUOUS
 10
3.150400
 20
2.277440
  0
VERTEX
  8
0
  6
CONTINUOUS
 10
3.113880
 20
2.240480
  0
VERTEX
  8
0
  6
CONTINUOUS
 10
3.092760
 20
2.212760
  0
VERTEX
  8
0
  6
CONTINUOUS
 10
3.074280
 20
2.181960
  0
VERTEX
  8
0
  6
CONTINUOUS
 10
3.058440
 20
2.148960
  0
VERTEX
  8
0
  6
CONTINUOUS
 10
3.046120
 20
2.113320
  0
VERTEX
  8
0
  6
CONTINUOUS
 10
3.036880
 20
2.075480
  0
VERTEX
  8
0
  6
CONTINUOUS
 10
3.031160
 20
2.034560
  0
VERTEX
  8
0
  6
CONTINUOUS
 10
3.029840
 20
2.013440
  0
VERTEX
  8
0
  6
CONTINUOUS
 10
2.897400
 20
2.013440
  0
VERTEX
  8
0
  6
CONTINUOUS
 10
2.897400
 20
3.637040
  0
VERTEX
  8
0
  6
CONTINUOUS
 10
4.032160
 20
3.637040
  0
VERTEX
  8
0
  6
CONTINUOUS
 10
4.032160
 20
3.193960
  0
VERTEX
  8
0
  6
CONTINUOUS
 10
3.914680
 20
3.193960
  0
VERTEX
  8
0
  6
CONTINUOUS
 10
3.914680
 20
3.191760
  0
SEQEND
  8
0
  0
TEXT
  8
0
 10
4.350720
 20
1.812800
 40
0.138068
  1
90 11/16" x 2-1/16"
 41
1.000000
  7
SN0
 71
     0
 72
     5
 11
5.759776
 21
1.812800
  0
TEXT
  8
0
 10
4.350720
 20
1.621400
 40
0.138068
  1
917 1-1/8" x 1-5/8"
 41
1.000000
  7
SN0
 71
     0
 72
     5
 11
5.722516
 21
1.621400
  0
TEXT
  8
0
 10
4.537280
 20
4.321240
 40
0.138068
  1
90
 41
1.000000
  7
SN0
 71
     0
 72
     5
 11
4.722268
 21
4.321240
  0
TEXT
  8
0
 10
2.998160
 20
3.405600
 40
0.138068
  1
917
 41
1.000000
  7
SN0
 71
     0
 72
     5
 11
3.275510
 21
3.405600
  0
ENDSEC
  0
EOF
