  0
SECTION
  2
HEADER
  9
$ACADVER
  1
AC1006
  9
$EXTMIN
 10
4.973320
 20
0.539440
  9
$EXTMAX
 10
6.818240
 20
2.103200
  9
$LTSCALE
 40
0.044000
  9
$PDMODE
 70
    35
  9
$PDSIZE
 40
0.035200
  0
ENDSEC
  0
SECTION
  2
TABLES
  0
TABLE
  2
LTYPE
 70
     9
  0
LTYPE
  2
CONTINUOUS
 70
    64
  3
Solid line
 72
    65
 73
     0
 40
0.000000
  0
LTYPE
  2
DASHED
 70
    64
  3
__ __ __ __ __ __ __ __ __ __ __ __ __ __ __
 72
    65
 73
     2
 40
0.000330
 49
0.000220
 49
-0.000110
  0
LTYPE
  2
HIDDEN
 70
    64
  3
 _ _ _ _ _ _ _ _ _ _ _ _ _ _ _ _ _ _ _ _ _ _
 72
    65
 73
     2
 40
0.000165
 49
0.000110
 49
-0.000055
  0
LTYPE
  2
CENTER
 70
    64
  3
____ _ ____ _ ____ _ ____ _ ____ _ ____ _ ____
 72
    65
 73
     4
 40
0.000880
 49
0.000550
 49
-0.000110
 49
0.000110
 49
-0.000110
  0
LTYPE
  2
PHANTOM
 70
    64
  3
_____ _ _ _____ _ _ _____ _ _ _____ _ _ ____
 72
    65
 73
     6
 40
0.001100
 49
0.000550
 49
-0.000110
 49
0.000110
 49
-0.000110
 49
0.000110
 49
-0.000110
  0
LTYPE
  2
DOT
 70
    64
  3
...............................................
 72
    65
 73
     2
 40
0.000110
 49
0.000000
 49
-0.000110
  0
LTYPE
  2
DASHDOT
 70
    64
  3
__ . __ . __ . __ . __ . __ . __ . __ . __ . __
 72
    65
 73
     4
 40
0.000440
 49
0.000220
 49
-0.000110
 49
0.000000
 49
-0.000110
  0
LTYPE
  2
BORDER
 70
    64
  3
__ __ . __ __ . __ __ . __ __ . __ __ . __ __
 72
    65
 73
     6
 40
0.000770
 49
0.000220
 49
-0.000110
 49
0.000220
 49
-0.000110
 49
0.000000
 49
-0.000110
  0
LTYPE
  2
DIVIDE
 70
    64
  3
__ . . __ . . __ . . __ . . __ . . __ . . __
 72
    65
 73
     6
 40
0.000550
 49
0.000220
 49
-0.000110
 49
0.000000
 49
-0.000110
 49
0.000000
 49
-0.000110
  0
LTYPE
  2
DOTDOT
 70
    64
  3
 . .  . .  . .  . .  . .  . . 
 72
    65
 73
     5
 40
0.000242
 49
-0.000110
 49
0.000000
 49
-0.000110
 49
0.000000
 49
-0.000110
  0
ENDTAB
  0
TABLE
  2
STYLE
 70
     2
  0
STYLE
 70
     0
  2
SN0
 40
0.000000
 41
0.000440
 50
0.000000
 71
     0
 42
0.000000
  3
ROMAND
  0
STYLE
 70
    68
  2
SV0
 40
0.000000
 41
0.000440
 50
0.000000
 71
     0
 42
0.000000
  3
ROMAND
  0
ENDTAB
  0
TABLE
  2
LAYER
 70
     3
  0
LAYER
  2
FOREGROUND
 70
    64
 62
     7
  6
CONTINUOUS
  0
LAYER
  2
BACKGROUND
 70
    65
 62
    -7
  6
CONTINUOUS
  0
LAYER
  2
0
 70
    64
 62
     7
  6
CONTINUOUS
  0
ENDTAB
  0
ENDSEC
  0
SECTION
  2
ENTITIES
  0
POLYLINE
  8
FOREGROUND
  6
CONTINUOUS
 66
     1
 40
0.000000
 41
0.000000
  0
VERTEX
  8
FOREGROUND
  6
CONTINUOUS
 10
0.000000
 20
2.642640
  0
VERTEX
  8
FOREGROUND
  6
CONTINUOUS
 10
8.499920
 20
2.642640
  0
VERTEX
  8
FOREGROUND
  6
CONTINUOUS
 10
8.499920
 20
-8.357360
  0
VERTEX
  8
FOREGROUND
  6
CONTINUOUS
 10
0.000000
 20
-8.357360
  0
VERTEX
  8
FOREGROUND
  6
CONTINUOUS
 10
0.000000
 20
2.642640
  0
SEQEND
  8
0
  0
POLYLINE
  8
FOREGROUND
  6
CONTINUOUS
 66
     1
 40
0.000000
 41
0.000000
  0
VERTEX
  8
FOREGROUND
  6
CONTINUOUS
 10
0.000000
 20
2.642640
  0
VERTEX
  8
FOREGROUND
  6
CONTINUOUS
 10
8.499920
 20
2.642640
  0
VERTEX
  8
FOREGROUND
  6
CONTINUOUS
 10
8.499920
 20
-8.357360
  0
VERTEX
  8
FOREGROUND
  6
CONTINUOUS
 10
0.000000
 20
-8.357360
  0
VERTEX
  8
FOREGROUND
  6
CONTINUOUS
 10
0.000000
 20
2.642640
  0
SEQEND
  8
0
  0
POLYLINE
  8
0
  6
CONTINUOUS
 66
     1
 40
0.014080
 41
0.014080
  0
VERTEX
  8
0
  6
CONTINUOUS
 10
6.342160
 20
1.734480
  0
VERTEX
  8
0
  6
CONTINUOUS
 10
6.376040
 20
1.732720
  0
VERTEX
  8
0
  6
CONTINUOUS
 10
6.403760
 20
1.727440
  0
VERTEX
  8
0
  6
CONTINUOUS
 10
6.425760
 20
1.719520
  0
VERTEX
  8
0
  6
CONTINUOUS
 10
6.442920
 20
1.708960
  0
VERTEX
  8
0
  6
CONTINUOUS
 10
6.459640
 20
1.691800
  0
VERTEX
  8
0
  6
CONTINUOUS
 10
6.470640
 20
1.671120
  0
VERTEX
  8
0
  6
CONTINUOUS
 10
6.478120
 20
1.649120
  0
VERTEX
  8
0
  6
CONTINUOUS
 10
6.493080
 20
1.589720
  0
VERTEX
  8
0
  6
CONTINUOUS
 10
6.503200
 20
1.568160
  0
VERTEX
  8
0
  6
CONTINUOUS
 10
6.523880
 20
1.539560
  0
VERTEX
  8
0
  6
CONTINUOUS
 10
6.547640
 20
1.516680
  0
VERTEX
  8
0
  6
CONTINUOUS
 10
6.571400
 20
1.500840
  0
VERTEX
  8
0
  6
CONTINUOUS
 10
6.592080
 20
1.493360
  0
VERTEX
  8
0
  6
CONTINUOUS
 10
6.597800
 20
1.492920
  0
VERTEX
  8
0
  6
CONTINUOUS
 10
6.597800
 20
1.437040
  0
VERTEX
  8
0
  6
CONTINUOUS
 10
6.634320
 20
1.434400
  0
VERTEX
  8
0
  6
CONTINUOUS
 10
6.667320
 20
1.426480
  0
VERTEX
  8
0
  6
CONTINUOUS
 10
6.687560
 20
1.419000
  0
VERTEX
  8
0
  6
CONTINUOUS
 10
6.706040
 20
1.409320
  0
VERTEX
  8
0
  6
CONTINUOUS
 10
6.723200
 20
1.397880
  0
VERTEX
  8
0
  6
CONTINUOUS
 10
6.738600
 20
1.385120
  0
VERTEX
  8
0
  6
CONTINUOUS
 10
6.765000
 20
1.355200
  0
VERTEX
  8
0
  6
CONTINUOUS
 10
6.785240
 20
1.321320
  0
VERTEX
  8
0
  6
CONTINUOUS
 10
6.793160
 20
1.302840
  0
VERTEX
  8
0
  6
CONTINUOUS
 10
6.804600
 20
1.264560
  0
VERTEX
  8
0
  6
CONTINUOUS
 10
6.810320
 20
1.224960
  0
VERTEX
  8
0
  6
CONTINUOUS
 10
6.810320
 20
1.185800
  0
VERTEX
  8
0
  6
CONTINUOUS
 10
6.804600
 20
1.147520
  0
VERTEX
  8
0
  6
CONTINUOUS
 10
6.799760
 20
1.129040
  0
VERTEX
  8
0
  6
CONTINUOUS
 10
6.785680
 20
1.095160
  0
VERTEX
  8
0
  6
CONTINUOUS
 10
6.776880
 20
1.079320
  0
VERTEX
  8
0
  6
CONTINUOUS
 10
6.754880
 20
1.052480
  0
VERTEX
  8
0
  6
CONTINUOUS
 10
6.741680
 20
1.041040
  0
VERTEX
  8
0
  6
CONTINUOUS
 10
6.727600
 20
1.031360
  0
VERTEX
  8
0
  6
CONTINUOUS
 10
6.703840
 20
1.020800
  0
VERTEX
  8
0
  6
CONTINUOUS
 10
6.677000
 20
1.014640
  0
VERTEX
  8
0
  6
CONTINUOUS
 10
6.657640
 20
1.013320
  0
VERTEX
  8
0
  6
CONTINUOUS
 10
6.338640
 20
1.013320
  0
VERTEX
  8
0
  6
CONTINUOUS
 10
6.338640
 20
1.734480
  0
VERTEX
  8
0
  6
CONTINUOUS
 10
6.342160
 20
1.734480
  0
SEQEND
  8
0
  0
SOLID
  8
0
 62
    15
 10
5.221040
 20
1.488080
 11
5.874440
 21
1.862960
 12
5.233360
 22
1.485880
 13
5.886760
 23
1.860760
  0
POLYLINE
  8
0
  6
CONTINUOUS
 66
     1
 40
0.000000
 41
0.000000
  0
VERTEX
  8
0
  6
CONTINUOUS
 10
5.221040
 20
1.488080
  0
VERTEX
  8
0
  6
CONTINUOUS
 10
5.874440
 20
1.862960
  0
VERTEX
  8
0
  6
CONTINUOUS
 10
5.886760
 20
1.860760
  0
VERTEX
  8
0
  6
CONTINUOUS
 10
5.233360
 20
1.485880
  0
VERTEX
  8
0
  6
CONTINUOUS
 10
5.221040
 20
1.488080
  0
SEQEND
  8
0
  0
SOLID
  8
0
 62
    15
 10
5.001040
 20
1.727000
 11
5.654440
 21
2.101440
 12
5.021280
 22
1.724360
 13
5.674680
 23
2.099240
  0
POLYLINE
  8
0
  6
CONTINUOUS
 66
     1
 40
0.000000
 41
0.000000
  0
VERTEX
  8
0
  6
CONTINUOUS
 10
5.001040
 20
1.727000
  0
VERTEX
  8
0
  6
CONTINUOUS
 10
5.654440
 20
2.101440
  0
VERTEX
  8
0
  6
CONTINUOUS
 10
5.674680
 20
2.099240
  0
VERTEX
  8
0
  6
CONTINUOUS
 10
5.021280
 20
1.724360
  0
VERTEX
  8
0
  6
CONTINUOUS
 10
5.001040
 20
1.727000
  0
SEQEND
  8
0
  0
SOLID
  8
0
 62
    15
 10
5.021280
 20
1.724360
 11
5.674680
 21
2.099240
 12
5.038880
 22
1.720840
 13
5.692720
 23
2.095280
  0
POLYLINE
  8
0
  6
CONTINUOUS
 66
     1
 40
0.000000
 41
0.000000
  0
VERTEX
  8
0
  6
CONTINUOUS
 10
5.021280
 20
1.724360
  0
VERTEX
  8
0
  6
CONTINUOUS
 10
5.674680
 20
2.099240
  0
VERTEX
  8
0
  6
CONTINUOUS
 10
5.692720
 20
2.095280
  0
VERTEX
  8
0
  6
CONTINUOUS
 10
5.038880
 20
1.720840
  0
VERTEX
  8
0
  6
CONTINUOUS
 10
5.021280
 20
1.724360
  0
SEQEND
  8
0
  0
SOLID
  8
0
 62
     7
 10
5.038880
 20
1.720840
 11
5.692720
 21
2.095280
 12
5.054280
 22
1.715560
 13
5.707680
 23
2.090440
  0
POLYLINE
  8
0
  6
CONTINUOUS
 66
     1
 40
0.000000
 41
0.000000
  0
VERTEX
  8
0
  6
CONTINUOUS
 10
5.038880
 20
1.720840
  0
VERTEX
  8
0
  6
CONTINUOUS
 10
5.692720
 20
2.095280
  0
VERTEX
  8
0
  6
CONTINUOUS
 10
5.707680
 20
2.090440
  0
VERTEX
  8
0
  6
CONTINUOUS
 10
5.054280
 20
1.715560
  0
VERTEX
  8
0
  6
CONTINUOUS
 10
5.038880
 20
1.720840
  0
SEQEND
  8
0
  0
SOLID
  8
0
 62
     7
 10
5.054280
 20
1.715560
 11
5.707680
 21
2.090440
 12
5.067040
 22
1.709400
 13
5.720880
 23
2.084280
  0
POLYLINE
  8
0
  6
CONTINUOUS
 66
     1
 40
0.000000
 41
0.000000
  0
VERTEX
  8
0
  6
CONTINUOUS
 10
5.054280
 20
1.715560
  0
VERTEX
  8
0
  6
CONTINUOUS
 10
5.707680
 20
2.090440
  0
VERTEX
  8
0
  6
CONTINUOUS
 10
5.720880
 20
2.084280
  0
VERTEX
  8
0
  6
CONTINUOUS
 10
5.067040
 20
1.709400
  0
VERTEX
  8
0
  6
CONTINUOUS
 10
5.054280
 20
1.715560
  0
SEQEND
  8
0
  0
SOLID
  8
0
 62
     7
 10
5.067040
 20
1.709400
 11
5.720880
 21
2.084280
 12
5.078040
 22
1.701920
 13
5.731440
 23
2.076800
  0
POLYLINE
  8
0
  6
CONTINUOUS
 66
     1
 40
0.000000
 41
0.000000
  0
VERTEX
  8
0
  6
CONTINUOUS
 10
5.067040
 20
1.709400
  0
VERTEX
  8
0
  6
CONTINUOUS
 10
5.720880
 20
2.084280
  0
VERTEX
  8
0
  6
CONTINUOUS
 10
5.731440
 20
2.076800
  0
VERTEX
  8
0
  6
CONTINUOUS
 10
5.078040
 20
1.701920
  0
VERTEX
  8
0
  6
CONTINUOUS
 10
5.067040
 20
1.709400
  0
SEQEND
  8
0
  0
SOLID
  8
0
 62
     7
 10
5.078040
 20
1.701920
 11
5.731440
 21
2.076800
 12
5.094760
 22
1.684760
 13
5.748160
 23
2.059640
  0
POLYLINE
  8
0
  6
CONTINUOUS
 66
     1
 40
0.000000
 41
0.000000
  0
VERTEX
  8
0
  6
CONTINUOUS
 10
5.078040
 20
1.701920
  0
VERTEX
  8
0
  6
CONTINUOUS
 10
5.731440
 20
2.076800
  0
VERTEX
  8
0
  6
CONTINUOUS
 10
5.748160
 20
2.059640
  0
VERTEX
  8
0
  6
CONTINUOUS
 10
5.094760
 20
1.684760
  0
VERTEX
  8
0
  6
CONTINUOUS
 10
5.078040
 20
1.701920
  0
SEQEND
  8
0
  0
SOLID
  8
0
 62
     7
 10
5.094760
 20
1.684760
 11
5.748160
 21
2.059640
 12
5.105760
 22
1.664520
 13
5.759160
 23
2.038960
  0
POLYLINE
  8
0
  6
CONTINUOUS
 66
     1
 40
0.000000
 41
0.000000
  0
VERTEX
  8
0
  6
CONTINUOUS
 10
5.094760
 20
1.684760
  0
VERTEX
  8
0
  6
CONTINUOUS
 10
5.748160
 20
2.059640
  0
VERTEX
  8
0
  6
CONTINUOUS
 10
5.759160
 20
2.038960
  0
VERTEX
  8
0
  6
CONTINUOUS
 10
5.105760
 20
1.664520
  0
VERTEX
  8
0
  6
CONTINUOUS
 10
5.094760
 20
1.684760
  0
SEQEND
  8
0
  0
SOLID
  8
0
 62
    15
 10
5.105760
 20
1.664520
 11
5.759160
 21
2.038960
 12
5.113240
 22
1.642080
 13
5.766640
 23
2.016520
  0
POLYLINE
  8
0
  6
CONTINUOUS
 66
     1
 40
0.000000
 41
0.000000
  0
VERTEX
  8
0
  6
CONTINUOUS
 10
5.105760
 20
1.664520
  0
VERTEX
  8
0
  6
CONTINUOUS
 10
5.759160
 20
2.038960
  0
VERTEX
  8
0
  6
CONTINUOUS
 10
5.766640
 20
2.016520
  0
VERTEX
  8
0
  6
CONTINUOUS
 10
5.113240
 20
1.642080
  0
VERTEX
  8
0
  6
CONTINUOUS
 10
5.105760
 20
1.664520
  0
SEQEND
  8
0
  0
SOLID
  8
0
 62
    15
 10
5.113240
 20
1.642080
 11
5.766640
 21
2.016520
 12
5.118960
 22
1.618320
 13
5.772360
 23
1.993200
  0
POLYLINE
  8
0
  6
CONTINUOUS
 66
     1
 40
0.000000
 41
0.000000
  0
VERTEX
  8
0
  6
CONTINUOUS
 10
5.113240
 20
1.642080
  0
VERTEX
  8
0
  6
CONTINUOUS
 10
5.766640
 20
2.016520
  0
VERTEX
  8
0
  6
CONTINUOUS
 10
5.772360
 20
1.993200
  0
VERTEX
  8
0
  6
CONTINUOUS
 10
5.118960
 20
1.618320
  0
VERTEX
  8
0
  6
CONTINUOUS
 10
5.113240
 20
1.642080
  0
SEQEND
  8
0
  0
SOLID
  8
0
 62
    15
 10
5.118960
 20
1.618320
 11
5.772360
 21
1.993200
 12
5.121600
 22
1.606440
 13
5.775000
 23
1.981320
  0
POLYLINE
  8
0
  6
CONTINUOUS
 66
     1
 40
0.000000
 41
0.000000
  0
VERTEX
  8
0
  6
CONTINUOUS
 10
5.118960
 20
1.618320
  0
VERTEX
  8
0
  6
CONTINUOUS
 10
5.772360
 20
1.993200
  0
VERTEX
  8
0
  6
CONTINUOUS
 10
5.775000
 20
1.981320
  0
VERTEX
  8
0
  6
CONTINUOUS
 10
5.121600
 20
1.606440
  0
VERTEX
  8
0
  6
CONTINUOUS
 10
5.118960
 20
1.618320
  0
SEQEND
  8
0
  0
SOLID
  8
0
 62
    15
 10
5.121600
 20
1.606440
 11
5.775000
 21
1.981320
 12
5.124680
 22
1.594560
 13
5.778080
 23
1.969440
  0
POLYLINE
  8
0
  6
CONTINUOUS
 66
     1
 40
0.000000
 41
0.000000
  0
VERTEX
  8
0
  6
CONTINUOUS
 10
5.121600
 20
1.606440
  0
VERTEX
  8
0
  6
CONTINUOUS
 10
5.775000
 20
1.981320
  0
VERTEX
  8
0
  6
CONTINUOUS
 10
5.778080
 20
1.969440
  0
VERTEX
  8
0
  6
CONTINUOUS
 10
5.124680
 20
1.594560
  0
VERTEX
  8
0
  6
CONTINUOUS
 10
5.121600
 20
1.606440
  0
SEQEND
  8
0
  0
SOLID
  8
0
 62
    15
 10
5.124680
 20
1.594560
 11
5.778080
 21
1.969440
 12
5.133040
 22
1.571680
 13
5.786440
 23
1.946560
  0
POLYLINE
  8
0
  6
CONTINUOUS
 66
     1
 40
0.000000
 41
0.000000
  0
VERTEX
  8
0
  6
CONTINUOUS
 10
5.124680
 20
1.594560
  0
VERTEX
  8
0
  6
CONTINUOUS
 10
5.778080
 20
1.969440
  0
VERTEX
  8
0
  6
CONTINUOUS
 10
5.786440
 20
1.946560
  0
VERTEX
  8
0
  6
CONTINUOUS
 10
5.133040
 20
1.571680
  0
VERTEX
  8
0
  6
CONTINUOUS
 10
5.124680
 20
1.594560
  0
SEQEND
  8
0
  0
SOLID
  8
0
 62
     7
 10
5.133040
 20
1.571680
 11
5.786440
 21
1.946560
 12
5.144920
 22
1.551000
 13
5.798320
 23
1.925880
  0
POLYLINE
  8
0
  6
CONTINUOUS
 66
     1
 40
0.000000
 41
0.000000
  0
VERTEX
  8
0
  6
CONTINUOUS
 10
5.133040
 20
1.571680
  0
VERTEX
  8
0
  6
CONTINUOUS
 10
5.786440
 20
1.946560
  0
VERTEX
  8
0
  6
CONTINUOUS
 10
5.798320
 20
1.925880
  0
VERTEX
  8
0
  6
CONTINUOUS
 10
5.144920
 20
1.551000
  0
VERTEX
  8
0
  6
CONTINUOUS
 10
5.133040
 20
1.571680
  0
SEQEND
  8
0
  0
SOLID
  8
0
 62
     7
 10
5.144920
 20
1.551000
 11
5.798320
 21
1.925880
 12
5.159000
 22
1.532520
 13
5.812400
 23
1.906960
  0
POLYLINE
  8
0
  6
CONTINUOUS
 66
     1
 40
0.000000
 41
0.000000
  0
VERTEX
  8
0
  6
CONTINUOUS
 10
5.144920
 20
1.551000
  0
VERTEX
  8
0
  6
CONTINUOUS
 10
5.798320
 20
1.925880
  0
VERTEX
  8
0
  6
CONTINUOUS
 10
5.812400
 20
1.906960
  0
VERTEX
  8
0
  6
CONTINUOUS
 10
5.159000
 20
1.532520
  0
VERTEX
  8
0
  6
CONTINUOUS
 10
5.144920
 20
1.551000
  0
SEQEND
  8
0
  0
SOLID
  8
0
 62
     7
 10
5.159000
 20
1.532520
 11
5.812400
 21
1.906960
 12
5.174840
 22
1.516680
 13
5.828240
 23
1.891120
  0
POLYLINE
  8
0
  6
CONTINUOUS
 66
     1
 40
0.000000
 41
0.000000
  0
VERTEX
  8
0
  6
CONTINUOUS
 10
5.159000
 20
1.532520
  0
VERTEX
  8
0
  6
CONTINUOUS
 10
5.812400
 20
1.906960
  0
VERTEX
  8
0
  6
CONTINUOUS
 10
5.828240
 20
1.891120
  0
VERTEX
  8
0
  6
CONTINUOUS
 10
5.174840
 20
1.516680
  0
VERTEX
  8
0
  6
CONTINUOUS
 10
5.159000
 20
1.532520
  0
SEQEND
  8
0
  0
SOLID
  8
0
 62
     7
 10
5.174840
 20
1.516680
 11
5.828240
 21
1.891120
 12
5.191120
 22
1.503480
 13
5.844520
 23
1.878360
  0
POLYLINE
  8
0
  6
CONTINUOUS
 66
     1
 40
0.000000
 41
0.000000
  0
VERTEX
  8
0
  6
CONTINUOUS
 10
5.174840
 20
1.516680
  0
VERTEX
  8
0
  6
CONTINUOUS
 10
5.828240
 20
1.891120
  0
VERTEX
  8
0
  6
CONTINUOUS
 10
5.844520
 20
1.878360
  0
VERTEX
  8
0
  6
CONTINUOUS
 10
5.191120
 20
1.503480
  0
VERTEX
  8
0
  6
CONTINUOUS
 10
5.174840
 20
1.516680
  0
SEQEND
  8
0
  0
SOLID
  8
0
 62
     7
 10
5.191120
 20
1.503480
 11
5.844520
 21
1.878360
 12
5.206960
 22
1.494240
 13
5.860360
 23
1.868680
  0
POLYLINE
  8
0
  6
CONTINUOUS
 66
     1
 40
0.000000
 41
0.000000
  0
VERTEX
  8
0
  6
CONTINUOUS
 10
5.191120
 20
1.503480
  0
VERTEX
  8
0
  6
CONTINUOUS
 10
5.844520
 20
1.878360
  0
VERTEX
  8
0
  6
CONTINUOUS
 10
5.860360
 20
1.868680
  0
VERTEX
  8
0
  6
CONTINUOUS
 10
5.206960
 20
1.494240
  0
VERTEX
  8
0
  6
CONTINUOUS
 10
5.191120
 20
1.503480
  0
SEQEND
  8
0
  0
SOLID
  8
0
 62
     7
 10
5.206960
 20
1.494240
 11
5.860360
 21
1.868680
 12
5.221040
 22
1.488080
 13
5.874440
 23
1.862960
  0
POLYLINE
  8
0
  6
CONTINUOUS
 66
     1
 40
0.000000
 41
0.000000
  0
VERTEX
  8
0
  6
CONTINUOUS
 10
5.206960
 20
1.494240
  0
VERTEX
  8
0
  6
CONTINUOUS
 10
5.860360
 20
1.868680
  0
VERTEX
  8
0
  6
CONTINUOUS
 10
5.874440
 20
1.862960
  0
VERTEX
  8
0
  6
CONTINUOUS
 10
5.221040
 20
1.488080
  0
VERTEX
  8
0
  6
CONTINUOUS
 10
5.206960
 20
1.494240
  0
SEQEND
  8
0
  0
SOLID
  8
0
 62
    15
 10
4.977720
 20
1.727440
 11
5.631120
 21
2.102320
 12
5.001040
 22
1.727000
 13
5.654440
 23
2.101440
  0
POLYLINE
  8
0
  6
CONTINUOUS
 66
     1
 40
0.000000
 41
0.000000
  0
VERTEX
  8
0
  6
CONTINUOUS
 10
4.977720
 20
1.727440
  0
VERTEX
  8
0
  6
CONTINUOUS
 10
5.631120
 20
2.102320
  0
VERTEX
  8
0
  6
CONTINUOUS
 10
5.654440
 20
2.101440
  0
VERTEX
  8
0
  6
CONTINUOUS
 10
5.001040
 20
1.727000
  0
VERTEX
  8
0
  6
CONTINUOUS
 10
4.977720
 20
1.727440
  0
SEQEND
  8
0
  0
SOLID
  8
0
 62
    15
 10
5.233360
 20
1.485880
 11
5.886760
 21
1.860760
 12
5.233360
 22
1.430000
 13
5.886760
 23
1.804440
  0
POLYLINE
  8
0
  6
CONTINUOUS
 66
     1
 40
0.000000
 41
0.000000
  0
VERTEX
  8
0
  6
CONTINUOUS
 10
5.233360
 20
1.485880
  0
VERTEX
  8
0
  6
CONTINUOUS
 10
5.886760
 20
1.860760
  0
VERTEX
  8
0
  6
CONTINUOUS
 10
5.886760
 20
1.804440
  0
VERTEX
  8
0
  6
CONTINUOUS
 10
5.233360
 20
1.430000
  0
VERTEX
  8
0
  6
CONTINUOUS
 10
5.233360
 20
1.485880
  0
SEQEND
  8
0
  0
SOLID
  8
0
 62
    15
 10
5.233360
 20
1.430000
 11
5.886760
 21
1.804440
 12
5.258000
 22
1.428680
 13
5.911400
 23
1.803560
  0
POLYLINE
  8
0
  6
CONTINUOUS
 66
     1
 40
0.000000
 41
0.000000
  0
VERTEX
  8
0
  6
CONTINUOUS
 10
5.233360
 20
1.430000
  0
VERTEX
  8
0
  6
CONTINUOUS
 10
5.886760
 20
1.804440
  0
VERTEX
  8
0
  6
CONTINUOUS
 10
5.911400
 20
1.803560
  0
VERTEX
  8
0
  6
CONTINUOUS
 10
5.258000
 20
1.428680
  0
VERTEX
  8
0
  6
CONTINUOUS
 10
5.233360
 20
1.430000
  0
SEQEND
  8
0
  0
SOLID
  8
0
 62
    15
 10
5.258000
 20
1.428680
 11
5.911400
 21
1.803560
 12
5.281320
 22
1.425160
 13
5.934720
 23
1.800040
  0
POLYLINE
  8
0
  6
CONTINUOUS
 66
     1
 40
0.000000
 41
0.000000
  0
VERTEX
  8
0
  6
CONTINUOUS
 10
5.258000
 20
1.428680
  0
VERTEX
  8
0
  6
CONTINUOUS
 10
5.911400
 20
1.803560
  0
VERTEX
  8
0
  6
CONTINUOUS
 10
5.934720
 20
1.800040
  0
VERTEX
  8
0
  6
CONTINUOUS
 10
5.281320
 20
1.425160
  0
VERTEX
  8
0
  6
CONTINUOUS
 10
5.258000
 20
1.428680
  0
SEQEND
  8
0
  0
SOLID
  8
0
 62
     7
 10
5.281320
 20
1.425160
 11
5.934720
 21
1.800040
 12
5.302880
 22
1.419440
 13
5.956280
 23
1.794320
  0
POLYLINE
  8
0
  6
CONTINUOUS
 66
     1
 40
0.000000
 41
0.000000
  0
VERTEX
  8
0
  6
CONTINUOUS
 10
5.281320
 20
1.425160
  0
VERTEX
  8
0
  6
CONTINUOUS
 10
5.934720
 20
1.800040
  0
VERTEX
  8
0
  6
CONTINUOUS
 10
5.956280
 20
1.794320
  0
VERTEX
  8
0
  6
CONTINUOUS
 10
5.302880
 20
1.419440
  0
VERTEX
  8
0
  6
CONTINUOUS
 10
5.281320
 20
1.425160
  0
SEQEND
  8
0
  0
SOLID
  8
0
 62
     7
 10
5.302880
 20
1.419440
 11
5.956280
 21
1.794320
 12
5.323120
 22
1.411520
 13
5.976520
 23
1.786400
  0
POLYLINE
  8
0
  6
CONTINUOUS
 66
     1
 40
0.000000
 41
0.000000
  0
VERTEX
  8
0
  6
CONTINUOUS
 10
5.302880
 20
1.419440
  0
VERTEX
  8
0
  6
CONTINUOUS
 10
5.956280
 20
1.794320
  0
VERTEX
  8
0
  6
CONTINUOUS
 10
5.976520
 20
1.786400
  0
VERTEX
  8
0
  6
CONTINUOUS
 10
5.323120
 20
1.411520
  0
VERTEX
  8
0
  6
CONTINUOUS
 10
5.302880
 20
1.419440
  0
SEQEND
  8
0
  0
SOLID
  8
0
 62
     7
 10
5.323120
 20
1.411520
 11
5.976520
 21
1.786400
 12
5.341600
 22
1.402280
 13
5.995000
 23
1.776720
  0
POLYLINE
  8
0
  6
CONTINUOUS
 66
     1
 40
0.000000
 41
0.000000
  0
VERTEX
  8
0
  6
CONTINUOUS
 10
5.323120
 20
1.411520
  0
VERTEX
  8
0
  6
CONTINUOUS
 10
5.976520
 20
1.786400
  0
VERTEX
  8
0
  6
CONTINUOUS
 10
5.995000
 20
1.776720
  0
VERTEX
  8
0
  6
CONTINUOUS
 10
5.341600
 20
1.402280
  0
VERTEX
  8
0
  6
CONTINUOUS
 10
5.323120
 20
1.411520
  0
SEQEND
  8
0
  0
SOLID
  8
0
 62
     7
 10
5.341600
 20
1.402280
 11
5.995000
 21
1.776720
 12
5.358320
 22
1.390840
 13
6.011720
 23
1.765720
  0
POLYLINE
  8
0
  6
CONTINUOUS
 66
     1
 40
0.000000
 41
0.000000
  0
VERTEX
  8
0
  6
CONTINUOUS
 10
5.341600
 20
1.402280
  0
VERTEX
  8
0
  6
CONTINUOUS
 10
5.995000
 20
1.776720
  0
VERTEX
  8
0
  6
CONTINUOUS
 10
6.011720
 20
1.765720
  0
VERTEX
  8
0
  6
CONTINUOUS
 10
5.358320
 20
1.390840
  0
VERTEX
  8
0
  6
CONTINUOUS
 10
5.341600
 20
1.402280
  0
SEQEND
  8
0
  0
SOLID
  8
0
 62
     7
 10
5.358320
 20
1.390840
 11
6.011720
 21
1.765720
 12
5.387800
 22
1.363560
 13
6.041200
 23
1.738440
  0
POLYLINE
  8
0
  6
CONTINUOUS
 66
     1
 40
0.000000
 41
0.000000
  0
VERTEX
  8
0
  6
CONTINUOUS
 10
5.358320
 20
1.390840
  0
VERTEX
  8
0
  6
CONTINUOUS
 10
6.011720
 20
1.765720
  0
VERTEX
  8
0
  6
CONTINUOUS
 10
6.041200
 20
1.738440
  0
VERTEX
  8
0
  6
CONTINUOUS
 10
5.387800
 20
1.363560
  0
VERTEX
  8
0
  6
CONTINUOUS
 10
5.358320
 20
1.390840
  0
SEQEND
  8
0
  0
SOLID
  8
0
 62
     7
 10
5.387800
 20
1.363560
 11
6.041200
 21
1.738440
 12
5.411120
 22
1.331440
 13
6.064520
 23
1.706320
  0
POLYLINE
  8
0
  6
CONTINUOUS
 66
     1
 40
0.000000
 41
0.000000
  0
VERTEX
  8
0
  6
CONTINUOUS
 10
5.387800
 20
1.363560
  0
VERTEX
  8
0
  6
CONTINUOUS
 10
6.041200
 20
1.738440
  0
VERTEX
  8
0
  6
CONTINUOUS
 10
6.064520
 20
1.706320
  0
VERTEX
  8
0
  6
CONTINUOUS
 10
5.411120
 20
1.331440
  0
VERTEX
  8
0
  6
CONTINUOUS
 10
5.387800
 20
1.363560
  0
SEQEND
  8
0
  0
SOLID
  8
0
 62
    15
 10
5.411120
 20
1.331440
 11
6.064520
 21
1.706320
 12
5.428280
 22
1.295800
 13
6.081680
 23
1.670680
  0
POLYLINE
  8
0
  6
CONTINUOUS
 66
     1
 40
0.000000
 41
0.000000
  0
VERTEX
  8
0
  6
CONTINUOUS
 10
5.411120
 20
1.331440
  0
VERTEX
  8
0
  6
CONTINUOUS
 10
6.064520
 20
1.706320
  0
VERTEX
  8
0
  6
CONTINUOUS
 10
6.081680
 20
1.670680
  0
VERTEX
  8
0
  6
CONTINUOUS
 10
5.428280
 20
1.295800
  0
VERTEX
  8
0
  6
CONTINUOUS
 10
5.411120
 20
1.331440
  0
SEQEND
  8
0
  0
SOLID
  8
0
 62
    15
 10
5.428280
 20
1.295800
 11
6.081680
 21
1.670680
 12
5.439720
 22
1.257520
 13
6.093560
 23
1.632400
  0
POLYLINE
  8
0
  6
CONTINUOUS
 66
     1
 40
0.000000
 41
0.000000
  0
VERTEX
  8
0
  6
CONTINUOUS
 10
5.428280
 20
1.295800
  0
VERTEX
  8
0
  6
CONTINUOUS
 10
6.081680
 20
1.670680
  0
VERTEX
  8
0
  6
CONTINUOUS
 10
6.093560
 20
1.632400
  0
VERTEX
  8
0
  6
CONTINUOUS
 10
5.439720
 20
1.257520
  0
VERTEX
  8
0
  6
CONTINUOUS
 10
5.428280
 20
1.295800
  0
SEQEND
  8
0
  0
SOLID
  8
0
 62
    15
 10
5.439720
 20
1.257520
 11
6.093560
 21
1.632400
 12
5.445440
 22
1.217920
 13
6.098840
 23
1.592800
  0
POLYLINE
  8
0
  6
CONTINUOUS
 66
     1
 40
0.000000
 41
0.000000
  0
VERTEX
  8
0
  6
CONTINUOUS
 10
5.439720
 20
1.257520
  0
VERTEX
  8
0
  6
CONTINUOUS
 10
6.093560
 20
1.632400
  0
VERTEX
  8
0
  6
CONTINUOUS
 10
6.098840
 20
1.592800
  0
VERTEX
  8
0
  6
CONTINUOUS
 10
5.445440
 20
1.217920
  0
VERTEX
  8
0
  6
CONTINUOUS
 10
5.439720
 20
1.257520
  0
SEQEND
  8
0
  0
SOLID
  8
0
 62
    15
 10
5.445440
 20
1.217920
 11
6.098840
 21
1.592800
 12
5.445440
 22
1.178320
 13
6.098840
 23
1.553200
  0
POLYLINE
  8
0
  6
CONTINUOUS
 66
     1
 40
0.000000
 41
0.000000
  0
VERTEX
  8
0
  6
CONTINUOUS
 10
5.445440
 20
1.217920
  0
VERTEX
  8
0
  6
CONTINUOUS
 10
6.098840
 20
1.592800
  0
VERTEX
  8
0
  6
CONTINUOUS
 10
6.098840
 20
1.553200
  0
VERTEX
  8
0
  6
CONTINUOUS
 10
5.445440
 20
1.178320
  0
VERTEX
  8
0
  6
CONTINUOUS
 10
5.445440
 20
1.217920
  0
SEQEND
  8
0
  0
SOLID
  8
0
 62
    15
 10
5.445440
 20
1.178320
 11
6.098840
 21
1.553200
 12
5.439720
 22
1.140040
 13
6.093120
 23
1.514920
  0
POLYLINE
  8
0
  6
CONTINUOUS
 66
     1
 40
0.000000
 41
0.000000
  0
VERTEX
  8
0
  6
CONTINUOUS
 10
5.445440
 20
1.178320
  0
VERTEX
  8
0
  6
CONTINUOUS
 10
6.098840
 20
1.553200
  0
VERTEX
  8
0
  6
CONTINUOUS
 10
6.093120
 20
1.514920
  0
VERTEX
  8
0
  6
CONTINUOUS
 10
5.439720
 20
1.140040
  0
VERTEX
  8
0
  6
CONTINUOUS
 10
5.445440
 20
1.178320
  0
SEQEND
  8
0
  0
SOLID
  8
0
 62
    15
 10
5.439720
 20
1.140040
 11
6.093120
 21
1.514920
 12
5.428720
 22
1.104400
 13
6.082120
 23
1.479280
  0
POLYLINE
  8
0
  6
CONTINUOUS
 66
     1
 40
0.000000
 41
0.000000
  0
VERTEX
  8
0
  6
CONTINUOUS
 10
5.439720
 20
1.140040
  0
VERTEX
  8
0
  6
CONTINUOUS
 10
6.093120
 20
1.514920
  0
VERTEX
  8
0
  6
CONTINUOUS
 10
6.082120
 20
1.479280
  0
VERTEX
  8
0
  6
CONTINUOUS
 10
5.428720
 20
1.104400
  0
VERTEX
  8
0
  6
CONTINUOUS
 10
5.439720
 20
1.140040
  0
SEQEND
  8
0
  0
SOLID
  8
0
 62
    15
 10
5.428720
 20
1.104400
 11
6.082120
 21
1.479280
 12
5.412000
 22
1.072280
 13
6.065400
 23
1.447160
  0
POLYLINE
  8
0
  6
CONTINUOUS
 66
     1
 40
0.000000
 41
0.000000
  0
VERTEX
  8
0
  6
CONTINUOUS
 10
5.428720
 20
1.104400
  0
VERTEX
  8
0
  6
CONTINUOUS
 10
6.082120
 20
1.479280
  0
VERTEX
  8
0
  6
CONTINUOUS
 10
6.065400
 20
1.447160
  0
VERTEX
  8
0
  6
CONTINUOUS
 10
5.412000
 20
1.072280
  0
VERTEX
  8
0
  6
CONTINUOUS
 10
5.428720
 20
1.104400
  0
SEQEND
  8
0
  0
SOLID
  8
0
 62
    15
 10
5.412000
 20
1.072280
 11
6.065400
 21
1.447160
 12
5.390000
 22
1.045440
 13
6.043400
 23
1.419880
  0
POLYLINE
  8
0
  6
CONTINUOUS
 66
     1
 40
0.000000
 41
0.000000
  0
VERTEX
  8
0
  6
CONTINUOUS
 10
5.412000
 20
1.072280
  0
VERTEX
  8
0
  6
CONTINUOUS
 10
6.065400
 20
1.447160
  0
VERTEX
  8
0
  6
CONTINUOUS
 10
6.043400
 20
1.419880
  0
VERTEX
  8
0
  6
CONTINUOUS
 10
5.390000
 20
1.045440
  0
VERTEX
  8
0
  6
CONTINUOUS
 10
5.412000
 20
1.072280
  0
SEQEND
  8
0
  0
SOLID
  8
0
 62
    15
 10
5.390000
 20
1.045440
 11
6.043400
 21
1.419880
 12
5.362720
 22
1.024320
 13
6.016120
 23
1.399200
  0
POLYLINE
  8
0
  6
CONTINUOUS
 66
     1
 40
0.000000
 41
0.000000
  0
VERTEX
  8
0
  6
CONTINUOUS
 10
5.390000
 20
1.045440
  0
VERTEX
  8
0
  6
CONTINUOUS
 10
6.043400
 20
1.419880
  0
VERTEX
  8
0
  6
CONTINUOUS
 10
6.016120
 20
1.399200
  0
VERTEX
  8
0
  6
CONTINUOUS
 10
5.362720
 20
1.024320
  0
VERTEX
  8
0
  6
CONTINUOUS
 10
5.390000
 20
1.045440
  0
SEQEND
  8
0
  0
SOLID
  8
0
 62
    15
 10
4.974200
 20
1.727440
 11
5.627600
 21
2.102320
 12
4.977720
 22
1.727440
 13
5.631120
 23
2.102320
  0
POLYLINE
  8
0
  6
CONTINUOUS
 66
     1
 40
0.000000
 41
0.000000
  0
VERTEX
  8
0
  6
CONTINUOUS
 10
4.974200
 20
1.727440
  0
VERTEX
  8
0
  6
CONTINUOUS
 10
5.627600
 20
2.102320
  0
VERTEX
  8
0
  6
CONTINUOUS
 10
5.631120
 20
2.102320
  0
VERTEX
  8
0
  6
CONTINUOUS
 10
4.977720
 20
1.727440
  0
VERTEX
  8
0
  6
CONTINUOUS
 10
4.974200
 20
1.727440
  0
SEQEND
  8
0
  0
POLYLINE
  8
0
  6
CONTINUOUS
 66
     1
 40
0.000000
 41
0.000000
  0
VERTEX
  8
0
  6
CONTINUOUS
 10
4.977720
 20
1.727440
  0
VERTEX
  8
0
  6
CONTINUOUS
 10
5.001040
 20
1.727000
  0
VERTEX
  8
0
  6
CONTINUOUS
 10
5.021280
 20
1.724360
  0
VERTEX
  8
0
  6
CONTINUOUS
 10
5.038880
 20
1.720840
  0
VERTEX
  8
0
  6
CONTINUOUS
 10
5.054280
 20
1.715560
  0
VERTEX
  8
0
  6
CONTINUOUS
 10
5.067040
 20
1.709400
  0
VERTEX
  8
0
  6
CONTINUOUS
 10
5.078040
 20
1.701920
  0
VERTEX
  8
0
  6
CONTINUOUS
 10
5.094760
 20
1.684760
  0
VERTEX
  8
0
  6
CONTINUOUS
 10
5.105760
 20
1.664520
  0
VERTEX
  8
0
  6
CONTINUOUS
 10
5.113240
 20
1.642080
  0
VERTEX
  8
0
  6
CONTINUOUS
 10
5.118960
 20
1.618320
  0
VERTEX
  8
0
  6
CONTINUOUS
 10
5.121600
 20
1.606440
  0
VERTEX
  8
0
  6
CONTINUOUS
 10
5.124680
 20
1.594560
  0
VERTEX
  8
0
  6
CONTINUOUS
 10
5.133040
 20
1.571680
  0
VERTEX
  8
0
  6
CONTINUOUS
 10
5.144920
 20
1.551000
  0
VERTEX
  8
0
  6
CONTINUOUS
 10
5.159000
 20
1.532520
  0
VERTEX
  8
0
  6
CONTINUOUS
 10
5.174840
 20
1.516680
  0
VERTEX
  8
0
  6
CONTINUOUS
 10
5.191120
 20
1.503480
  0
VERTEX
  8
0
  6
CONTINUOUS
 10
5.206960
 20
1.494240
  0
VERTEX
  8
0
  6
CONTINUOUS
 10
5.221040
 20
1.488080
  0
VERTEX
  8
0
  6
CONTINUOUS
 10
5.233360
 20
1.485880
  0
VERTEX
  8
0
  6
CONTINUOUS
 10
5.233360
 20
1.430000
  0
VERTEX
  8
0
  6
CONTINUOUS
 10
5.258000
 20
1.428680
  0
VERTEX
  8
0
  6
CONTINUOUS
 10
5.281320
 20
1.425160
  0
VERTEX
  8
0
  6
CONTINUOUS
 10
5.302880
 20
1.419440
  0
VERTEX
  8
0
  6
CONTINUOUS
 10
5.323120
 20
1.411520
  0
VERTEX
  8
0
  6
CONTINUOUS
 10
5.341600
 20
1.402280
  0
VERTEX
  8
0
  6
CONTINUOUS
 10
5.358320
 20
1.390840
  0
VERTEX
  8
0
  6
CONTINUOUS
 10
5.387800
 20
1.363560
  0
VERTEX
  8
0
  6
CONTINUOUS
 10
5.411120
 20
1.331440
  0
VERTEX
  8
0
  6
CONTINUOUS
 10
5.428280
 20
1.295800
  0
VERTEX
  8
0
  6
CONTINUOUS
 10
5.439720
 20
1.257520
  0
VERTEX
  8
0
  6
CONTINUOUS
 10
5.445440
 20
1.217920
  0
VERTEX
  8
0
  6
CONTINUOUS
 10
5.445440
 20
1.178320
  0
VERTEX
  8
0
  6
CONTINUOUS
 10
5.439720
 20
1.140040
  0
VERTEX
  8
0
  6
CONTINUOUS
 10
5.428720
 20
1.104400
  0
VERTEX
  8
0
  6
CONTINUOUS
 10
5.412000
 20
1.072280
  0
VERTEX
  8
0
  6
CONTINUOUS
 10
5.390000
 20
1.045440
  0
VERTEX
  8
0
  6
CONTINUOUS
 10
5.362720
 20
1.024320
  0
VERTEX
  8
0
  6
CONTINUOUS
 10
5.347320
 20
1.016400
  0
VERTEX
  8
0
  6
CONTINUOUS
 10
5.330160
 20
1.011120
  0
VERTEX
  8
0
  6
CONTINUOUS
 10
5.312120
 20
1.007160
  0
VERTEX
  8
0
  6
CONTINUOUS
 10
5.292760
 20
1.006280
  0
VERTEX
  8
0
  6
CONTINUOUS
 10
4.974200
 20
1.006280
  0
VERTEX
  8
0
  6
CONTINUOUS
 10
4.974200
 20
1.727440
  0
VERTEX
  8
0
  6
CONTINUOUS
 10
4.977720
 20
1.727440
  0
SEQEND
  8
0
  0
TEXT
  8
0
 10
5.240400
 20
0.773960
 40
0.138090
  1
BA  915
 41
1.000000
  7
SN0
 71
     0
 72
     5
 11
5.830129
 21
0.773960
  0
TEXT
  8
0
 10
5.158560
 20
0.582560
 40
0.138090
  1
1/2" x 3/4"
 41
1.000000
  7
SN0
 71
     0
 72
     5
 11
5.911103
 21
0.582560
  0
ENDSEC
  0
EOF
