  0
SECTION
  2
HEADER
  9
$ACADVER
  1
AC1006
  9
$EXTMIN
 10
4.455880
 20
2.159960
  9
$EXTMAX
 10
6.631240
 20
4.359520
  9
$LTSCALE
 40
0.044000
  9
$PDMODE
 70
    35
  9
$PDSIZE
 40
0.035200
  0
ENDSEC
  0
SECTION
  2
TABLES
  0
TABLE
  2
LTYPE
 70
     9
  0
LTYPE
  2
CONTINUOUS
 70
    64
  3
Solid line
 72
    65
 73
     0
 40
0.000000
  0
LTYPE
  2
DASHED
 70
    64
  3
__ __ __ __ __ __ __ __ __ __ __ __ __ __ __
 72
    65
 73
     2
 40
0.000330
 49
0.000220
 49
-0.000110
  0
LTYPE
  2
HIDDEN
 70
    64
  3
 _ _ _ _ _ _ _ _ _ _ _ _ _ _ _ _ _ _ _ _ _ _
 72
    65
 73
     2
 40
0.000165
 49
0.000110
 49
-0.000055
  0
LTYPE
  2
CENTER
 70
    64
  3
____ _ ____ _ ____ _ ____ _ ____ _ ____ _ ____
 72
    65
 73
     4
 40
0.000880
 49
0.000550
 49
-0.000110
 49
0.000110
 49
-0.000110
  0
LTYPE
  2
PHANTOM
 70
    64
  3
_____ _ _ _____ _ _ _____ _ _ _____ _ _ ____
 72
    65
 73
     6
 40
0.001100
 49
0.000550
 49
-0.000110
 49
0.000110
 49
-0.000110
 49
0.000110
 49
-0.000110
  0
LTYPE
  2
DOT
 70
    64
  3
...............................................
 72
    65
 73
     2
 40
0.000110
 49
0.000000
 49
-0.000110
  0
LTYPE
  2
DASHDOT
 70
    64
  3
__ . __ . __ . __ . __ . __ . __ . __ . __ . __
 72
    65
 73
     4
 40
0.000440
 49
0.000220
 49
-0.000110
 49
0.000000
 49
-0.000110
  0
LTYPE
  2
BORDER
 70
    64
  3
__ __ . __ __ . __ __ . __ __ . __ __ . __ __
 72
    65
 73
     6
 40
0.000770
 49
0.000220
 49
-0.000110
 49
0.000220
 49
-0.000110
 49
0.000000
 49
-0.000110
  0
LTYPE
  2
DIVIDE
 70
    64
  3
__ . . __ . . __ . . __ . . __ . . __ . . __
 72
    65
 73
     6
 40
0.000550
 49
0.000220
 49
-0.000110
 49
0.000000
 49
-0.000110
 49
0.000000
 49
-0.000110
  0
LTYPE
  2
DOTDOT
 70
    64
  3
 . .  . .  . .  . .  . .  . . 
 72
    65
 73
     5
 40
0.000242
 49
-0.000110
 49
0.000000
 49
-0.000110
 49
0.000000
 49
-0.000110
  0
ENDTAB
  0
TABLE
  2
STYLE
 70
     2
  0
STYLE
 70
     0
  2
SN0
 40
0.000000
 41
0.000440
 50
0.000000
 71
     0
 42
0.000000
  3
ROMAND
  0
STYLE
 70
    68
  2
SV0
 40
0.000000
 41
0.000440
 50
0.000000
 71
     0
 42
0.000000
  3
ROMAND
  0
ENDTAB
  0
TABLE
  2
LAYER
 70
     3
  0
LAYER
  2
FOREGROUND
 70
    64
 62
     7
  6
CONTINUOUS
  0
LAYER
  2
BACKGROUND
 70
    65
 62
    -7
  6
CONTINUOUS
  0
LAYER
  2
0
 70
    64
 62
     7
  6
CONTINUOUS
  0
ENDTAB
  0
ENDSEC
  0
SECTION
  2
ENTITIES
  0
POLYLINE
  8
FOREGROUND
  6
CONTINUOUS
 66
     1
 40
0.000000
 41
0.000000
  0
VERTEX
  8
FOREGROUND
  6
CONTINUOUS
 10
0.000000
 20
6.519480
  0
VERTEX
  8
FOREGROUND
  6
CONTINUOUS
 10
8.499920
 20
6.519480
  0
VERTEX
  8
FOREGROUND
  6
CONTINUOUS
 10
8.499920
 20
-4.480520
  0
VERTEX
  8
FOREGROUND
  6
CONTINUOUS
 10
0.000000
 20
-4.480520
  0
VERTEX
  8
FOREGROUND
  6
CONTINUOUS
 10
0.000000
 20
6.519480
  0
SEQEND
  8
0
  0
POLYLINE
  8
FOREGROUND
  6
CONTINUOUS
 66
     1
 40
0.000000
 41
0.000000
  0
VERTEX
  8
FOREGROUND
  6
CONTINUOUS
 10
0.000000
 20
6.519480
  0
VERTEX
  8
FOREGROUND
  6
CONTINUOUS
 10
8.499920
 20
6.519480
  0
VERTEX
  8
FOREGROUND
  6
CONTINUOUS
 10
8.499920
 20
-4.480520
  0
VERTEX
  8
FOREGROUND
  6
CONTINUOUS
 10
0.000000
 20
-4.480520
  0
VERTEX
  8
FOREGROUND
  6
CONTINUOUS
 10
0.000000
 20
6.519480
  0
SEQEND
  8
0
  0
POLYLINE
  8
0
  6
CONTINUOUS
 66
     1
 40
0.014080
 41
0.014080
  0
VERTEX
  8
0
  6
CONTINUOUS
 10
6.022280
 20
3.690720
  0
VERTEX
  8
0
  6
CONTINUOUS
 10
6.024040
 20
3.721520
  0
VERTEX
  8
0
  6
CONTINUOUS
 10
6.028440
 20
3.751440
  0
VERTEX
  8
0
  6
CONTINUOUS
 10
6.040760
 20
3.794120
  0
VERTEX
  8
0
  6
CONTINUOUS
 10
6.058800
 20
3.834160
  0
VERTEX
  8
0
  6
CONTINUOUS
 10
6.073760
 20
3.859240
  0
VERTEX
  8
0
  6
CONTINUOUS
 10
6.100600
 20
3.893120
  0
VERTEX
  8
0
  6
CONTINUOUS
 10
6.131840
 20
3.923040
  0
VERTEX
  8
0
  6
CONTINUOUS
 10
6.167480
 20
3.948120
  0
VERTEX
  8
0
  6
CONTINUOUS
 10
6.193000
 20
3.962200
  0
VERTEX
  8
0
  6
CONTINUOUS
 10
6.219840
 20
3.973640
  0
VERTEX
  8
0
  6
CONTINUOUS
 10
6.262520
 20
3.985520
  0
VERTEX
  8
0
  6
CONTINUOUS
 10
6.292440
 20
3.989920
  0
VERTEX
  8
0
  6
CONTINUOUS
 10
6.323240
 20
3.991680
  0
VERTEX
  8
0
  6
CONTINUOUS
 10
6.354040
 20
3.989920
  0
VERTEX
  8
0
  6
CONTINUOUS
 10
6.383960
 20
3.985520
  0
VERTEX
  8
0
  6
CONTINUOUS
 10
6.426640
 20
3.973640
  0
VERTEX
  8
0
  6
CONTINUOUS
 10
6.453920
 20
3.962200
  0
VERTEX
  8
0
  6
CONTINUOUS
 10
6.491760
 20
3.940200
  0
VERTEX
  8
0
  6
CONTINUOUS
 10
6.525640
 20
3.913360
  0
VERTEX
  8
0
  6
CONTINUOUS
 10
6.555560
 20
3.882120
  0
VERTEX
  8
0
  6
CONTINUOUS
 10
6.580640
 20
3.846920
  0
VERTEX
  8
0
  6
CONTINUOUS
 10
6.594720
 20
3.821400
  0
VERTEX
  8
0
  6
CONTINUOUS
 10
6.606160
 20
3.794120
  0
VERTEX
  8
0
  6
CONTINUOUS
 10
6.618040
 20
3.751440
  0
VERTEX
  8
0
  6
CONTINUOUS
 10
6.622440
 20
3.721520
  0
VERTEX
  8
0
  6
CONTINUOUS
 10
6.624200
 20
3.690720
  0
VERTEX
  8
0
  6
CONTINUOUS
 10
6.622440
 20
3.659920
  0
VERTEX
  8
0
  6
CONTINUOUS
 10
6.618040
 20
3.630000
  0
VERTEX
  8
0
  6
CONTINUOUS
 10
6.606160
 20
3.587320
  0
VERTEX
  8
0
  6
CONTINUOUS
 10
6.594720
 20
3.560480
  0
VERTEX
  8
0
  6
CONTINUOUS
 10
6.572720
 20
3.522640
  0
VERTEX
  8
0
  6
CONTINUOUS
 10
6.545880
 20
3.488760
  0
VERTEX
  8
0
  6
CONTINUOUS
 10
6.514640
 20
3.458840
  0
VERTEX
  8
0
  6
CONTINUOUS
 10
6.479440
 20
3.433760
  0
VERTEX
  8
0
  6
CONTINUOUS
 10
6.453920
 20
3.419680
  0
VERTEX
  8
0
  6
CONTINUOUS
 10
6.426640
 20
3.408240
  0
VERTEX
  8
0
  6
CONTINUOUS
 10
6.383960
 20
3.396360
  0
VERTEX
  8
0
  6
CONTINUOUS
 10
6.354040
 20
3.391960
  0
VERTEX
  8
0
  6
CONTINUOUS
 10
6.323240
 20
3.390200
  0
VERTEX
  8
0
  6
CONTINUOUS
 10
6.323240
 20
3.053160
  0
VERTEX
  8
0
  6
CONTINUOUS
 10
6.267800
 20
3.053160
  0
VERTEX
  8
0
  6
CONTINUOUS
 10
6.266040
 20
3.018840
  0
VERTEX
  8
0
  6
CONTINUOUS
 10
6.261200
 20
2.984960
  0
VERTEX
  8
0
  6
CONTINUOUS
 10
6.253280
 20
2.952400
  0
VERTEX
  8
0
  6
CONTINUOUS
 10
6.236120
 20
2.908400
  0
VERTEX
  8
0
  6
CONTINUOUS
 10
6.221600
 20
2.882880
  0
VERTEX
  8
0
  6
CONTINUOUS
 10
6.204880
 20
2.861320
  0
VERTEX
  8
0
  6
CONTINUOUS
 10
6.185960
 20
2.844600
  0
VERTEX
  8
0
  6
CONTINUOUS
 10
6.145480
 20
2.816880
  0
VERTEX
  8
0
  6
CONTINUOUS
 10
6.115120
 20
2.787400
  0
VERTEX
  8
0
  6
CONTINUOUS
 10
6.096640
 20
2.763640
  0
VERTEX
  8
0
  6
CONTINUOUS
 10
6.080800
 20
2.736800
  0
VERTEX
  8
0
  6
CONTINUOUS
 10
6.068480
 20
2.706880
  0
VERTEX
  8
0
  6
CONTINUOUS
 10
6.063640
 20
2.690600
  0
VERTEX
  8
0
  6
CONTINUOUS
 10
6.058360
 20
2.656720
  0
VERTEX
  8
0
  6
CONTINUOUS
 10
6.057480
 20
2.638680
  0
VERTEX
  8
0
  6
CONTINUOUS
 10
5.944400
 20
2.638680
  0
VERTEX
  8
0
  6
CONTINUOUS
 10
5.944400
 20
3.689400
  0
VERTEX
  8
0
  6
CONTINUOUS
 10
6.022280
 20
3.689400
  0
VERTEX
  8
0
  6
CONTINUOUS
 10
6.022280
 20
3.690720
  0
SEQEND
  8
0
  0
SOLID
  8
0
 62
    15
 10
4.835160
 20
3.420560
 11
5.479760
 21
3.052280
 12
4.779720
 22
3.420560
 13
5.424320
 23
3.052280
  0
POLYLINE
  8
0
  6
CONTINUOUS
 66
     1
 40
0.000000
 41
0.000000
  0
VERTEX
  8
0
  6
CONTINUOUS
 10
4.835160
 20
3.420560
  0
VERTEX
  8
0
  6
CONTINUOUS
 10
5.479760
 20
3.052280
  0
VERTEX
  8
0
  6
CONTINUOUS
 10
5.424320
 20
3.052280
  0
VERTEX
  8
0
  6
CONTINUOUS
 10
4.779720
 20
3.420560
  0
VERTEX
  8
0
  6
CONTINUOUS
 10
4.835160
 20
3.420560
  0
SEQEND
  8
0
  0
SOLID
  8
0
 62
    15
 10
5.047680
 20
4.270640
 11
5.692280
 21
3.902360
 12
5.084640
 22
4.226200
 13
5.728800
 23
3.857920
  0
POLYLINE
  8
0
  6
CONTINUOUS
 66
     1
 40
0.000000
 41
0.000000
  0
VERTEX
  8
0
  6
CONTINUOUS
 10
5.047680
 20
4.270640
  0
VERTEX
  8
0
  6
CONTINUOUS
 10
5.692280
 20
3.902360
  0
VERTEX
  8
0
  6
CONTINUOUS
 10
5.728800
 20
3.857920
  0
VERTEX
  8
0
  6
CONTINUOUS
 10
5.084640
 20
4.226200
  0
VERTEX
  8
0
  6
CONTINUOUS
 10
5.047680
 20
4.270640
  0
SEQEND
  8
0
  0
SOLID
  8
0
 62
    15
 10
5.084640
 20
4.226200
 11
5.728800
 21
3.857920
 12
5.112360
 22
4.175160
 13
5.756960
 23
3.806880
  0
POLYLINE
  8
0
  6
CONTINUOUS
 66
     1
 40
0.000000
 41
0.000000
  0
VERTEX
  8
0
  6
CONTINUOUS
 10
5.084640
 20
4.226200
  0
VERTEX
  8
0
  6
CONTINUOUS
 10
5.728800
 20
3.857920
  0
VERTEX
  8
0
  6
CONTINUOUS
 10
5.756960
 20
3.806880
  0
VERTEX
  8
0
  6
CONTINUOUS
 10
5.112360
 20
4.175160
  0
VERTEX
  8
0
  6
CONTINUOUS
 10
5.084640
 20
4.226200
  0
SEQEND
  8
0
  0
SOLID
  8
0
 62
    15
 10
5.112360
 20
4.175160
 11
5.756960
 21
3.806880
 12
5.129960
 22
4.118840
 13
5.774120
 23
3.750560
  0
POLYLINE
  8
0
  6
CONTINUOUS
 66
     1
 40
0.000000
 41
0.000000
  0
VERTEX
  8
0
  6
CONTINUOUS
 10
5.112360
 20
4.175160
  0
VERTEX
  8
0
  6
CONTINUOUS
 10
5.756960
 20
3.806880
  0
VERTEX
  8
0
  6
CONTINUOUS
 10
5.774120
 20
3.750560
  0
VERTEX
  8
0
  6
CONTINUOUS
 10
5.129960
 20
4.118840
  0
VERTEX
  8
0
  6
CONTINUOUS
 10
5.112360
 20
4.175160
  0
SEQEND
  8
0
  0
SOLID
  8
0
 62
    15
 10
5.129960
 20
4.118840
 11
5.774120
 21
3.750560
 12
5.134360
 22
4.088920
 13
5.778960
 23
3.720640
  0
POLYLINE
  8
0
  6
CONTINUOUS
 66
     1
 40
0.000000
 41
0.000000
  0
VERTEX
  8
0
  6
CONTINUOUS
 10
5.129960
 20
4.118840
  0
VERTEX
  8
0
  6
CONTINUOUS
 10
5.774120
 20
3.750560
  0
VERTEX
  8
0
  6
CONTINUOUS
 10
5.778960
 20
3.720640
  0
VERTEX
  8
0
  6
CONTINUOUS
 10
5.134360
 20
4.088920
  0
VERTEX
  8
0
  6
CONTINUOUS
 10
5.129960
 20
4.118840
  0
SEQEND
  8
0
  0
SOLID
  8
0
 62
    15
 10
5.134360
 20
4.088920
 11
5.778960
 21
3.720640
 12
5.136120
 22
4.058120
 13
5.780280
 23
3.689840
  0
POLYLINE
  8
0
  6
CONTINUOUS
 66
     1
 40
0.000000
 41
0.000000
  0
VERTEX
  8
0
  6
CONTINUOUS
 10
5.134360
 20
4.088920
  0
VERTEX
  8
0
  6
CONTINUOUS
 10
5.778960
 20
3.720640
  0
VERTEX
  8
0
  6
CONTINUOUS
 10
5.780280
 20
3.689840
  0
VERTEX
  8
0
  6
CONTINUOUS
 10
5.136120
 20
4.058120
  0
VERTEX
  8
0
  6
CONTINUOUS
 10
5.134360
 20
4.088920
  0
SEQEND
  8
0
  0
SOLID
  8
0
 62
    15
 10
5.136120
 20
4.058120
 11
5.780280
 21
3.689840
 12
5.134360
 22
4.027320
 13
5.778960
 23
3.659040
  0
POLYLINE
  8
0
  6
CONTINUOUS
 66
     1
 40
0.000000
 41
0.000000
  0
VERTEX
  8
0
  6
CONTINUOUS
 10
5.136120
 20
4.058120
  0
VERTEX
  8
0
  6
CONTINUOUS
 10
5.780280
 20
3.689840
  0
VERTEX
  8
0
  6
CONTINUOUS
 10
5.778960
 20
3.659040
  0
VERTEX
  8
0
  6
CONTINUOUS
 10
5.134360
 20
4.027320
  0
VERTEX
  8
0
  6
CONTINUOUS
 10
5.136120
 20
4.058120
  0
SEQEND
  8
0
  0
SOLID
  8
0
 62
    15
 10
5.134360
 20
4.027320
 11
5.778960
 21
3.659040
 12
5.129960
 22
3.997400
 13
5.774120
 23
3.629120
  0
POLYLINE
  8
0
  6
CONTINUOUS
 66
     1
 40
0.000000
 41
0.000000
  0
VERTEX
  8
0
  6
CONTINUOUS
 10
5.134360
 20
4.027320
  0
VERTEX
  8
0
  6
CONTINUOUS
 10
5.778960
 20
3.659040
  0
VERTEX
  8
0
  6
CONTINUOUS
 10
5.774120
 20
3.629120
  0
VERTEX
  8
0
  6
CONTINUOUS
 10
5.129960
 20
3.997400
  0
VERTEX
  8
0
  6
CONTINUOUS
 10
5.134360
 20
4.027320
  0
SEQEND
  8
0
  0
SOLID
  8
0
 62
    15
 10
5.129960
 20
3.997400
 11
5.774120
 21
3.629120
 12
5.112360
 22
3.941080
 13
5.756960
 23
3.572800
  0
POLYLINE
  8
0
  6
CONTINUOUS
 66
     1
 40
0.000000
 41
0.000000
  0
VERTEX
  8
0
  6
CONTINUOUS
 10
5.129960
 20
3.997400
  0
VERTEX
  8
0
  6
CONTINUOUS
 10
5.774120
 20
3.629120
  0
VERTEX
  8
0
  6
CONTINUOUS
 10
5.756960
 20
3.572800
  0
VERTEX
  8
0
  6
CONTINUOUS
 10
5.112360
 20
3.941080
  0
VERTEX
  8
0
  6
CONTINUOUS
 10
5.129960
 20
3.997400
  0
SEQEND
  8
0
  0
SOLID
  8
0
 62
    15
 10
5.112360
 20
3.941080
 11
5.756960
 21
3.572800
 12
5.084640
 22
3.890040
 13
5.728800
 23
3.521760
  0
POLYLINE
  8
0
  6
CONTINUOUS
 66
     1
 40
0.000000
 41
0.000000
  0
VERTEX
  8
0
  6
CONTINUOUS
 10
5.112360
 20
3.941080
  0
VERTEX
  8
0
  6
CONTINUOUS
 10
5.756960
 20
3.572800
  0
VERTEX
  8
0
  6
CONTINUOUS
 10
5.728800
 20
3.521760
  0
VERTEX
  8
0
  6
CONTINUOUS
 10
5.084640
 20
3.890040
  0
VERTEX
  8
0
  6
CONTINUOUS
 10
5.112360
 20
3.941080
  0
SEQEND
  8
0
  0
SOLID
  8
0
 62
    15
 10
5.084640
 20
3.890040
 11
5.728800
 21
3.521760
 12
5.047680
 22
3.845600
 13
5.692280
 23
3.477320
  0
POLYLINE
  8
0
  6
CONTINUOUS
 66
     1
 40
0.000000
 41
0.000000
  0
VERTEX
  8
0
  6
CONTINUOUS
 10
5.084640
 20
3.890040
  0
VERTEX
  8
0
  6
CONTINUOUS
 10
5.728800
 20
3.521760
  0
VERTEX
  8
0
  6
CONTINUOUS
 10
5.692280
 20
3.477320
  0
VERTEX
  8
0
  6
CONTINUOUS
 10
5.047680
 20
3.845600
  0
VERTEX
  8
0
  6
CONTINUOUS
 10
5.084640
 20
3.890040
  0
SEQEND
  8
0
  0
SOLID
  8
0
 62
    15
 10
5.047680
 20
3.845600
 11
5.692280
 21
3.477320
 12
5.003240
 22
3.808640
 13
5.647840
 23
3.440360
  0
POLYLINE
  8
0
  6
CONTINUOUS
 66
     1
 40
0.000000
 41
0.000000
  0
VERTEX
  8
0
  6
CONTINUOUS
 10
5.047680
 20
3.845600
  0
VERTEX
  8
0
  6
CONTINUOUS
 10
5.692280
 20
3.477320
  0
VERTEX
  8
0
  6
CONTINUOUS
 10
5.647840
 20
3.440360
  0
VERTEX
  8
0
  6
CONTINUOUS
 10
5.003240
 20
3.808640
  0
VERTEX
  8
0
  6
CONTINUOUS
 10
5.047680
 20
3.845600
  0
SEQEND
  8
0
  0
SOLID
  8
0
 62
    15
 10
5.003240
 20
3.808640
 11
5.647840
 21
3.440360
 12
4.952200
 22
3.780920
 13
5.596800
 23
3.412640
  0
POLYLINE
  8
0
  6
CONTINUOUS
 66
     1
 40
0.000000
 41
0.000000
  0
VERTEX
  8
0
  6
CONTINUOUS
 10
5.003240
 20
3.808640
  0
VERTEX
  8
0
  6
CONTINUOUS
 10
5.647840
 20
3.440360
  0
VERTEX
  8
0
  6
CONTINUOUS
 10
5.596800
 20
3.412640
  0
VERTEX
  8
0
  6
CONTINUOUS
 10
4.952200
 20
3.780920
  0
VERTEX
  8
0
  6
CONTINUOUS
 10
5.003240
 20
3.808640
  0
SEQEND
  8
0
  0
SOLID
  8
0
 62
    15
 10
4.952200
 20
3.780920
 11
5.596800
 21
3.412640
 12
4.895880
 22
3.763320
 13
5.540040
 23
3.395040
  0
POLYLINE
  8
0
  6
CONTINUOUS
 66
     1
 40
0.000000
 41
0.000000
  0
VERTEX
  8
0
  6
CONTINUOUS
 10
4.952200
 20
3.780920
  0
VERTEX
  8
0
  6
CONTINUOUS
 10
5.596800
 20
3.412640
  0
VERTEX
  8
0
  6
CONTINUOUS
 10
5.540040
 20
3.395040
  0
VERTEX
  8
0
  6
CONTINUOUS
 10
4.895880
 20
3.763320
  0
VERTEX
  8
0
  6
CONTINUOUS
 10
4.952200
 20
3.780920
  0
SEQEND
  8
0
  0
SOLID
  8
0
 62
    15
 10
4.895880
 20
3.763320
 11
5.540040
 21
3.395040
 12
4.865960
 22
3.758920
 13
5.510560
 23
3.390640
  0
POLYLINE
  8
0
  6
CONTINUOUS
 66
     1
 40
0.000000
 41
0.000000
  0
VERTEX
  8
0
  6
CONTINUOUS
 10
4.895880
 20
3.763320
  0
VERTEX
  8
0
  6
CONTINUOUS
 10
5.540040
 20
3.395040
  0
VERTEX
  8
0
  6
CONTINUOUS
 10
5.510560
 20
3.390640
  0
VERTEX
  8
0
  6
CONTINUOUS
 10
4.865960
 20
3.758920
  0
VERTEX
  8
0
  6
CONTINUOUS
 10
4.895880
 20
3.763320
  0
SEQEND
  8
0
  0
SOLID
  8
0
 62
    15
 10
4.865960
 20
3.758920
 11
5.510560
 21
3.390640
 12
4.835160
 22
3.757160
 13
5.479760
 23
3.388880
  0
POLYLINE
  8
0
  6
CONTINUOUS
 66
     1
 40
0.000000
 41
0.000000
  0
VERTEX
  8
0
  6
CONTINUOUS
 10
4.865960
 20
3.758920
  0
VERTEX
  8
0
  6
CONTINUOUS
 10
5.510560
 20
3.390640
  0
VERTEX
  8
0
  6
CONTINUOUS
 10
5.479760
 20
3.388880
  0
VERTEX
  8
0
  6
CONTINUOUS
 10
4.835160
 20
3.757160
  0
VERTEX
  8
0
  6
CONTINUOUS
 10
4.865960
 20
3.758920
  0
SEQEND
  8
0
  0
SOLID
  8
0
 62
     7
 10
4.835160
 20
3.757160
 11
5.479760
 21
3.388880
 12
4.835160
 22
3.420560
 13
5.479760
 23
3.052280
  0
POLYLINE
  8
0
  6
CONTINUOUS
 66
     1
 40
0.000000
 41
0.000000
  0
VERTEX
  8
0
  6
CONTINUOUS
 10
4.835160
 20
3.757160
  0
VERTEX
  8
0
  6
CONTINUOUS
 10
5.479760
 20
3.388880
  0
VERTEX
  8
0
  6
CONTINUOUS
 10
5.479760
 20
3.052280
  0
VERTEX
  8
0
  6
CONTINUOUS
 10
4.835160
 20
3.420560
  0
VERTEX
  8
0
  6
CONTINUOUS
 10
4.835160
 20
3.757160
  0
SEQEND
  8
0
  0
SOLID
  8
0
 62
    15
 10
5.003240
 20
4.307600
 11
5.647840
 21
3.939320
 12
5.047680
 22
4.270640
 13
5.692280
 23
3.902360
  0
POLYLINE
  8
0
  6
CONTINUOUS
 66
     1
 40
0.000000
 41
0.000000
  0
VERTEX
  8
0
  6
CONTINUOUS
 10
5.003240
 20
4.307600
  0
VERTEX
  8
0
  6
CONTINUOUS
 10
5.647840
 20
3.939320
  0
VERTEX
  8
0
  6
CONTINUOUS
 10
5.692280
 20
3.902360
  0
VERTEX
  8
0
  6
CONTINUOUS
 10
5.047680
 20
4.270640
  0
VERTEX
  8
0
  6
CONTINUOUS
 10
5.003240
 20
4.307600
  0
SEQEND
  8
0
  0
SOLID
  8
0
 62
     7
 10
4.779720
 20
3.420560
 11
5.424320
 21
3.052280
 12
4.778400
 22
3.385800
 13
5.422560
 23
3.017520
  0
POLYLINE
  8
0
  6
CONTINUOUS
 66
     1
 40
0.000000
 41
0.000000
  0
VERTEX
  8
0
  6
CONTINUOUS
 10
4.779720
 20
3.420560
  0
VERTEX
  8
0
  6
CONTINUOUS
 10
5.424320
 20
3.052280
  0
VERTEX
  8
0
  6
CONTINUOUS
 10
5.422560
 20
3.017520
  0
VERTEX
  8
0
  6
CONTINUOUS
 10
4.778400
 20
3.385800
  0
VERTEX
  8
0
  6
CONTINUOUS
 10
4.779720
 20
3.420560
  0
SEQEND
  8
0
  0
SOLID
  8
0
 62
    15
 10
4.778400
 20
3.385800
 11
5.422560
 21
3.017520
 12
4.773120
 22
3.352360
 13
5.417720
 23
2.984080
  0
POLYLINE
  8
0
  6
CONTINUOUS
 66
     1
 40
0.000000
 41
0.000000
  0
VERTEX
  8
0
  6
CONTINUOUS
 10
4.778400
 20
3.385800
  0
VERTEX
  8
0
  6
CONTINUOUS
 10
5.422560
 20
3.017520
  0
VERTEX
  8
0
  6
CONTINUOUS
 10
5.417720
 20
2.984080
  0
VERTEX
  8
0
  6
CONTINUOUS
 10
4.773120
 20
3.352360
  0
VERTEX
  8
0
  6
CONTINUOUS
 10
4.778400
 20
3.385800
  0
SEQEND
  8
0
  0
SOLID
  8
0
 62
    15
 10
4.773120
 20
3.352360
 11
5.417720
 21
2.984080
 12
4.765200
 22
3.319800
 13
5.409800
 23
2.951520
  0
POLYLINE
  8
0
  6
CONTINUOUS
 66
     1
 40
0.000000
 41
0.000000
  0
VERTEX
  8
0
  6
CONTINUOUS
 10
4.773120
 20
3.352360
  0
VERTEX
  8
0
  6
CONTINUOUS
 10
5.417720
 20
2.984080
  0
VERTEX
  8
0
  6
CONTINUOUS
 10
5.409800
 20
2.951520
  0
VERTEX
  8
0
  6
CONTINUOUS
 10
4.765200
 20
3.319800
  0
VERTEX
  8
0
  6
CONTINUOUS
 10
4.773120
 20
3.352360
  0
SEQEND
  8
0
  0
SOLID
  8
0
 62
    15
 10
4.765200
 20
3.319800
 11
5.409800
 21
2.951520
 12
4.754200
 22
3.289880
 13
5.398800
 23
2.921600
  0
POLYLINE
  8
0
  6
CONTINUOUS
 66
     1
 40
0.000000
 41
0.000000
  0
VERTEX
  8
0
  6
CONTINUOUS
 10
4.765200
 20
3.319800
  0
VERTEX
  8
0
  6
CONTINUOUS
 10
5.409800
 20
2.951520
  0
VERTEX
  8
0
  6
CONTINUOUS
 10
5.398800
 20
2.921600
  0
VERTEX
  8
0
  6
CONTINUOUS
 10
4.754200
 20
3.289880
  0
VERTEX
  8
0
  6
CONTINUOUS
 10
4.765200
 20
3.319800
  0
SEQEND
  8
0
  0
SOLID
  8
0
 62
    15
 10
4.754200
 20
3.289880
 11
5.398800
 21
2.921600
 12
4.741000
 22
3.262600
 13
5.385160
 23
2.894320
  0
POLYLINE
  8
0
  6
CONTINUOUS
 66
     1
 40
0.000000
 41
0.000000
  0
VERTEX
  8
0
  6
CONTINUOUS
 10
4.754200
 20
3.289880
  0
VERTEX
  8
0
  6
CONTINUOUS
 10
5.398800
 20
2.921600
  0
VERTEX
  8
0
  6
CONTINUOUS
 10
5.385160
 20
2.894320
  0
VERTEX
  8
0
  6
CONTINUOUS
 10
4.741000
 20
3.262600
  0
VERTEX
  8
0
  6
CONTINUOUS
 10
4.754200
 20
3.289880
  0
SEQEND
  8
0
  0
SOLID
  8
0
 62
    15
 10
4.741000
 20
3.262600
 11
5.385160
 21
2.894320
 12
4.725160
 22
3.238840
 13
5.369760
 23
2.870560
  0
POLYLINE
  8
0
  6
CONTINUOUS
 66
     1
 40
0.000000
 41
0.000000
  0
VERTEX
  8
0
  6
CONTINUOUS
 10
4.741000
 20
3.262600
  0
VERTEX
  8
0
  6
CONTINUOUS
 10
5.385160
 20
2.894320
  0
VERTEX
  8
0
  6
CONTINUOUS
 10
5.369760
 20
2.870560
  0
VERTEX
  8
0
  6
CONTINUOUS
 10
4.725160
 20
3.238840
  0
VERTEX
  8
0
  6
CONTINUOUS
 10
4.741000
 20
3.262600
  0
SEQEND
  8
0
  0
SOLID
  8
0
 62
    15
 10
4.725160
 20
3.238840
 11
5.369760
 21
2.870560
 12
4.707560
 22
3.219480
 13
5.352160
 23
2.851200
  0
POLYLINE
  8
0
  6
CONTINUOUS
 66
     1
 40
0.000000
 41
0.000000
  0
VERTEX
  8
0
  6
CONTINUOUS
 10
4.725160
 20
3.238840
  0
VERTEX
  8
0
  6
CONTINUOUS
 10
5.369760
 20
2.870560
  0
VERTEX
  8
0
  6
CONTINUOUS
 10
5.352160
 20
2.851200
  0
VERTEX
  8
0
  6
CONTINUOUS
 10
4.707560
 20
3.219480
  0
VERTEX
  8
0
  6
CONTINUOUS
 10
4.725160
 20
3.238840
  0
SEQEND
  8
0
  0
SOLID
  8
0
 62
    15
 10
4.707560
 20
3.219480
 11
5.352160
 21
2.851200
 12
4.688200
 22
3.205400
 13
5.332800
 23
2.837120
  0
POLYLINE
  8
0
  6
CONTINUOUS
 66
     1
 40
0.000000
 41
0.000000
  0
VERTEX
  8
0
  6
CONTINUOUS
 10
4.707560
 20
3.219480
  0
VERTEX
  8
0
  6
CONTINUOUS
 10
5.352160
 20
2.851200
  0
VERTEX
  8
0
  6
CONTINUOUS
 10
5.332800
 20
2.837120
  0
VERTEX
  8
0
  6
CONTINUOUS
 10
4.688200
 20
3.205400
  0
VERTEX
  8
0
  6
CONTINUOUS
 10
4.707560
 20
3.219480
  0
SEQEND
  8
0
  0
SOLID
  8
0
 62
    15
 10
4.688200
 20
3.205400
 11
5.332800
 21
2.837120
 12
4.667960
 22
3.192200
 13
5.312120
 23
2.823920
  0
POLYLINE
  8
0
  6
CONTINUOUS
 66
     1
 40
0.000000
 41
0.000000
  0
VERTEX
  8
0
  6
CONTINUOUS
 10
4.688200
 20
3.205400
  0
VERTEX
  8
0
  6
CONTINUOUS
 10
5.332800
 20
2.837120
  0
VERTEX
  8
0
  6
CONTINUOUS
 10
5.312120
 20
2.823920
  0
VERTEX
  8
0
  6
CONTINUOUS
 10
4.667960
 20
3.192200
  0
VERTEX
  8
0
  6
CONTINUOUS
 10
4.688200
 20
3.205400
  0
SEQEND
  8
0
  0
SOLID
  8
0
 62
    15
 10
4.667960
 20
3.192200
 11
5.312120
 21
2.823920
 12
4.647280
 22
3.175040
 13
5.291440
 23
2.806760
  0
POLYLINE
  8
0
  6
CONTINUOUS
 66
     1
 40
0.000000
 41
0.000000
  0
VERTEX
  8
0
  6
CONTINUOUS
 10
4.667960
 20
3.192200
  0
VERTEX
  8
0
  6
CONTINUOUS
 10
5.312120
 20
2.823920
  0
VERTEX
  8
0
  6
CONTINUOUS
 10
5.291440
 20
2.806760
  0
VERTEX
  8
0
  6
CONTINUOUS
 10
4.647280
 20
3.175040
  0
VERTEX
  8
0
  6
CONTINUOUS
 10
4.667960
 20
3.192200
  0
SEQEND
  8
0
  0
SOLID
  8
0
 62
    15
 10
4.647280
 20
3.175040
 11
5.291440
 21
2.806760
 12
4.627040
 22
3.154800
 13
5.271640
 23
2.786520
  0
POLYLINE
  8
0
  6
CONTINUOUS
 66
     1
 40
0.000000
 41
0.000000
  0
VERTEX
  8
0
  6
CONTINUOUS
 10
4.647280
 20
3.175040
  0
VERTEX
  8
0
  6
CONTINUOUS
 10
5.291440
 20
2.806760
  0
VERTEX
  8
0
  6
CONTINUOUS
 10
5.271640
 20
2.786520
  0
VERTEX
  8
0
  6
CONTINUOUS
 10
4.627040
 20
3.154800
  0
VERTEX
  8
0
  6
CONTINUOUS
 10
4.647280
 20
3.175040
  0
SEQEND
  8
0
  0
SOLID
  8
0
 62
    15
 10
4.627040
 20
3.154800
 11
5.271640
 21
2.786520
 12
4.609000
 22
3.131040
 13
5.253160
 23
2.762760
  0
POLYLINE
  8
0
  6
CONTINUOUS
 66
     1
 40
0.000000
 41
0.000000
  0
VERTEX
  8
0
  6
CONTINUOUS
 10
4.627040
 20
3.154800
  0
VERTEX
  8
0
  6
CONTINUOUS
 10
5.271640
 20
2.786520
  0
VERTEX
  8
0
  6
CONTINUOUS
 10
5.253160
 20
2.762760
  0
VERTEX
  8
0
  6
CONTINUOUS
 10
4.609000
 20
3.131040
  0
VERTEX
  8
0
  6
CONTINUOUS
 10
4.627040
 20
3.154800
  0
SEQEND
  8
0
  0
SOLID
  8
0
 62
    15
 10
4.609000
 20
3.131040
 11
5.253160
 21
2.762760
 12
4.593160
 22
3.104200
 13
5.237320
 23
2.735920
  0
POLYLINE
  8
0
  6
CONTINUOUS
 66
     1
 40
0.000000
 41
0.000000
  0
VERTEX
  8
0
  6
CONTINUOUS
 10
4.609000
 20
3.131040
  0
VERTEX
  8
0
  6
CONTINUOUS
 10
5.253160
 20
2.762760
  0
VERTEX
  8
0
  6
CONTINUOUS
 10
5.237320
 20
2.735920
  0
VERTEX
  8
0
  6
CONTINUOUS
 10
4.593160
 20
3.104200
  0
VERTEX
  8
0
  6
CONTINUOUS
 10
4.609000
 20
3.131040
  0
SEQEND
  8
0
  0
SOLID
  8
0
 62
    15
 10
4.593160
 20
3.104200
 11
5.237320
 21
2.735920
 12
4.580400
 22
3.074280
 13
5.225000
 23
2.706000
  0
POLYLINE
  8
0
  6
CONTINUOUS
 66
     1
 40
0.000000
 41
0.000000
  0
VERTEX
  8
0
  6
CONTINUOUS
 10
4.593160
 20
3.104200
  0
VERTEX
  8
0
  6
CONTINUOUS
 10
5.237320
 20
2.735920
  0
VERTEX
  8
0
  6
CONTINUOUS
 10
5.225000
 20
2.706000
  0
VERTEX
  8
0
  6
CONTINUOUS
 10
4.580400
 20
3.074280
  0
VERTEX
  8
0
  6
CONTINUOUS
 10
4.593160
 20
3.104200
  0
SEQEND
  8
0
  0
SOLID
  8
0
 62
    15
 10
4.580400
 20
3.074280
 11
5.225000
 21
2.706000
 12
4.572480
 22
3.041280
 13
5.216640
 23
2.673440
  0
POLYLINE
  8
0
  6
CONTINUOUS
 66
     1
 40
0.000000
 41
0.000000
  0
VERTEX
  8
0
  6
CONTINUOUS
 10
4.580400
 20
3.074280
  0
VERTEX
  8
0
  6
CONTINUOUS
 10
5.225000
 20
2.706000
  0
VERTEX
  8
0
  6
CONTINUOUS
 10
5.216640
 20
2.673440
  0
VERTEX
  8
0
  6
CONTINUOUS
 10
4.572480
 20
3.041280
  0
VERTEX
  8
0
  6
CONTINUOUS
 10
4.580400
 20
3.074280
  0
SEQEND
  8
0
  0
SOLID
  8
0
 62
     7
 10
4.572480
 20
3.041280
 11
5.216640
 21
2.673440
 12
4.569400
 22
3.006080
 13
5.214000
 23
2.637800
  0
POLYLINE
  8
0
  6
CONTINUOUS
 66
     1
 40
0.000000
 41
0.000000
  0
VERTEX
  8
0
  6
CONTINUOUS
 10
4.572480
 20
3.041280
  0
VERTEX
  8
0
  6
CONTINUOUS
 10
5.216640
 20
2.673440
  0
VERTEX
  8
0
  6
CONTINUOUS
 10
5.214000
 20
2.637800
  0
VERTEX
  8
0
  6
CONTINUOUS
 10
4.569400
 20
3.006080
  0
VERTEX
  8
0
  6
CONTINUOUS
 10
4.572480
 20
3.041280
  0
SEQEND
  8
0
  0
SOLID
  8
0
 62
    15
 10
4.569400
 20
3.006080
 11
5.214000
 21
2.637800
 12
4.456320
 22
3.006080
 13
5.100920
 23
2.637800
  0
POLYLINE
  8
0
  6
CONTINUOUS
 66
     1
 40
0.000000
 41
0.000000
  0
VERTEX
  8
0
  6
CONTINUOUS
 10
4.569400
 20
3.006080
  0
VERTEX
  8
0
  6
CONTINUOUS
 10
5.214000
 20
2.637800
  0
VERTEX
  8
0
  6
CONTINUOUS
 10
5.100920
 20
2.637800
  0
VERTEX
  8
0
  6
CONTINUOUS
 10
4.456320
 20
3.006080
  0
VERTEX
  8
0
  6
CONTINUOUS
 10
4.569400
 20
3.006080
  0
SEQEND
  8
0
  0
POLYLINE
  8
0
  6
CONTINUOUS
 66
     1
 40
0.000000
 41
0.000000
  0
VERTEX
  8
0
  6
CONTINUOUS
 10
4.534200
 20
4.058120
  0
VERTEX
  8
0
  6
CONTINUOUS
 10
4.535960
 20
4.088920
  0
VERTEX
  8
0
  6
CONTINUOUS
 10
4.540360
 20
4.118840
  0
VERTEX
  8
0
  6
CONTINUOUS
 10
4.557960
 20
4.175160
  0
VERTEX
  8
0
  6
CONTINUOUS
 10
4.585680
 20
4.226200
  0
VERTEX
  8
0
  6
CONTINUOUS
 10
4.622640
 20
4.270640
  0
VERTEX
  8
0
  6
CONTINUOUS
 10
4.667080
 20
4.307600
  0
VERTEX
  8
0
  6
CONTINUOUS
 10
4.718120
 20
4.335320
  0
VERTEX
  8
0
  6
CONTINUOUS
 10
4.774440
 20
4.352920
  0
VERTEX
  8
0
  6
CONTINUOUS
 10
4.804360
 20
4.357320
  0
VERTEX
  8
0
  6
CONTINUOUS
 10
4.835160
 20
4.358640
  0
VERTEX
  8
0
  6
CONTINUOUS
 10
4.865960
 20
4.357320
  0
VERTEX
  8
0
  6
CONTINUOUS
 10
4.895880
 20
4.352920
  0
VERTEX
  8
0
  6
CONTINUOUS
 10
4.952200
 20
4.335320
  0
VERTEX
  8
0
  6
CONTINUOUS
 10
5.003240
 20
4.307600
  0
VERTEX
  8
0
  6
CONTINUOUS
 10
5.047680
 20
4.270640
  0
VERTEX
  8
0
  6
CONTINUOUS
 10
5.084640
 20
4.226200
  0
VERTEX
  8
0
  6
CONTINUOUS
 10
5.112360
 20
4.175160
  0
VERTEX
  8
0
  6
CONTINUOUS
 10
5.129960
 20
4.118840
  0
VERTEX
  8
0
  6
CONTINUOUS
 10
5.134360
 20
4.088920
  0
VERTEX
  8
0
  6
CONTINUOUS
 10
5.136120
 20
4.058120
  0
VERTEX
  8
0
  6
CONTINUOUS
 10
5.134360
 20
4.027320
  0
VERTEX
  8
0
  6
CONTINUOUS
 10
5.129960
 20
3.997400
  0
VERTEX
  8
0
  6
CONTINUOUS
 10
5.112360
 20
3.941080
  0
VERTEX
  8
0
  6
CONTINUOUS
 10
5.084640
 20
3.890040
  0
VERTEX
  8
0
  6
CONTINUOUS
 10
5.047680
 20
3.845600
  0
VERTEX
  8
0
  6
CONTINUOUS
 10
5.003240
 20
3.808640
  0
VERTEX
  8
0
  6
CONTINUOUS
 10
4.952200
 20
3.780920
  0
VERTEX
  8
0
  6
CONTINUOUS
 10
4.895880
 20
3.763320
  0
VERTEX
  8
0
  6
CONTINUOUS
 10
4.865960
 20
3.758920
  0
VERTEX
  8
0
  6
CONTINUOUS
 10
4.835160
 20
3.757160
  0
VERTEX
  8
0
  6
CONTINUOUS
 10
4.835160
 20
3.420560
  0
VERTEX
  8
0
  6
CONTINUOUS
 10
4.779720
 20
3.420560
  0
VERTEX
  8
0
  6
CONTINUOUS
 10
4.778400
 20
3.385800
  0
VERTEX
  8
0
  6
CONTINUOUS
 10
4.773120
 20
3.352360
  0
VERTEX
  8
0
  6
CONTINUOUS
 10
4.765200
 20
3.319800
  0
VERTEX
  8
0
  6
CONTINUOUS
 10
4.754200
 20
3.289880
  0
VERTEX
  8
0
  6
CONTINUOUS
 10
4.741000
 20
3.262600
  0
VERTEX
  8
0
  6
CONTINUOUS
 10
4.725160
 20
3.238840
  0
VERTEX
  8
0
  6
CONTINUOUS
 10
4.707560
 20
3.219480
  0
VERTEX
  8
0
  6
CONTINUOUS
 10
4.667960
 20
3.192200
  0
VERTEX
  8
0
  6
CONTINUOUS
 10
4.647280
 20
3.175040
  0
VERTEX
  8
0
  6
CONTINUOUS
 10
4.627040
 20
3.154800
  0
VERTEX
  8
0
  6
CONTINUOUS
 10
4.609000
 20
3.131040
  0
VERTEX
  8
0
  6
CONTINUOUS
 10
4.593160
 20
3.104200
  0
VERTEX
  8
0
  6
CONTINUOUS
 10
4.580400
 20
3.074280
  0
VERTEX
  8
0
  6
CONTINUOUS
 10
4.572480
 20
3.041280
  0
VERTEX
  8
0
  6
CONTINUOUS
 10
4.569400
 20
3.006080
  0
VERTEX
  8
0
  6
CONTINUOUS
 10
4.456320
 20
3.006080
  0
VERTEX
  8
0
  6
CONTINUOUS
 10
4.456320
 20
4.056800
  0
VERTEX
  8
0
  6
CONTINUOUS
 10
4.534200
 20
4.056800
  0
VERTEX
  8
0
  6
CONTINUOUS
 10
4.534200
 20
4.058120
  0
SEQEND
  8
0
  0
TEXT
  8
0
 10
4.822400
 20
2.395800
 40
0.138119
  1
BA  913
 41
1.000000
  7
SN0
 71
     0
 72
     5
 11
5.411552
 21
2.395800
  0
TEXT
  8
0
 10
4.666640
 20
2.204400
 40
0.138119
  1
3/4" x 1-3/8"
 41
1.000000
  7
SN0
 71
     0
 72
     5
 11
5.565380
 21
2.204400
  0
ENDSEC
  0
EOF
