  0
SECTION
  2
HEADER
  9
$ACADVER
  1
AC1006
  9
$EXTMIN
 10
0.460680
 20
0.488400
  9
$EXTMAX
 10
7.889200
 20
7.809120
  9
$LTSCALE
 40
0.044000
  9
$PDMODE
 70
    35
  9
$PDSIZE
 40
0.035200
  0
ENDSEC
  0
SECTION
  2
TABLES
  0
TABLE
  2
LTYPE
 70
     9
  0
LTYPE
  2
CONTINUOUS
 70
    64
  3
Solid line
 72
    65
 73
     0
 40
0.000000
  0
LTYPE
  2
DASHED
 70
    64
  3
__ __ __ __ __ __ __ __ __ __ __ __ __ __ __
 72
    65
 73
     2
 40
0.000330
 49
0.000220
 49
-0.000110
  0
LTYPE
  2
HIDDEN
 70
    64
  3
 _ _ _ _ _ _ _ _ _ _ _ _ _ _ _ _ _ _ _ _ _ _
 72
    65
 73
     2
 40
0.000165
 49
0.000110
 49
-0.000055
  0
LTYPE
  2
CENTER
 70
    64
  3
____ _ ____ _ ____ _ ____ _ ____ _ ____ _ ____
 72
    65
 73
     4
 40
0.000880
 49
0.000550
 49
-0.000110
 49
0.000110
 49
-0.000110
  0
LTYPE
  2
PHANTOM
 70
    64
  3
_____ _ _ _____ _ _ _____ _ _ _____ _ _ ____
 72
    65
 73
     6
 40
0.001100
 49
0.000550
 49
-0.000110
 49
0.000110
 49
-0.000110
 49
0.000110
 49
-0.000110
  0
LTYPE
  2
DOT
 70
    64
  3
...............................................
 72
    65
 73
     2
 40
0.000110
 49
0.000000
 49
-0.000110
  0
LTYPE
  2
DASHDOT
 70
    64
  3
__ . __ . __ . __ . __ . __ . __ . __ . __ . __
 72
    65
 73
     4
 40
0.000440
 49
0.000220
 49
-0.000110
 49
0.000000
 49
-0.000110
  0
LTYPE
  2
BORDER
 70
    64
  3
__ __ . __ __ . __ __ . __ __ . __ __ . __ __
 72
    65
 73
     6
 40
0.000770
 49
0.000220
 49
-0.000110
 49
0.000220
 49
-0.000110
 49
0.000000
 49
-0.000110
  0
LTYPE
  2
DIVIDE
 70
    64
  3
__ . . __ . . __ . . __ . . __ . . __ . . __
 72
    65
 73
     6
 40
0.000550
 49
0.000220
 49
-0.000110
 49
0.000000
 49
-0.000110
 49
0.000000
 49
-0.000110
  0
LTYPE
  2
DOTDOT
 70
    64
  3
 . .  . .  . .  . .  . .  . . 
 72
    65
 73
     5
 40
0.000242
 49
-0.000110
 49
0.000000
 49
-0.000110
 49
0.000000
 49
-0.000110
  0
ENDTAB
  0
TABLE
  2
STYLE
 70
     2
  0
STYLE
 70
     0
  2
SN0
 40
0.000000
 41
0.000440
 50
0.000000
 71
     0
 42
0.000000
  3
ROMAND
  0
STYLE
 70
    68
  2
SV0
 40
0.000000
 41
0.000440
 50
0.000000
 71
     0
 42
0.000000
  3
ROMAND
  0
ENDTAB
  0
TABLE
  2
LAYER
 70
     3
  0
LAYER
  2
FOREGROUND
 70
    64
 62
     7
  6
CONTINUOUS
  0
LAYER
  2
BACKGROUND
 70
    65
 62
    -7
  6
CONTINUOUS
  0
LAYER
  2
0
 70
    64
 62
     7
  6
CONTINUOUS
  0
ENDTAB
  0
ENDSEC
  0
SECTION
  2
ENTITIES
  0
POLYLINE
  8
FOREGROUND
  6
CONTINUOUS
 66
     1
 40
0.000000
 41
0.000000
  0
VERTEX
  8
FOREGROUND
  6
CONTINUOUS
 10
0.000000
 20
8.297520
  0
VERTEX
  8
FOREGROUND
  6
CONTINUOUS
 10
8.499920
 20
8.297520
  0
VERTEX
  8
FOREGROUND
  6
CONTINUOUS
 10
8.499920
 20
-2.702480
  0
VERTEX
  8
FOREGROUND
  6
CONTINUOUS
 10
0.000000
 20
-2.702480
  0
VERTEX
  8
FOREGROUND
  6
CONTINUOUS
 10
0.000000
 20
8.297520
  0
SEQEND
  8
0
  0
POLYLINE
  8
FOREGROUND
  6
CONTINUOUS
 66
     1
 40
0.000000
 41
0.000000
  0
VERTEX
  8
FOREGROUND
  6
CONTINUOUS
 10
0.000000
 20
8.297520
  0
VERTEX
  8
FOREGROUND
  6
CONTINUOUS
 10
8.499920
 20
8.297520
  0
VERTEX
  8
FOREGROUND
  6
CONTINUOUS
 10
8.499920
 20
-2.702480
  0
VERTEX
  8
FOREGROUND
  6
CONTINUOUS
 10
0.000000
 20
-2.702480
  0
VERTEX
  8
FOREGROUND
  6
CONTINUOUS
 10
0.000000
 20
8.297520
  0
SEQEND
  8
0
  0
POLYLINE
  8
0
  6
CONTINUOUS
 66
     1
 40
0.000000
 41
0.000000
  0
VERTEX
  8
0
  6
CONTINUOUS
 10
1.326600
 20
0.493680
  0
VERTEX
  8
0
  6
CONTINUOUS
 10
0.555720
 20
1.316920
  0
VERTEX
  8
0
  6
CONTINUOUS
 10
0.616440
 20
1.345960
  0
VERTEX
  8
0
  6
CONTINUOUS
 10
0.677600
 20
1.368840
  0
VERTEX
  8
0
  6
CONTINUOUS
 10
0.729520
 20
1.383360
  0
VERTEX
  8
0
  6
CONTINUOUS
 10
0.785840
 20
1.394800
  0
VERTEX
  8
0
  6
CONTINUOUS
 10
0.825880
 20
1.400080
  0
VERTEX
  8
0
  6
CONTINUOUS
 10
0.866800
 20
1.402280
  0
VERTEX
  8
0
  6
CONTINUOUS
 10
0.909040
 20
1.401840
  0
VERTEX
  8
0
  6
CONTINUOUS
 10
0.952160
 20
1.397880
  0
VERTEX
  8
0
  6
CONTINUOUS
 10
0.996160
 20
1.389960
  0
VERTEX
  8
0
  6
CONTINUOUS
 10
1.062600
 20
1.370160
  0
VERTEX
  8
0
  6
CONTINUOUS
 10
1.106600
 20
1.350800
  0
VERTEX
  8
0
  6
CONTINUOUS
 10
1.151040
 20
1.326160
  0
VERTEX
  8
0
  6
CONTINUOUS
 10
1.431760
 20
1.589720
  0
VERTEX
  8
0
  6
CONTINUOUS
 10
1.706320
 20
1.297560
  0
VERTEX
  8
0
  6
CONTINUOUS
 10
1.785520
 20
1.342440
  0
VERTEX
  8
0
  6
CONTINUOUS
 10
1.862960
 20
1.378960
  0
VERTEX
  8
0
  6
CONTINUOUS
 10
1.938640
 20
1.408440
  0
VERTEX
  8
0
  6
CONTINUOUS
 10
2.013000
 20
1.430440
  0
VERTEX
  8
0
  6
CONTINUOUS
 10
2.061840
 20
1.441880
  0
VERTEX
  8
0
  6
CONTINUOUS
 10
2.133560
 20
1.453320
  0
VERTEX
  8
0
  6
CONTINUOUS
 10
2.203960
 20
1.459480
  0
VERTEX
  8
0
  6
CONTINUOUS
 10
2.250160
 20
1.460360
  0
VERTEX
  8
0
  6
CONTINUOUS
 10
2.295920
 20
1.459040
  0
VERTEX
  8
0
  6
CONTINUOUS
 10
2.341240
 20
1.455960
  0
VERTEX
  8
0
  6
CONTINUOUS
 10
2.385680
 20
1.450680
  0
VERTEX
  8
0
  6
CONTINUOUS
 10
2.430120
 20
1.443640
  0
VERTEX
  8
0
  6
CONTINUOUS
 10
2.516800
 20
1.425160
  0
VERTEX
  8
0
  6
CONTINUOUS
 10
2.601720
 20
1.400960
  0
VERTEX
  8
0
  6
CONTINUOUS
 10
2.685320
 20
1.372360
  0
VERTEX
  8
0
  6
CONTINUOUS
 10
2.808080
 20
1.324400
  0
VERTEX
  8
0
  6
CONTINUOUS
 10
3.084400
 20
1.205600
  0
VERTEX
  8
0
  6
CONTINUOUS
 10
3.185160
 20
1.166440
  0
VERTEX
  8
0
  6
CONTINUOUS
 10
3.280640
 20
1.135200
  0
VERTEX
  8
0
  6
CONTINUOUS
 10
3.389760
 20
1.104840
  0
VERTEX
  8
0
  6
CONTINUOUS
 10
3.510320
 20
1.077120
  0
VERTEX
  8
0
  6
CONTINUOUS
 10
3.641880
 20
1.052480
  0
VERTEX
  8
0
  6
CONTINUOUS
 10
3.747040
 20
1.037520
  0
VERTEX
  8
0
  6
CONTINUOUS
 10
3.857040
 20
1.025640
  0
VERTEX
  8
0
  6
CONTINUOUS
 10
3.971000
 20
1.017720
  0
VERTEX
  8
0
  6
CONTINUOUS
 10
4.049320
 20
1.014640
  0
VERTEX
  8
0
  6
CONTINUOUS
 10
4.169440
 20
1.014640
  0
VERTEX
  8
0
  6
CONTINUOUS
 10
4.292200
 20
1.019920
  0
VERTEX
  8
0
  6
CONTINUOUS
 10
4.375800
 20
1.026960
  0
VERTEX
  8
0
  6
CONTINUOUS
 10
4.502520
 20
1.042360
  0
VERTEX
  8
0
  6
CONTINUOUS
 10
4.587440
 20
1.056440
  0
VERTEX
  8
0
  6
CONTINUOUS
 10
4.716360
 20
1.083720
  0
VERTEX
  8
0
  6
CONTINUOUS
 10
4.845720
 20
1.118920
  0
VERTEX
  8
0
  6
CONTINUOUS
 10
4.931960
 20
1.147080
  0
VERTEX
  8
0
  6
CONTINUOUS
 10
5.018200
 20
1.179200
  0
VERTEX
  8
0
  6
CONTINUOUS
 10
5.104440
 20
1.215280
  0
VERTEX
  8
0
  6
CONTINUOUS
 10
5.232480
 20
1.277320
  0
VERTEX
  8
0
  6
CONTINUOUS
 10
5.316960
 20
1.324400
  0
VERTEX
  8
0
  6
CONTINUOUS
 10
5.441920
 20
1.403600
  0
VERTEX
  8
0
  6
CONTINUOUS
 10
5.483280
 20
1.432640
  0
VERTEX
  8
0
  6
CONTINUOUS
 10
5.807560
 20
1.087240
  0
VERTEX
  8
0
  6
CONTINUOUS
 10
5.861680
 20
1.134760
  0
VERTEX
  8
0
  6
CONTINUOUS
 10
5.915360
 20
1.174360
  0
VERTEX
  8
0
  6
CONTINUOUS
 10
5.951000
 20
1.196360
  0
VERTEX
  8
0
  6
CONTINUOUS
 10
5.986640
 20
1.213960
  0
VERTEX
  8
0
  6
CONTINUOUS
 10
6.023160
 20
1.227160
  0
VERTEX
  8
0
  6
CONTINUOUS
 10
6.059680
 20
1.235520
  0
VERTEX
  8
0
  6
CONTINUOUS
 10
6.078160
 20
1.238160
  0
VERTEX
  8
0
  6
CONTINUOUS
 10
6.115560
 20
1.239040
  0
VERTEX
  8
0
  6
CONTINUOUS
 10
6.134480
 20
1.237720
  0
VERTEX
  8
0
  6
CONTINUOUS
 10
6.172760
 20
1.230680
  0
VERTEX
  8
0
  6
CONTINUOUS
 10
6.211920
 20
1.217480
  0
VERTEX
  8
0
  6
CONTINUOUS
 10
6.232160
 20
1.209120
  0
VERTEX
  8
0
  6
CONTINUOUS
 10
6.273080
 20
1.187120
  0
VERTEX
  8
0
  6
CONTINUOUS
 10
6.314880
 20
1.158520
  0
VERTEX
  8
0
  6
CONTINUOUS
 10
6.358440
 20
1.123320
  0
VERTEX
  8
0
  6
CONTINUOUS
 10
6.403320
 20
1.081080
  0
VERTEX
  8
0
  6
CONTINUOUS
 10
6.426200
 20
1.057320
  0
VERTEX
  8
0
  6
CONTINUOUS
 10
6.565680
 20
1.188440
  0
VERTEX
  8
0
  6
CONTINUOUS
 10
6.581520
 20
1.251800
  0
VERTEX
  8
0
  6
CONTINUOUS
 10
6.600000
 20
1.306800
  0
VERTEX
  8
0
  6
CONTINUOUS
 10
6.621120
 20
1.353440
  0
VERTEX
  8
0
  6
CONTINUOUS
 10
6.644440
 20
1.393480
  0
VERTEX
  8
0
  6
CONTINUOUS
 10
6.669960
 20
1.426480
  0
VERTEX
  8
0
  6
CONTINUOUS
 10
6.697240
 20
1.452880
  0
VERTEX
  8
0
  6
CONTINUOUS
 10
6.716600
 20
1.467400
  0
VERTEX
  8
0
  6
CONTINUOUS
 10
6.736400
 20
1.479280
  0
VERTEX
  8
0
  6
CONTINUOUS
 10
6.756640
 20
1.488960
  0
VERTEX
  8
0
  6
CONTINUOUS
 10
6.777320
 20
1.496440
  0
VERTEX
  8
0
  6
CONTINUOUS
 10
6.798000
 20
1.502160
  0
VERTEX
  8
0
  6
CONTINUOUS
 10
6.819560
 20
1.505680
  0
VERTEX
  8
0
  6
CONTINUOUS
 10
6.863120
 20
1.507880
  0
VERTEX
  8
0
  6
CONTINUOUS
 10
6.884680
 20
1.507000
  0
VERTEX
  8
0
  6
CONTINUOUS
 10
6.928680
 20
1.501280
  0
VERTEX
  8
0
  6
CONTINUOUS
 10
6.971800
 20
1.491600
  0
VERTEX
  8
0
  6
CONTINUOUS
 10
7.013600
 20
1.479280
  0
VERTEX
  8
0
  6
CONTINUOUS
 10
7.157920
 20
1.426040
  0
VERTEX
  8
0
  6
CONTINUOUS
 10
7.188280
 20
1.418120
  0
VERTEX
  8
0
  6
CONTINUOUS
 10
7.219960
 20
1.413720
  0
VERTEX
  8
0
  6
CONTINUOUS
 10
7.252960
 20
1.413280
  0
VERTEX
  8
0
  6
CONTINUOUS
 10
7.303560
 20
1.418120
  0
VERTEX
  8
0
  6
CONTINUOUS
 10
7.355040
 20
1.429560
  0
VERTEX
  8
0
  6
CONTINUOUS
 10
7.389360
 20
1.440120
  0
VERTEX
  8
0
  6
CONTINUOUS
 10
7.423240
 20
1.452440
  0
VERTEX
  8
0
  6
CONTINUOUS
 10
7.487480
 20
1.481920
  0
VERTEX
  8
0
  6
CONTINUOUS
 10
7.546440
 20
1.515360
  0
VERTEX
  8
0
  6
CONTINUOUS
 10
7.572840
 20
1.532520
  0
VERTEX
  8
0
  6
CONTINUOUS
 10
7.617280
 20
1.567280
  0
VERTEX
  8
0
  6
CONTINUOUS
 10
7.635320
 20
1.584000
  0
VERTEX
  8
0
  6
CONTINUOUS
 10
7.888760
 20
1.313840
  0
VERTEX
  8
0
  6
CONTINUOUS
 10
7.010520
 20
0.488840
  0
VERTEX
  8
0
  6
CONTINUOUS
 10
1.326600
 20
0.493680
  0
SEQEND
  8
0
  0
SOLID
  8
0
 62
    15
 10
2.280960
 20
4.517920
 11
2.942280
 21
4.168120
 12
2.195160
 22
4.137760
 13
2.856480
 23
3.787960
  0
POLYLINE
  8
0
  6
CONTINUOUS
 66
     1
 40
0.000000
 41
0.000000
  0
VERTEX
  8
0
  6
CONTINUOUS
 10
2.280960
 20
4.517920
  0
VERTEX
  8
0
  6
CONTINUOUS
 10
2.942280
 20
4.168120
  0
VERTEX
  8
0
  6
CONTINUOUS
 10
2.856480
 20
3.787960
  0
VERTEX
  8
0
  6
CONTINUOUS
 10
2.195160
 20
4.137760
  0
VERTEX
  8
0
  6
CONTINUOUS
 10
2.280960
 20
4.517920
  0
SEQEND
  8
0
  0
SOLID
  8
0
 62
    15
 10
5.445440
 20
7.700440
 11
6.106760
 21
7.350640
 12
5.371520
 22
7.571080
 13
6.033280
 23
7.221720
  0
POLYLINE
  8
0
  6
CONTINUOUS
 66
     1
 40
0.000000
 41
0.000000
  0
VERTEX
  8
0
  6
CONTINUOUS
 10
5.445440
 20
7.700440
  0
VERTEX
  8
0
  6
CONTINUOUS
 10
6.106760
 20
7.350640
  0
VERTEX
  8
0
  6
CONTINUOUS
 10
6.033280
 20
7.221720
  0
VERTEX
  8
0
  6
CONTINUOUS
 10
5.371520
 20
7.571080
  0
VERTEX
  8
0
  6
CONTINUOUS
 10
5.445440
 20
7.700440
  0
SEQEND
  8
0
  0
SOLID
  8
0
 62
    15
 10
5.371520
 20
7.571080
 11
6.033280
 21
7.221720
 12
5.253600
 22
7.450960
 13
5.915360
 23
7.101160
  0
POLYLINE
  8
0
  6
CONTINUOUS
 66
     1
 40
0.000000
 41
0.000000
  0
VERTEX
  8
0
  6
CONTINUOUS
 10
5.371520
 20
7.571080
  0
VERTEX
  8
0
  6
CONTINUOUS
 10
6.033280
 20
7.221720
  0
VERTEX
  8
0
  6
CONTINUOUS
 10
5.915360
 20
7.101160
  0
VERTEX
  8
0
  6
CONTINUOUS
 10
5.253600
 20
7.450960
  0
VERTEX
  8
0
  6
CONTINUOUS
 10
5.371520
 20
7.571080
  0
SEQEND
  8
0
  0
SOLID
  8
0
 62
    15
 10
5.253600
 20
7.450960
 11
5.915360
 21
7.101160
 12
5.082880
 22
7.368680
 13
5.744200
 23
7.018880
  0
POLYLINE
  8
0
  6
CONTINUOUS
 66
     1
 40
0.000000
 41
0.000000
  0
VERTEX
  8
0
  6
CONTINUOUS
 10
5.253600
 20
7.450960
  0
VERTEX
  8
0
  6
CONTINUOUS
 10
5.915360
 20
7.101160
  0
VERTEX
  8
0
  6
CONTINUOUS
 10
5.744200
 20
7.018880
  0
VERTEX
  8
0
  6
CONTINUOUS
 10
5.082880
 20
7.368680
  0
VERTEX
  8
0
  6
CONTINUOUS
 10
5.253600
 20
7.450960
  0
SEQEND
  8
0
  0
SOLID
  8
0
 62
    15
 10
5.082880
 20
7.368680
 11
5.744200
 21
7.018880
 12
5.082880
 22
6.983240
 13
5.744200
 23
6.633880
  0
POLYLINE
  8
0
  6
CONTINUOUS
 66
     1
 40
0.000000
 41
0.000000
  0
VERTEX
  8
0
  6
CONTINUOUS
 10
5.082880
 20
7.368680
  0
VERTEX
  8
0
  6
CONTINUOUS
 10
5.744200
 20
7.018880
  0
VERTEX
  8
0
  6
CONTINUOUS
 10
5.744200
 20
6.633880
  0
VERTEX
  8
0
  6
CONTINUOUS
 10
5.082880
 20
6.983240
  0
VERTEX
  8
0
  6
CONTINUOUS
 10
5.082880
 20
7.368680
  0
SEQEND
  8
0
  0
SOLID
  8
0
 62
    15
 10
5.082880
 20
6.983240
 11
5.744200
 21
6.633880
 12
4.682040
 22
6.983240
 13
5.343360
 23
6.633880
  0
POLYLINE
  8
0
  6
CONTINUOUS
 66
     1
 40
0.000000
 41
0.000000
  0
VERTEX
  8
0
  6
CONTINUOUS
 10
5.082880
 20
6.983240
  0
VERTEX
  8
0
  6
CONTINUOUS
 10
5.744200
 20
6.633880
  0
VERTEX
  8
0
  6
CONTINUOUS
 10
5.343360
 20
6.633880
  0
VERTEX
  8
0
  6
CONTINUOUS
 10
4.682040
 20
6.983240
  0
VERTEX
  8
0
  6
CONTINUOUS
 10
5.082880
 20
6.983240
  0
SEQEND
  8
0
  0
SOLID
  8
0
 62
    15
 10
4.682040
 20
6.983240
 11
5.343360
 21
6.633880
 12
4.614280
 22
6.762360
 13
5.275600
 23
6.413000
  0
POLYLINE
  8
0
  6
CONTINUOUS
 66
     1
 40
0.000000
 41
0.000000
  0
VERTEX
  8
0
  6
CONTINUOUS
 10
4.682040
 20
6.983240
  0
VERTEX
  8
0
  6
CONTINUOUS
 10
5.343360
 20
6.633880
  0
VERTEX
  8
0
  6
CONTINUOUS
 10
5.275600
 20
6.413000
  0
VERTEX
  8
0
  6
CONTINUOUS
 10
4.614280
 20
6.762360
  0
VERTEX
  8
0
  6
CONTINUOUS
 10
4.682040
 20
6.983240
  0
SEQEND
  8
0
  0
SOLID
  8
0
 62
    15
 10
4.614280
 20
6.762360
 11
5.275600
 21
6.413000
 12
4.517040
 22
6.584600
 13
5.178360
 23
6.235240
  0
POLYLINE
  8
0
  6
CONTINUOUS
 66
     1
 40
0.000000
 41
0.000000
  0
VERTEX
  8
0
  6
CONTINUOUS
 10
4.614280
 20
6.762360
  0
VERTEX
  8
0
  6
CONTINUOUS
 10
5.275600
 20
6.413000
  0
VERTEX
  8
0
  6
CONTINUOUS
 10
5.178360
 20
6.235240
  0
VERTEX
  8
0
  6
CONTINUOUS
 10
4.517040
 20
6.584600
  0
VERTEX
  8
0
  6
CONTINUOUS
 10
4.614280
 20
6.762360
  0
SEQEND
  8
0
  0
SOLID
  8
0
 62
    15
 10
4.517040
 20
6.584600
 11
5.178360
 21
6.235240
 12
4.396040
 22
6.442920
 13
5.057360
 23
6.093120
  0
POLYLINE
  8
0
  6
CONTINUOUS
 66
     1
 40
0.000000
 41
0.000000
  0
VERTEX
  8
0
  6
CONTINUOUS
 10
4.517040
 20
6.584600
  0
VERTEX
  8
0
  6
CONTINUOUS
 10
5.178360
 20
6.235240
  0
VERTEX
  8
0
  6
CONTINUOUS
 10
5.057360
 20
6.093120
  0
VERTEX
  8
0
  6
CONTINUOUS
 10
4.396040
 20
6.442920
  0
VERTEX
  8
0
  6
CONTINUOUS
 10
4.517040
 20
6.584600
  0
SEQEND
  8
0
  0
SOLID
  8
0
 62
    15
 10
4.396040
 20
6.442920
 11
5.057360
 21
6.093120
 12
4.257000
 22
6.329840
 13
4.918320
 23
5.980480
  0
POLYLINE
  8
0
  6
CONTINUOUS
 66
     1
 40
0.000000
 41
0.000000
  0
VERTEX
  8
0
  6
CONTINUOUS
 10
4.396040
 20
6.442920
  0
VERTEX
  8
0
  6
CONTINUOUS
 10
5.057360
 20
6.093120
  0
VERTEX
  8
0
  6
CONTINUOUS
 10
4.918320
 20
5.980480
  0
VERTEX
  8
0
  6
CONTINUOUS
 10
4.257000
 20
6.329840
  0
VERTEX
  8
0
  6
CONTINUOUS
 10
4.396040
 20
6.442920
  0
SEQEND
  8
0
  0
SOLID
  8
0
 62
    15
 10
4.257000
 20
6.329840
 11
4.918320
 21
5.980480
 12
3.947240
 22
6.161760
 13
4.608560
 23
5.812400
  0
POLYLINE
  8
0
  6
CONTINUOUS
 66
     1
 40
0.000000
 41
0.000000
  0
VERTEX
  8
0
  6
CONTINUOUS
 10
4.257000
 20
6.329840
  0
VERTEX
  8
0
  6
CONTINUOUS
 10
4.918320
 20
5.980480
  0
VERTEX
  8
0
  6
CONTINUOUS
 10
4.608560
 20
5.812400
  0
VERTEX
  8
0
  6
CONTINUOUS
 10
3.947240
 20
6.161760
  0
VERTEX
  8
0
  6
CONTINUOUS
 10
4.257000
 20
6.329840
  0
SEQEND
  8
0
  0
SOLID
  8
0
 62
    15
 10
3.947240
 20
6.161760
 11
4.608560
 21
5.812400
 12
3.633520
 22
6.024040
 13
4.295280
 23
5.674680
  0
POLYLINE
  8
0
  6
CONTINUOUS
 66
     1
 40
0.000000
 41
0.000000
  0
VERTEX
  8
0
  6
CONTINUOUS
 10
3.947240
 20
6.161760
  0
VERTEX
  8
0
  6
CONTINUOUS
 10
4.608560
 20
5.812400
  0
VERTEX
  8
0
  6
CONTINUOUS
 10
4.295280
 20
5.674680
  0
VERTEX
  8
0
  6
CONTINUOUS
 10
3.633520
 20
6.024040
  0
VERTEX
  8
0
  6
CONTINUOUS
 10
3.947240
 20
6.161760
  0
SEQEND
  8
0
  0
SOLID
  8
0
 62
    15
 10
3.633520
 20
6.024040
 11
4.295280
 21
5.674680
 12
3.462360
 22
5.932960
 13
4.124120
 23
5.583160
  0
POLYLINE
  8
0
  6
CONTINUOUS
 66
     1
 40
0.000000
 41
0.000000
  0
VERTEX
  8
0
  6
CONTINUOUS
 10
3.633520
 20
6.024040
  0
VERTEX
  8
0
  6
CONTINUOUS
 10
4.295280
 20
5.674680
  0
VERTEX
  8
0
  6
CONTINUOUS
 10
4.124120
 20
5.583160
  0
VERTEX
  8
0
  6
CONTINUOUS
 10
3.462360
 20
5.932960
  0
VERTEX
  8
0
  6
CONTINUOUS
 10
3.633520
 20
6.024040
  0
SEQEND
  8
0
  0
SOLID
  8
0
 62
    15
 10
3.462360
 20
5.932960
 11
4.124120
 21
5.583160
 12
3.259520
 22
5.800080
 13
3.921280
 23
5.450720
  0
POLYLINE
  8
0
  6
CONTINUOUS
 66
     1
 40
0.000000
 41
0.000000
  0
VERTEX
  8
0
  6
CONTINUOUS
 10
3.462360
 20
5.932960
  0
VERTEX
  8
0
  6
CONTINUOUS
 10
4.124120
 20
5.583160
  0
VERTEX
  8
0
  6
CONTINUOUS
 10
3.921280
 20
5.450720
  0
VERTEX
  8
0
  6
CONTINUOUS
 10
3.259520
 20
5.800080
  0
VERTEX
  8
0
  6
CONTINUOUS
 10
3.462360
 20
5.932960
  0
SEQEND
  8
0
  0
SOLID
  8
0
 62
    15
 10
3.259520
 20
5.800080
 11
3.921280
 21
5.450720
 12
3.039520
 22
5.626280
 13
3.700840
 23
5.276480
  0
POLYLINE
  8
0
  6
CONTINUOUS
 66
     1
 40
0.000000
 41
0.000000
  0
VERTEX
  8
0
  6
CONTINUOUS
 10
3.259520
 20
5.800080
  0
VERTEX
  8
0
  6
CONTINUOUS
 10
3.921280
 20
5.450720
  0
VERTEX
  8
0
  6
CONTINUOUS
 10
3.700840
 20
5.276480
  0
VERTEX
  8
0
  6
CONTINUOUS
 10
3.039520
 20
5.626280
  0
VERTEX
  8
0
  6
CONTINUOUS
 10
3.259520
 20
5.800080
  0
SEQEND
  8
0
  0
SOLID
  8
0
 62
    15
 10
3.039520
 20
5.626280
 11
3.700840
 21
5.276480
 12
2.816880
 22
5.411120
 13
3.478640
 23
5.061320
  0
POLYLINE
  8
0
  6
CONTINUOUS
 66
     1
 40
0.000000
 41
0.000000
  0
VERTEX
  8
0
  6
CONTINUOUS
 10
3.039520
 20
5.626280
  0
VERTEX
  8
0
  6
CONTINUOUS
 10
3.700840
 20
5.276480
  0
VERTEX
  8
0
  6
CONTINUOUS
 10
3.478640
 20
5.061320
  0
VERTEX
  8
0
  6
CONTINUOUS
 10
2.816880
 20
5.411120
  0
VERTEX
  8
0
  6
CONTINUOUS
 10
3.039520
 20
5.626280
  0
SEQEND
  8
0
  0
SOLID
  8
0
 62
    15
 10
2.816880
 20
5.411120
 11
3.478640
 21
5.061320
 12
2.606560
 22
5.154600
 13
3.268320
 23
4.804800
  0
POLYLINE
  8
0
  6
CONTINUOUS
 66
     1
 40
0.000000
 41
0.000000
  0
VERTEX
  8
0
  6
CONTINUOUS
 10
2.816880
 20
5.411120
  0
VERTEX
  8
0
  6
CONTINUOUS
 10
3.478640
 20
5.061320
  0
VERTEX
  8
0
  6
CONTINUOUS
 10
3.268320
 20
4.804800
  0
VERTEX
  8
0
  6
CONTINUOUS
 10
2.606560
 20
5.154600
  0
VERTEX
  8
0
  6
CONTINUOUS
 10
2.816880
 20
5.411120
  0
SEQEND
  8
0
  0
SOLID
  8
0
 62
    15
 10
2.606560
 20
5.154600
 11
3.268320
 21
4.804800
 12
2.423080
 22
4.856720
 13
3.084400
 23
4.507360
  0
POLYLINE
  8
0
  6
CONTINUOUS
 66
     1
 40
0.000000
 41
0.000000
  0
VERTEX
  8
0
  6
CONTINUOUS
 10
2.606560
 20
5.154600
  0
VERTEX
  8
0
  6
CONTINUOUS
 10
3.268320
 20
4.804800
  0
VERTEX
  8
0
  6
CONTINUOUS
 10
3.084400
 20
4.507360
  0
VERTEX
  8
0
  6
CONTINUOUS
 10
2.423080
 20
4.856720
  0
VERTEX
  8
0
  6
CONTINUOUS
 10
2.606560
 20
5.154600
  0
SEQEND
  8
0
  0
SOLID
  8
0
 62
    15
 10
2.423080
 20
4.856720
 11
3.084400
 21
4.507360
 12
2.280960
 22
4.517920
 13
2.942280
 23
4.168120
  0
POLYLINE
  8
0
  6
CONTINUOUS
 66
     1
 40
0.000000
 41
0.000000
  0
VERTEX
  8
0
  6
CONTINUOUS
 10
2.423080
 20
4.856720
  0
VERTEX
  8
0
  6
CONTINUOUS
 10
3.084400
 20
4.507360
  0
VERTEX
  8
0
  6
CONTINUOUS
 10
2.942280
 20
4.168120
  0
VERTEX
  8
0
  6
CONTINUOUS
 10
2.280960
 20
4.517920
  0
VERTEX
  8
0
  6
CONTINUOUS
 10
2.423080
 20
4.856720
  0
SEQEND
  8
0
  0
SOLID
  8
0
 62
    15
 10
5.483720
 20
7.808680
 11
6.145480
 21
7.458880
 12
5.445440
 22
7.700440
 13
6.106760
 23
7.350640
  0
POLYLINE
  8
0
  6
CONTINUOUS
 66
     1
 40
0.000000
 41
0.000000
  0
VERTEX
  8
0
  6
CONTINUOUS
 10
5.483720
 20
7.808680
  0
VERTEX
  8
0
  6
CONTINUOUS
 10
6.145480
 20
7.458880
  0
VERTEX
  8
0
  6
CONTINUOUS
 10
6.106760
 20
7.350640
  0
VERTEX
  8
0
  6
CONTINUOUS
 10
5.445440
 20
7.700440
  0
VERTEX
  8
0
  6
CONTINUOUS
 10
5.483720
 20
7.808680
  0
SEQEND
  8
0
  0
SOLID
  8
0
 62
    15
 10
2.195160
 20
4.137760
 11
2.856480
 21
3.787960
 12
1.721280
 22
4.137760
 13
2.383040
 23
3.787960
  0
POLYLINE
  8
0
  6
CONTINUOUS
 66
     1
 40
0.000000
 41
0.000000
  0
VERTEX
  8
0
  6
CONTINUOUS
 10
2.195160
 20
4.137760
  0
VERTEX
  8
0
  6
CONTINUOUS
 10
2.856480
 20
3.787960
  0
VERTEX
  8
0
  6
CONTINUOUS
 10
2.383040
 20
3.787960
  0
VERTEX
  8
0
  6
CONTINUOUS
 10
1.721280
 20
4.137760
  0
VERTEX
  8
0
  6
CONTINUOUS
 10
2.195160
 20
4.137760
  0
SEQEND
  8
0
  0
SOLID
  8
0
 62
    15
 10
1.721280
 20
4.137760
 11
2.383040
 21
3.787960
 12
1.702800
 22
3.958680
 13
2.364120
 23
3.608880
  0
POLYLINE
  8
0
  6
CONTINUOUS
 66
     1
 40
0.000000
 41
0.000000
  0
VERTEX
  8
0
  6
CONTINUOUS
 10
1.721280
 20
4.137760
  0
VERTEX
  8
0
  6
CONTINUOUS
 10
2.383040
 20
3.787960
  0
VERTEX
  8
0
  6
CONTINUOUS
 10
2.364120
 20
3.608880
  0
VERTEX
  8
0
  6
CONTINUOUS
 10
1.702800
 20
3.958680
  0
VERTEX
  8
0
  6
CONTINUOUS
 10
1.721280
 20
4.137760
  0
SEQEND
  8
0
  0
SOLID
  8
0
 62
    15
 10
1.702800
 20
3.958680
 11
2.364120
 21
3.608880
 12
1.634160
 22
3.822720
 13
2.295480
 23
3.473360
  0
POLYLINE
  8
0
  6
CONTINUOUS
 66
     1
 40
0.000000
 41
0.000000
  0
VERTEX
  8
0
  6
CONTINUOUS
 10
1.702800
 20
3.958680
  0
VERTEX
  8
0
  6
CONTINUOUS
 10
2.364120
 20
3.608880
  0
VERTEX
  8
0
  6
CONTINUOUS
 10
2.295480
 20
3.473360
  0
VERTEX
  8
0
  6
CONTINUOUS
 10
1.634160
 20
3.822720
  0
VERTEX
  8
0
  6
CONTINUOUS
 10
1.702800
 20
3.958680
  0
SEQEND
  8
0
  0
SOLID
  8
0
 62
    15
 10
1.634160
 20
3.822720
 11
2.295480
 21
3.473360
 12
1.497760
 22
3.736920
 13
2.159520
 23
3.387560
  0
POLYLINE
  8
0
  6
CONTINUOUS
 66
     1
 40
0.000000
 41
0.000000
  0
VERTEX
  8
0
  6
CONTINUOUS
 10
1.634160
 20
3.822720
  0
VERTEX
  8
0
  6
CONTINUOUS
 10
2.295480
 20
3.473360
  0
VERTEX
  8
0
  6
CONTINUOUS
 10
2.159520
 20
3.387560
  0
VERTEX
  8
0
  6
CONTINUOUS
 10
1.497760
 20
3.736920
  0
VERTEX
  8
0
  6
CONTINUOUS
 10
1.634160
 20
3.822720
  0
SEQEND
  8
0
  0
SOLID
  8
0
 62
    15
 10
1.497760
 20
3.736920
 11
2.159520
 21
3.387560
 12
1.398760
 22
3.714920
 13
2.060080
 23
3.365120
  0
POLYLINE
  8
0
  6
CONTINUOUS
 66
     1
 40
0.000000
 41
0.000000
  0
VERTEX
  8
0
  6
CONTINUOUS
 10
1.497760
 20
3.736920
  0
VERTEX
  8
0
  6
CONTINUOUS
 10
2.159520
 20
3.387560
  0
VERTEX
  8
0
  6
CONTINUOUS
 10
2.060080
 20
3.365120
  0
VERTEX
  8
0
  6
CONTINUOUS
 10
1.398760
 20
3.714920
  0
VERTEX
  8
0
  6
CONTINUOUS
 10
1.497760
 20
3.736920
  0
SEQEND
  8
0
  0
SOLID
  8
0
 62
    15
 10
1.398760
 20
3.714920
 11
2.060080
 21
3.365120
 12
1.276000
 22
3.707000
 13
1.937320
 23
3.357640
  0
POLYLINE
  8
0
  6
CONTINUOUS
 66
     1
 40
0.000000
 41
0.000000
  0
VERTEX
  8
0
  6
CONTINUOUS
 10
1.398760
 20
3.714920
  0
VERTEX
  8
0
  6
CONTINUOUS
 10
2.060080
 20
3.365120
  0
VERTEX
  8
0
  6
CONTINUOUS
 10
1.937320
 20
3.357640
  0
VERTEX
  8
0
  6
CONTINUOUS
 10
1.276000
 20
3.707000
  0
VERTEX
  8
0
  6
CONTINUOUS
 10
1.398760
 20
3.714920
  0
SEQEND
  8
0
  0
SOLID
  8
0
 62
    15
 10
1.276000
 20
3.707000
 11
1.937320
 21
3.357640
 12
1.276000
 22
3.515600
 13
1.937320
 23
3.166240
  0
POLYLINE
  8
0
  6
CONTINUOUS
 66
     1
 40
0.000000
 41
0.000000
  0
VERTEX
  8
0
  6
CONTINUOUS
 10
1.276000
 20
3.707000
  0
VERTEX
  8
0
  6
CONTINUOUS
 10
1.937320
 20
3.357640
  0
VERTEX
  8
0
  6
CONTINUOUS
 10
1.937320
 20
3.166240
  0
VERTEX
  8
0
  6
CONTINUOUS
 10
1.276000
 20
3.515600
  0
VERTEX
  8
0
  6
CONTINUOUS
 10
1.276000
 20
3.707000
  0
SEQEND
  8
0
  0
SOLID
  8
0
 62
    15
 10
1.276000
 20
3.515600
 11
1.937320
 21
3.166240
 12
1.352560
 22
3.377440
 13
2.013880
 23
3.028080
  0
POLYLINE
  8
0
  6
CONTINUOUS
 66
     1
 40
0.000000
 41
0.000000
  0
VERTEX
  8
0
  6
CONTINUOUS
 10
1.276000
 20
3.515600
  0
VERTEX
  8
0
  6
CONTINUOUS
 10
1.937320
 20
3.166240
  0
VERTEX
  8
0
  6
CONTINUOUS
 10
2.013880
 20
3.028080
  0
VERTEX
  8
0
  6
CONTINUOUS
 10
1.352560
 20
3.377440
  0
VERTEX
  8
0
  6
CONTINUOUS
 10
1.276000
 20
3.515600
  0
SEQEND
  8
0
  0
SOLID
  8
0
 62
    15
 10
1.352560
 20
3.377440
 11
2.013880
 21
3.028080
 12
1.378520
 22
3.263480
 13
2.040280
 23
2.914120
  0
POLYLINE
  8
0
  6
CONTINUOUS
 66
     1
 40
0.000000
 41
0.000000
  0
VERTEX
  8
0
  6
CONTINUOUS
 10
1.352560
 20
3.377440
  0
VERTEX
  8
0
  6
CONTINUOUS
 10
2.013880
 20
3.028080
  0
VERTEX
  8
0
  6
CONTINUOUS
 10
2.040280
 20
2.914120
  0
VERTEX
  8
0
  6
CONTINUOUS
 10
1.378520
 20
3.263480
  0
VERTEX
  8
0
  6
CONTINUOUS
 10
1.352560
 20
3.377440
  0
SEQEND
  8
0
  0
SOLID
  8
0
 62
    15
 10
1.378520
 20
3.263480
 11
2.040280
 21
2.914120
 12
1.364440
 22
3.171080
 13
2.025760
 23
2.821280
  0
POLYLINE
  8
0
  6
CONTINUOUS
 66
     1
 40
0.000000
 41
0.000000
  0
VERTEX
  8
0
  6
CONTINUOUS
 10
1.378520
 20
3.263480
  0
VERTEX
  8
0
  6
CONTINUOUS
 10
2.040280
 20
2.914120
  0
VERTEX
  8
0
  6
CONTINUOUS
 10
2.025760
 20
2.821280
  0
VERTEX
  8
0
  6
CONTINUOUS
 10
1.364440
 20
3.171080
  0
VERTEX
  8
0
  6
CONTINUOUS
 10
1.378520
 20
3.263480
  0
SEQEND
  8
0
  0
SOLID
  8
0
 62
    15
 10
1.364440
 20
3.171080
 11
2.025760
 21
2.821280
 12
1.320000
 22
3.096280
 13
1.981320
 23
2.746920
  0
POLYLINE
  8
0
  6
CONTINUOUS
 66
     1
 40
0.000000
 41
0.000000
  0
VERTEX
  8
0
  6
CONTINUOUS
 10
1.364440
 20
3.171080
  0
VERTEX
  8
0
  6
CONTINUOUS
 10
2.025760
 20
2.821280
  0
VERTEX
  8
0
  6
CONTINUOUS
 10
1.981320
 20
2.746920
  0
VERTEX
  8
0
  6
CONTINUOUS
 10
1.320000
 20
3.096280
  0
VERTEX
  8
0
  6
CONTINUOUS
 10
1.364440
 20
3.171080
  0
SEQEND
  8
0
  0
SOLID
  8
0
 62
    15
 10
1.320000
 20
3.096280
 11
1.981320
 21
2.746920
 12
1.181400
 22
2.990240
 13
1.842720
 23
2.640440
  0
POLYLINE
  8
0
  6
CONTINUOUS
 66
     1
 40
0.000000
 41
0.000000
  0
VERTEX
  8
0
  6
CONTINUOUS
 10
1.320000
 20
3.096280
  0
VERTEX
  8
0
  6
CONTINUOUS
 10
1.981320
 20
2.746920
  0
VERTEX
  8
0
  6
CONTINUOUS
 10
1.842720
 20
2.640440
  0
VERTEX
  8
0
  6
CONTINUOUS
 10
1.181400
 20
2.990240
  0
VERTEX
  8
0
  6
CONTINUOUS
 10
1.320000
 20
3.096280
  0
SEQEND
  8
0
  0
SOLID
  8
0
 62
    15
 10
1.181400
 20
2.990240
 11
1.842720
 21
2.640440
 12
1.043680
 22
2.921160
 13
1.705000
 23
2.571800
  0
POLYLINE
  8
0
  6
CONTINUOUS
 66
     1
 40
0.000000
 41
0.000000
  0
VERTEX
  8
0
  6
CONTINUOUS
 10
1.181400
 20
2.990240
  0
VERTEX
  8
0
  6
CONTINUOUS
 10
1.842720
 20
2.640440
  0
VERTEX
  8
0
  6
CONTINUOUS
 10
1.705000
 20
2.571800
  0
VERTEX
  8
0
  6
CONTINUOUS
 10
1.043680
 20
2.921160
  0
VERTEX
  8
0
  6
CONTINUOUS
 10
1.181400
 20
2.990240
  0
SEQEND
  8
0
  0
SOLID
  8
0
 62
    15
 10
1.043680
 20
2.921160
 11
1.705000
 21
2.571800
 12
0.948200
 22
2.834480
 13
1.609520
 23
2.485120
  0
POLYLINE
  8
0
  6
CONTINUOUS
 66
     1
 40
0.000000
 41
0.000000
  0
VERTEX
  8
0
  6
CONTINUOUS
 10
1.043680
 20
2.921160
  0
VERTEX
  8
0
  6
CONTINUOUS
 10
1.705000
 20
2.571800
  0
VERTEX
  8
0
  6
CONTINUOUS
 10
1.609520
 20
2.485120
  0
VERTEX
  8
0
  6
CONTINUOUS
 10
0.948200
 20
2.834480
  0
VERTEX
  8
0
  6
CONTINUOUS
 10
1.043680
 20
2.921160
  0
SEQEND
  8
0
  0
SOLID
  8
0
 62
    15
 10
0.948200
 20
2.834480
 11
1.609520
 21
2.485120
 12
0.881320
 22
2.709960
 13
1.542640
 23
2.360600
  0
POLYLINE
  8
0
  6
CONTINUOUS
 66
     1
 40
0.000000
 41
0.000000
  0
VERTEX
  8
0
  6
CONTINUOUS
 10
0.948200
 20
2.834480
  0
VERTEX
  8
0
  6
CONTINUOUS
 10
1.609520
 20
2.485120
  0
VERTEX
  8
0
  6
CONTINUOUS
 10
1.542640
 20
2.360600
  0
VERTEX
  8
0
  6
CONTINUOUS
 10
0.881320
 20
2.709960
  0
VERTEX
  8
0
  6
CONTINUOUS
 10
0.948200
 20
2.834480
  0
SEQEND
  8
0
  0
SOLID
  8
0
 62
    15
 10
0.881320
 20
2.709960
 11
1.542640
 21
2.360600
 12
0.842600
 22
2.577080
 13
1.504360
 23
2.227720
  0
POLYLINE
  8
0
  6
CONTINUOUS
 66
     1
 40
0.000000
 41
0.000000
  0
VERTEX
  8
0
  6
CONTINUOUS
 10
0.881320
 20
2.709960
  0
VERTEX
  8
0
  6
CONTINUOUS
 10
1.542640
 20
2.360600
  0
VERTEX
  8
0
  6
CONTINUOUS
 10
1.504360
 20
2.227720
  0
VERTEX
  8
0
  6
CONTINUOUS
 10
0.842600
 20
2.577080
  0
VERTEX
  8
0
  6
CONTINUOUS
 10
0.881320
 20
2.709960
  0
SEQEND
  8
0
  0
SOLID
  8
0
 62
    15
 10
0.832040
 20
2.465320
 11
1.493360
 21
2.115520
 12
0.461560
 22
2.465320
 13
1.122880
 23
2.115520
  0
POLYLINE
  8
0
  6
CONTINUOUS
 66
     1
 40
0.000000
 41
0.000000
  0
VERTEX
  8
0
  6
CONTINUOUS
 10
0.832040
 20
2.465320
  0
VERTEX
  8
0
  6
CONTINUOUS
 10
1.493360
 20
2.115520
  0
VERTEX
  8
0
  6
CONTINUOUS
 10
1.122880
 20
2.115520
  0
VERTEX
  8
0
  6
CONTINUOUS
 10
0.461560
 20
2.465320
  0
VERTEX
  8
0
  6
CONTINUOUS
 10
0.832040
 20
2.465320
  0
SEQEND
  8
0
  0
SOLID
  8
0
 62
    15
 10
0.842600
 20
2.577080
 11
1.504360
 21
2.227720
 12
0.832040
 22
2.465320
 13
1.493360
 23
2.115520
  0
POLYLINE
  8
0
  6
CONTINUOUS
 66
     1
 40
0.000000
 41
0.000000
  0
VERTEX
  8
0
  6
CONTINUOUS
 10
0.842600
 20
2.577080
  0
VERTEX
  8
0
  6
CONTINUOUS
 10
1.504360
 20
2.227720
  0
VERTEX
  8
0
  6
CONTINUOUS
 10
1.493360
 20
2.115520
  0
VERTEX
  8
0
  6
CONTINUOUS
 10
0.832040
 20
2.465320
  0
VERTEX
  8
0
  6
CONTINUOUS
 10
0.842600
 20
2.577080
  0
SEQEND
  8
0
  0
POLYLINE
  8
0
  6
CONTINUOUS
 66
     1
 40
0.000000
 41
0.000000
  0
VERTEX
  8
0
  6
CONTINUOUS
 10
4.380640
 20
7.808680
  0
VERTEX
  8
0
  6
CONTINUOUS
 10
5.483720
 20
7.808680
  0
VERTEX
  8
0
  6
CONTINUOUS
 10
5.445440
 20
7.700440
  0
VERTEX
  8
0
  6
CONTINUOUS
 10
5.371520
 20
7.571080
  0
VERTEX
  8
0
  6
CONTINUOUS
 10
5.253600
 20
7.450960
  0
VERTEX
  8
0
  6
CONTINUOUS
 10
5.082880
 20
7.368680
  0
VERTEX
  8
0
  6
CONTINUOUS
 10
5.082880
 20
6.983240
  0
VERTEX
  8
0
  6
CONTINUOUS
 10
4.682040
 20
6.983240
  0
VERTEX
  8
0
  6
CONTINUOUS
 10
4.614280
 20
6.762360
  0
VERTEX
  8
0
  6
CONTINUOUS
 10
4.517040
 20
6.584600
  0
VERTEX
  8
0
  6
CONTINUOUS
 10
4.396040
 20
6.442920
  0
VERTEX
  8
0
  6
CONTINUOUS
 10
4.257000
 20
6.329840
  0
VERTEX
  8
0
  6
CONTINUOUS
 10
3.947240
 20
6.161760
  0
VERTEX
  8
0
  6
CONTINUOUS
 10
3.633520
 20
6.024040
  0
VERTEX
  8
0
  6
CONTINUOUS
 10
3.462360
 20
5.932960
  0
VERTEX
  8
0
  6
CONTINUOUS
 10
3.259520
 20
5.800080
  0
VERTEX
  8
0
  6
CONTINUOUS
 10
3.039520
 20
5.626280
  0
VERTEX
  8
0
  6
CONTINUOUS
 10
2.816880
 20
5.411120
  0
VERTEX
  8
0
  6
CONTINUOUS
 10
2.606560
 20
5.154600
  0
VERTEX
  8
0
  6
CONTINUOUS
 10
2.423080
 20
4.856720
  0
VERTEX
  8
0
  6
CONTINUOUS
 10
2.280960
 20
4.517920
  0
VERTEX
  8
0
  6
CONTINUOUS
 10
2.195160
 20
4.137760
  0
VERTEX
  8
0
  6
CONTINUOUS
 10
1.721280
 20
4.137760
  0
VERTEX
  8
0
  6
CONTINUOUS
 10
1.702800
 20
3.958680
  0
VERTEX
  8
0
  6
CONTINUOUS
 10
1.634160
 20
3.822720
  0
VERTEX
  8
0
  6
CONTINUOUS
 10
1.497760
 20
3.736920
  0
VERTEX
  8
0
  6
CONTINUOUS
 10
1.398760
 20
3.714920
  0
VERTEX
  8
0
  6
CONTINUOUS
 10
1.276000
 20
3.707000
  0
VERTEX
  8
0
  6
CONTINUOUS
 10
1.276000
 20
3.515600
  0
VERTEX
  8
0
  6
CONTINUOUS
 10
1.352560
 20
3.377440
  0
VERTEX
  8
0
  6
CONTINUOUS
 10
1.378520
 20
3.263480
  0
VERTEX
  8
0
  6
CONTINUOUS
 10
1.364440
 20
3.171080
  0
VERTEX
  8
0
  6
CONTINUOUS
 10
1.320000
 20
3.096280
  0
VERTEX
  8
0
  6
CONTINUOUS
 10
1.181400
 20
2.990240
  0
VERTEX
  8
0
  6
CONTINUOUS
 10
1.043680
 20
2.921160
  0
VERTEX
  8
0
  6
CONTINUOUS
 10
0.948200
 20
2.834480
  0
VERTEX
  8
0
  6
CONTINUOUS
 10
0.881320
 20
2.709960
  0
VERTEX
  8
0
  6
CONTINUOUS
 10
0.842600
 20
2.577080
  0
VERTEX
  8
0
  6
CONTINUOUS
 10
0.832040
 20
2.465320
  0
VERTEX
  8
0
  6
CONTINUOUS
 10
0.461560
 20
2.465320
  0
VERTEX
  8
0
  6
CONTINUOUS
 10
0.461560
 20
3.670480
  0
VERTEX
  8
0
  6
CONTINUOUS
 10
4.380640
 20
7.808680
  0
SEQEND
  8
0
  0
TEXT
  8
0
 10
2.399320
 20
2.335520
 40
0.138237
  1
BA  912
 41
1.000000
  7
SN0
 71
     0
 72
     5
 11
2.988773
 21
2.335520
  0
TEXT
  8
0
 10
2.123440
 20
2.144120
 40
0.138237
  1
1-1/8" x 7-5/16"
 41
1.000000
  7
SN0
 71
     0
 72
     5
 11
3.261489
 21
2.144120
  0
ENDSEC
  0
EOF
