  0
SECTION
  2
HEADER
  9
$ACADVER
  1
AC1006
  9
$EXTMIN
 10
4.197160
 20
0.607200
  9
$EXTMAX
 10
6.765440
 20
3.975840
  9
$LTSCALE
 40
0.044000
  9
$PDMODE
 70
    35
  9
$PDSIZE
 40
0.035200
  0
ENDSEC
  0
SECTION
  2
TABLES
  0
TABLE
  2
LTYPE
 70
     9
  0
LTYPE
  2
CONTINUOUS
 70
    64
  3
Solid line
 72
    65
 73
     0
 40
0.000000
  0
LTYPE
  2
DASHED
 70
    64
  3
__ __ __ __ __ __ __ __ __ __ __ __ __ __ __
 72
    65
 73
     2
 40
0.000330
 49
0.000220
 49
-0.000110
  0
LTYPE
  2
HIDDEN
 70
    64
  3
 _ _ _ _ _ _ _ _ _ _ _ _ _ _ _ _ _ _ _ _ _ _
 72
    65
 73
     2
 40
0.000165
 49
0.000110
 49
-0.000055
  0
LTYPE
  2
CENTER
 70
    64
  3
____ _ ____ _ ____ _ ____ _ ____ _ ____ _ ____
 72
    65
 73
     4
 40
0.000880
 49
0.000550
 49
-0.000110
 49
0.000110
 49
-0.000110
  0
LTYPE
  2
PHANTOM
 70
    64
  3
_____ _ _ _____ _ _ _____ _ _ _____ _ _ ____
 72
    65
 73
     6
 40
0.001100
 49
0.000550
 49
-0.000110
 49
0.000110
 49
-0.000110
 49
0.000110
 49
-0.000110
  0
LTYPE
  2
DOT
 70
    64
  3
...............................................
 72
    65
 73
     2
 40
0.000110
 49
0.000000
 49
-0.000110
  0
LTYPE
  2
DASHDOT
 70
    64
  3
__ . __ . __ . __ . __ . __ . __ . __ . __ . __
 72
    65
 73
     4
 40
0.000440
 49
0.000220
 49
-0.000110
 49
0.000000
 49
-0.000110
  0
LTYPE
  2
BORDER
 70
    64
  3
__ __ . __ __ . __ __ . __ __ . __ __ . __ __
 72
    65
 73
     6
 40
0.000770
 49
0.000220
 49
-0.000110
 49
0.000220
 49
-0.000110
 49
0.000000
 49
-0.000110
  0
LTYPE
  2
DIVIDE
 70
    64
  3
__ . . __ . . __ . . __ . . __ . . __ . . __
 72
    65
 73
     6
 40
0.000550
 49
0.000220
 49
-0.000110
 49
0.000000
 49
-0.000110
 49
0.000000
 49
-0.000110
  0
LTYPE
  2
DOTDOT
 70
    64
  3
 . .  . .  . .  . .  . .  . . 
 72
    65
 73
     5
 40
0.000242
 49
-0.000110
 49
0.000000
 49
-0.000110
 49
0.000000
 49
-0.000110
  0
ENDTAB
  0
TABLE
  2
STYLE
 70
     2
  0
STYLE
 70
     0
  2
SN0
 40
0.000000
 41
0.000440
 50
0.000000
 71
     0
 42
0.000000
  3
ROMAND
  0
STYLE
 70
    68
  2
SV0
 40
0.000000
 41
0.000440
 50
0.000000
 71
     0
 42
0.000000
  3
ROMAND
  0
ENDTAB
  0
TABLE
  2
LAYER
 70
     3
  0
LAYER
  2
FOREGROUND
 70
    64
 62
     7
  6
CONTINUOUS
  0
LAYER
  2
BACKGROUND
 70
    65
 62
    -7
  6
CONTINUOUS
  0
LAYER
  2
0
 70
    64
 62
     7
  6
CONTINUOUS
  0
ENDTAB
  0
ENDSEC
  0
SECTION
  2
ENTITIES
  0
POLYLINE
  8
FOREGROUND
  6
CONTINUOUS
 66
     1
 40
0.000000
 41
0.000000
  0
VERTEX
  8
FOREGROUND
  6
CONTINUOUS
 10
0.000000
 20
4.583040
  0
VERTEX
  8
FOREGROUND
  6
CONTINUOUS
 10
8.499920
 20
4.583040
  0
VERTEX
  8
FOREGROUND
  6
CONTINUOUS
 10
8.499920
 20
-6.416960
  0
VERTEX
  8
FOREGROUND
  6
CONTINUOUS
 10
0.000000
 20
-6.416960
  0
VERTEX
  8
FOREGROUND
  6
CONTINUOUS
 10
0.000000
 20
4.583040
  0
SEQEND
  8
0
  0
POLYLINE
  8
FOREGROUND
  6
CONTINUOUS
 66
     1
 40
0.000000
 41
0.000000
  0
VERTEX
  8
FOREGROUND
  6
CONTINUOUS
 10
0.000000
 20
4.583040
  0
VERTEX
  8
FOREGROUND
  6
CONTINUOUS
 10
8.499920
 20
4.583040
  0
VERTEX
  8
FOREGROUND
  6
CONTINUOUS
 10
8.499920
 20
-6.416960
  0
VERTEX
  8
FOREGROUND
  6
CONTINUOUS
 10
0.000000
 20
-6.416960
  0
VERTEX
  8
FOREGROUND
  6
CONTINUOUS
 10
0.000000
 20
4.583040
  0
SEQEND
  8
0
  0
POLYLINE
  8
0
  6
CONTINUOUS
 66
     1
 40
0.014080
 41
0.014080
  0
VERTEX
  8
0
  6
CONTINUOUS
 10
6.758400
 20
1.381600
  0
VERTEX
  8
0
  6
CONTINUOUS
 10
6.758400
 20
1.591480
  0
VERTEX
  8
0
  6
CONTINUOUS
 10
6.758400
 20
3.105520
  0
VERTEX
  8
0
  6
CONTINUOUS
 10
5.996760
 20
3.105520
  0
VERTEX
  8
0
  6
CONTINUOUS
 10
5.996760
 20
0.614680
  0
VERTEX
  8
0
  6
CONTINUOUS
 10
6.511560
 20
0.614680
  0
VERTEX
  8
0
  6
CONTINUOUS
 10
6.511120
 20
0.646800
  0
VERTEX
  8
0
  6
CONTINUOUS
 10
6.511560
 20
0.678480
  0
VERTEX
  8
0
  6
CONTINUOUS
 10
6.512000
 20
0.709720
  0
VERTEX
  8
0
  6
CONTINUOUS
 10
6.512880
 20
0.740520
  0
VERTEX
  8
0
  6
CONTINUOUS
 10
6.514200
 20
0.770440
  0
VERTEX
  8
0
  6
CONTINUOUS
 10
6.515960
 20
0.799920
  0
VERTEX
  8
0
  6
CONTINUOUS
 10
6.518160
 20
0.829400
  0
VERTEX
  8
0
  6
CONTINUOUS
 10
6.521240
 20
0.858000
  0
VERTEX
  8
0
  6
CONTINUOUS
 10
6.524320
 20
0.885720
  0
VERTEX
  8
0
  6
CONTINUOUS
 10
6.527840
 20
0.913440
  0
VERTEX
  8
0
  6
CONTINUOUS
 10
6.532240
 20
0.940280
  0
VERTEX
  8
0
  6
CONTINUOUS
 10
6.537080
 20
0.967120
  0
VERTEX
  8
0
  6
CONTINUOUS
 10
6.542360
 20
0.992640
  0
VERTEX
  8
0
  6
CONTINUOUS
 10
6.548080
 20
1.018160
  0
VERTEX
  8
0
  6
CONTINUOUS
 10
6.554240
 20
1.043240
  0
VERTEX
  8
0
  6
CONTINUOUS
 10
6.561280
 20
1.067440
  0
VERTEX
  8
0
  6
CONTINUOUS
 10
6.568760
 20
1.091200
  0
VERTEX
  8
0
  6
CONTINUOUS
 10
6.576680
 20
1.114520
  0
VERTEX
  8
0
  6
CONTINUOUS
 10
6.585480
 20
1.136960
  0
VERTEX
  8
0
  6
CONTINUOUS
 10
6.594720
 20
1.159400
  0
VERTEX
  8
0
  6
CONTINUOUS
 10
6.604840
 20
1.180960
  0
VERTEX
  8
0
  6
CONTINUOUS
 10
6.614960
 20
1.201640
  0
VERTEX
  8
0
  6
CONTINUOUS
 10
6.626400
 20
1.222320
  0
VERTEX
  8
0
  6
CONTINUOUS
 10
6.638280
 20
1.242120
  0
VERTEX
  8
0
  6
CONTINUOUS
 10
6.650600
 20
1.261480
  0
VERTEX
  8
0
  6
CONTINUOUS
 10
6.663800
 20
1.279960
  0
VERTEX
  8
0
  6
CONTINUOUS
 10
6.677880
 20
1.298440
  0
VERTEX
  8
0
  6
CONTINUOUS
 10
6.692400
 20
1.316040
  0
VERTEX
  8
0
  6
CONTINUOUS
 10
6.707800
 20
1.332760
  0
VERTEX
  8
0
  6
CONTINUOUS
 10
6.724080
 20
1.349040
  0
VERTEX
  8
0
  6
CONTINUOUS
 10
6.740800
 20
1.364880
  0
VERTEX
  8
0
  6
CONTINUOUS
 10
6.758400
 20
1.380280
  0
VERTEX
  8
0
  6
CONTINUOUS
 10
6.758400
 20
1.381600
  0
SEQEND
  8
0
  0
SOLID
  8
0
 62
    15
 10
4.762120
 20
1.558040
 11
5.415080
 21
1.937320
 12
4.737480
 22
1.457720
 13
5.390440
 23
1.837000
  0
POLYLINE
  8
0
  6
CONTINUOUS
 66
     1
 40
0.000000
 41
0.000000
  0
VERTEX
  8
0
  6
CONTINUOUS
 10
4.762120
 20
1.558040
  0
VERTEX
  8
0
  6
CONTINUOUS
 10
5.415080
 20
1.937320
  0
VERTEX
  8
0
  6
CONTINUOUS
 10
5.390440
 20
1.837000
  0
VERTEX
  8
0
  6
CONTINUOUS
 10
4.737480
 20
1.457720
  0
VERTEX
  8
0
  6
CONTINUOUS
 10
4.762120
 20
1.558040
  0
SEQEND
  8
0
  0
SOLID
  8
0
 62
    15
 10
4.924480
 20
1.840080
 11
5.577440
 21
2.218920
 12
4.893240
 22
1.806640
 13
5.546200
 23
2.185480
  0
POLYLINE
  8
0
  6
CONTINUOUS
 66
     1
 40
0.000000
 41
0.000000
  0
VERTEX
  8
0
  6
CONTINUOUS
 10
4.924480
 20
1.840080
  0
VERTEX
  8
0
  6
CONTINUOUS
 10
5.577440
 20
2.218920
  0
VERTEX
  8
0
  6
CONTINUOUS
 10
5.546200
 20
2.185480
  0
VERTEX
  8
0
  6
CONTINUOUS
 10
4.893240
 20
1.806640
  0
VERTEX
  8
0
  6
CONTINUOUS
 10
4.924480
 20
1.840080
  0
SEQEND
  8
0
  0
SOLID
  8
0
 62
    15
 10
4.893240
 20
1.806640
 11
5.546200
 21
2.185480
 12
4.864640
 22
1.771000
 13
5.517600
 23
2.149840
  0
POLYLINE
  8
0
  6
CONTINUOUS
 66
     1
 40
0.000000
 41
0.000000
  0
VERTEX
  8
0
  6
CONTINUOUS
 10
4.893240
 20
1.806640
  0
VERTEX
  8
0
  6
CONTINUOUS
 10
5.546200
 20
2.185480
  0
VERTEX
  8
0
  6
CONTINUOUS
 10
5.517600
 20
2.149840
  0
VERTEX
  8
0
  6
CONTINUOUS
 10
4.864640
 20
1.771000
  0
VERTEX
  8
0
  6
CONTINUOUS
 10
4.893240
 20
1.806640
  0
SEQEND
  8
0
  0
SOLID
  8
0
 62
    15
 10
4.864640
 20
1.771000
 11
5.517600
 21
2.149840
 12
4.839120
 22
1.732720
 13
5.491640
 23
2.112000
  0
POLYLINE
  8
0
  6
CONTINUOUS
 66
     1
 40
0.000000
 41
0.000000
  0
VERTEX
  8
0
  6
CONTINUOUS
 10
4.864640
 20
1.771000
  0
VERTEX
  8
0
  6
CONTINUOUS
 10
5.517600
 20
2.149840
  0
VERTEX
  8
0
  6
CONTINUOUS
 10
5.491640
 20
2.112000
  0
VERTEX
  8
0
  6
CONTINUOUS
 10
4.839120
 20
1.732720
  0
VERTEX
  8
0
  6
CONTINUOUS
 10
4.864640
 20
1.771000
  0
SEQEND
  8
0
  0
SOLID
  8
0
 62
    15
 10
4.839120
 20
1.732720
 11
5.491640
 21
2.112000
 12
4.795560
 22
1.650000
 13
5.448520
 23
2.029280
  0
POLYLINE
  8
0
  6
CONTINUOUS
 66
     1
 40
0.000000
 41
0.000000
  0
VERTEX
  8
0
  6
CONTINUOUS
 10
4.839120
 20
1.732720
  0
VERTEX
  8
0
  6
CONTINUOUS
 10
5.491640
 20
2.112000
  0
VERTEX
  8
0
  6
CONTINUOUS
 10
5.448520
 20
2.029280
  0
VERTEX
  8
0
  6
CONTINUOUS
 10
4.795560
 20
1.650000
  0
VERTEX
  8
0
  6
CONTINUOUS
 10
4.839120
 20
1.732720
  0
SEQEND
  8
0
  0
SOLID
  8
0
 62
    15
 10
4.795560
 20
1.650000
 11
5.448520
 21
2.029280
 12
4.762120
 22
1.558040
 13
5.415080
 23
1.937320
  0
POLYLINE
  8
0
  6
CONTINUOUS
 66
     1
 40
0.000000
 41
0.000000
  0
VERTEX
  8
0
  6
CONTINUOUS
 10
4.795560
 20
1.650000
  0
VERTEX
  8
0
  6
CONTINUOUS
 10
5.448520
 20
2.029280
  0
VERTEX
  8
0
  6
CONTINUOUS
 10
5.415080
 20
1.937320
  0
VERTEX
  8
0
  6
CONTINUOUS
 10
4.762120
 20
1.558040
  0
VERTEX
  8
0
  6
CONTINUOUS
 10
4.795560
 20
1.650000
  0
SEQEND
  8
0
  0
SOLID
  8
0
 62
    15
 10
4.959240
 20
1.870880
 11
5.611760
 21
2.250160
 12
4.924480
 22
1.840080
 13
5.577440
 23
2.218920
  0
POLYLINE
  8
0
  6
CONTINUOUS
 66
     1
 40
0.000000
 41
0.000000
  0
VERTEX
  8
0
  6
CONTINUOUS
 10
4.959240
 20
1.870880
  0
VERTEX
  8
0
  6
CONTINUOUS
 10
5.611760
 20
2.250160
  0
VERTEX
  8
0
  6
CONTINUOUS
 10
5.577440
 20
2.218920
  0
VERTEX
  8
0
  6
CONTINUOUS
 10
4.924480
 20
1.840080
  0
VERTEX
  8
0
  6
CONTINUOUS
 10
4.959240
 20
1.870880
  0
SEQEND
  8
0
  0
SOLID
  8
0
 62
    15
 10
4.737480
 20
1.457720
 11
5.390440
 21
1.837000
 12
4.721640
 22
1.348600
 13
5.374600
 23
1.727440
  0
POLYLINE
  8
0
  6
CONTINUOUS
 66
     1
 40
0.000000
 41
0.000000
  0
VERTEX
  8
0
  6
CONTINUOUS
 10
4.737480
 20
1.457720
  0
VERTEX
  8
0
  6
CONTINUOUS
 10
5.390440
 20
1.837000
  0
VERTEX
  8
0
  6
CONTINUOUS
 10
5.374600
 20
1.727440
  0
VERTEX
  8
0
  6
CONTINUOUS
 10
4.721640
 20
1.348600
  0
VERTEX
  8
0
  6
CONTINUOUS
 10
4.737480
 20
1.457720
  0
SEQEND
  8
0
  0
SOLID
  8
0
 62
    15
 10
4.721640
 20
1.348600
 11
5.374600
 21
1.727440
 12
4.713720
 22
1.231120
 13
5.366680
 23
1.609960
  0
POLYLINE
  8
0
  6
CONTINUOUS
 66
     1
 40
0.000000
 41
0.000000
  0
VERTEX
  8
0
  6
CONTINUOUS
 10
4.721640
 20
1.348600
  0
VERTEX
  8
0
  6
CONTINUOUS
 10
5.374600
 20
1.727440
  0
VERTEX
  8
0
  6
CONTINUOUS
 10
5.366680
 20
1.609960
  0
VERTEX
  8
0
  6
CONTINUOUS
 10
4.713720
 20
1.231120
  0
VERTEX
  8
0
  6
CONTINUOUS
 10
4.721640
 20
1.348600
  0
SEQEND
  8
0
  0
SOLID
  8
0
 62
    15
 10
4.713720
 20
1.231120
 11
5.366680
 21
1.609960
 12
4.712400
 22
1.105280
 13
5.364920
 23
1.484560
  0
POLYLINE
  8
0
  6
CONTINUOUS
 66
     1
 40
0.000000
 41
0.000000
  0
VERTEX
  8
0
  6
CONTINUOUS
 10
4.713720
 20
1.231120
  0
VERTEX
  8
0
  6
CONTINUOUS
 10
5.366680
 20
1.609960
  0
VERTEX
  8
0
  6
CONTINUOUS
 10
5.364920
 20
1.484560
  0
VERTEX
  8
0
  6
CONTINUOUS
 10
4.712400
 20
1.105280
  0
VERTEX
  8
0
  6
CONTINUOUS
 10
4.713720
 20
1.231120
  0
SEQEND
  8
0
  0
SOLID
  8
0
 62
    15
 10
4.197600
 20
3.596120
 11
4.850560
 21
3.974960
 12
4.959240
 22
3.596120
 13
5.612200
 23
3.974960
  0
POLYLINE
  8
0
  6
CONTINUOUS
 66
     1
 40
0.000000
 41
0.000000
  0
VERTEX
  8
0
  6
CONTINUOUS
 10
4.197600
 20
3.596120
  0
VERTEX
  8
0
  6
CONTINUOUS
 10
4.850560
 20
3.974960
  0
VERTEX
  8
0
  6
CONTINUOUS
 10
5.612200
 20
3.974960
  0
VERTEX
  8
0
  6
CONTINUOUS
 10
4.959240
 20
3.596120
  0
VERTEX
  8
0
  6
CONTINUOUS
 10
4.197600
 20
3.596120
  0
SEQEND
  8
0
  0
SOLID
  8
0
 62
    15
 10
4.959240
 20
3.596120
 11
5.612200
 21
3.974960
 12
4.959240
 22
1.872200
 13
5.612200
 23
2.251480
  0
POLYLINE
  8
0
  6
CONTINUOUS
 66
     1
 40
0.000000
 41
0.000000
  0
VERTEX
  8
0
  6
CONTINUOUS
 10
4.959240
 20
3.596120
  0
VERTEX
  8
0
  6
CONTINUOUS
 10
5.612200
 20
3.974960
  0
VERTEX
  8
0
  6
CONTINUOUS
 10
5.612200
 20
2.251480
  0
VERTEX
  8
0
  6
CONTINUOUS
 10
4.959240
 20
1.872200
  0
VERTEX
  8
0
  6
CONTINUOUS
 10
4.959240
 20
3.596120
  0
SEQEND
  8
0
  0
SOLID
  8
0
 62
    15
 10
4.959240
 20
1.872200
 11
5.612200
 21
2.251480
 12
4.959240
 22
1.870880
 13
5.611760
 23
2.250160
  0
POLYLINE
  8
0
  6
CONTINUOUS
 66
     1
 40
0.000000
 41
0.000000
  0
VERTEX
  8
0
  6
CONTINUOUS
 10
4.959240
 20
1.872200
  0
VERTEX
  8
0
  6
CONTINUOUS
 10
5.612200
 20
2.251480
  0
VERTEX
  8
0
  6
CONTINUOUS
 10
5.611760
 20
2.250160
  0
VERTEX
  8
0
  6
CONTINUOUS
 10
4.959240
 20
1.870880
  0
VERTEX
  8
0
  6
CONTINUOUS
 10
4.959240
 20
1.872200
  0
SEQEND
  8
0
  0
POLYLINE
  8
0
  6
CONTINUOUS
 66
     1
 40
0.000000
 41
0.000000
  0
VERTEX
  8
0
  6
CONTINUOUS
 10
4.959240
 20
1.870880
  0
VERTEX
  8
0
  6
CONTINUOUS
 10
4.924480
 20
1.840080
  0
VERTEX
  8
0
  6
CONTINUOUS
 10
4.893240
 20
1.806640
  0
VERTEX
  8
0
  6
CONTINUOUS
 10
4.864640
 20
1.771000
  0
VERTEX
  8
0
  6
CONTINUOUS
 10
4.839120
 20
1.732720
  0
VERTEX
  8
0
  6
CONTINUOUS
 10
4.795560
 20
1.650000
  0
VERTEX
  8
0
  6
CONTINUOUS
 10
4.762120
 20
1.558040
  0
VERTEX
  8
0
  6
CONTINUOUS
 10
4.737480
 20
1.457720
  0
VERTEX
  8
0
  6
CONTINUOUS
 10
4.721640
 20
1.348600
  0
VERTEX
  8
0
  6
CONTINUOUS
 10
4.713720
 20
1.231120
  0
VERTEX
  8
0
  6
CONTINUOUS
 10
4.712400
 20
1.105280
  0
VERTEX
  8
0
  6
CONTINUOUS
 10
4.197600
 20
1.105280
  0
VERTEX
  8
0
  6
CONTINUOUS
 10
4.197600
 20
3.596120
  0
VERTEX
  8
0
  6
CONTINUOUS
 10
4.959240
 20
3.596120
  0
VERTEX
  8
0
  6
CONTINUOUS
 10
4.959240
 20
1.872200
  0
VERTEX
  8
0
  6
CONTINUOUS
 10
4.959240
 20
1.870880
  0
SEQEND
  8
0
  0
TEXT
  8
0
 10
4.609440
 20
0.846560
 40
0.138035
  1
BA  911
 41
1.000000
  7
SN0
 71
     0
 72
     5
 11
5.199120
 21
0.846560
  0
TEXT
  8
0
 10
4.453680
 20
0.654720
 40
0.138035
  1
3/4" x 2-1/2"
 41
1.000000
  7
SN0
 71
     0
 72
     5
 11
5.353444
 21
0.654720
  0
ENDSEC
  0
EOF
