  0
SECTION
  2
HEADER
  9
$ACADVER
  1
AC1006
  9
$EXTMIN
 10
1.070960
 20
0.749760
  9
$EXTMAX
 10
7.370000
 20
4.658720
  9
$LTSCALE
 40
0.044000
  9
$PDMODE
 70
    35
  9
$PDSIZE
 40
0.035200
  0
ENDSEC
  0
SECTION
  2
TABLES
  0
TABLE
  2
LTYPE
 70
     9
  0
LTYPE
  2
CONTINUOUS
 70
    64
  3
Solid line
 72
    65
 73
     0
 40
0.000000
  0
LTYPE
  2
DASHED
 70
    64
  3
__ __ __ __ __ __ __ __ __ __ __ __ __ __ __
 72
    65
 73
     2
 40
0.000330
 49
0.000220
 49
-0.000110
  0
LTYPE
  2
HIDDEN
 70
    64
  3
 _ _ _ _ _ _ _ _ _ _ _ _ _ _ _ _ _ _ _ _ _ _
 72
    65
 73
     2
 40
0.000165
 49
0.000110
 49
-0.000055
  0
LTYPE
  2
CENTER
 70
    64
  3
____ _ ____ _ ____ _ ____ _ ____ _ ____ _ ____
 72
    65
 73
     4
 40
0.000880
 49
0.000550
 49
-0.000110
 49
0.000110
 49
-0.000110
  0
LTYPE
  2
PHANTOM
 70
    64
  3
_____ _ _ _____ _ _ _____ _ _ _____ _ _ ____
 72
    65
 73
     6
 40
0.001100
 49
0.000550
 49
-0.000110
 49
0.000110
 49
-0.000110
 49
0.000110
 49
-0.000110
  0
LTYPE
  2
DOT
 70
    64
  3
...............................................
 72
    65
 73
     2
 40
0.000110
 49
0.000000
 49
-0.000110
  0
LTYPE
  2
DASHDOT
 70
    64
  3
__ . __ . __ . __ . __ . __ . __ . __ . __ . __
 72
    65
 73
     4
 40
0.000440
 49
0.000220
 49
-0.000110
 49
0.000000
 49
-0.000110
  0
LTYPE
  2
BORDER
 70
    64
  3
__ __ . __ __ . __ __ . __ __ . __ __ . __ __
 72
    65
 73
     6
 40
0.000770
 49
0.000220
 49
-0.000110
 49
0.000220
 49
-0.000110
 49
0.000000
 49
-0.000110
  0
LTYPE
  2
DIVIDE
 70
    64
  3
__ . . __ . . __ . . __ . . __ . . __ . . __
 72
    65
 73
     6
 40
0.000550
 49
0.000220
 49
-0.000110
 49
0.000000
 49
-0.000110
 49
0.000000
 49
-0.000110
  0
LTYPE
  2
DOTDOT
 70
    64
  3
 . .  . .  . .  . .  . .  . . 
 72
    65
 73
     5
 40
0.000242
 49
-0.000110
 49
0.000000
 49
-0.000110
 49
0.000000
 49
-0.000110
  0
ENDTAB
  0
TABLE
  2
STYLE
 70
     2
  0
STYLE
 70
     0
  2
SN0
 40
0.000000
 41
0.000440
 50
0.000000
 71
     0
 42
0.000000
  3
ROMAND
  0
STYLE
 70
    68
  2
SV0
 40
0.000000
 41
0.000440
 50
0.000000
 71
     0
 42
0.000000
  3
ROMAND
  0
ENDTAB
  0
TABLE
  2
LAYER
 70
     3
  0
LAYER
  2
FOREGROUND
 70
    64
 62
     7
  6
CONTINUOUS
  0
LAYER
  2
BACKGROUND
 70
    65
 62
    -7
  6
CONTINUOUS
  0
LAYER
  2
0
 70
    64
 62
     7
  6
CONTINUOUS
  0
ENDTAB
  0
ENDSEC
  0
SECTION
  2
ENTITIES
  0
POLYLINE
  8
FOREGROUND
  6
CONTINUOUS
 66
     1
 40
0.000000
 41
0.000000
  0
VERTEX
  8
FOREGROUND
  6
CONTINUOUS
 10
0.000000
 20
5.408480
  0
VERTEX
  8
FOREGROUND
  6
CONTINUOUS
 10
8.499920
 20
5.408480
  0
VERTEX
  8
FOREGROUND
  6
CONTINUOUS
 10
8.499920
 20
-5.591520
  0
VERTEX
  8
FOREGROUND
  6
CONTINUOUS
 10
0.000000
 20
-5.591520
  0
VERTEX
  8
FOREGROUND
  6
CONTINUOUS
 10
0.000000
 20
5.408480
  0
SEQEND
  8
0
  0
POLYLINE
  8
FOREGROUND
  6
CONTINUOUS
 66
     1
 40
0.000000
 41
0.000000
  0
VERTEX
  8
FOREGROUND
  6
CONTINUOUS
 10
0.000000
 20
5.408480
  0
VERTEX
  8
FOREGROUND
  6
CONTINUOUS
 10
8.499920
 20
5.408480
  0
VERTEX
  8
FOREGROUND
  6
CONTINUOUS
 10
8.499920
 20
-5.591520
  0
VERTEX
  8
FOREGROUND
  6
CONTINUOUS
 10
0.000000
 20
-5.591520
  0
VERTEX
  8
FOREGROUND
  6
CONTINUOUS
 10
0.000000
 20
5.408480
  0
SEQEND
  8
0
  0
POLYLINE
  8
0
  6
CONTINUOUS
 66
     1
 40
0.000000
 41
0.000000
  0
VERTEX
  8
0
  6
CONTINUOUS
 10
6.614520
 20
4.089360
  0
VERTEX
  8
0
  6
CONTINUOUS
 10
7.368680
 20
4.089360
  0
VERTEX
  8
0
  6
CONTINUOUS
 10
7.370000
 20
4.056800
  0
VERTEX
  8
0
  6
CONTINUOUS
 10
7.365600
 20
4.007520
  0
VERTEX
  8
0
  6
CONTINUOUS
 10
7.354160
 20
3.958680
  0
VERTEX
  8
0
  6
CONTINUOUS
 10
7.335680
 20
3.911600
  0
VERTEX
  8
0
  6
CONTINUOUS
 10
7.309720
 20
3.866280
  0
VERTEX
  8
0
  6
CONTINUOUS
 10
7.289040
 20
3.837680
  0
VERTEX
  8
0
  6
CONTINUOUS
 10
7.251640
 20
3.798520
  0
VERTEX
  8
0
  6
CONTINUOUS
 10
7.222600
 20
3.774760
  0
VERTEX
  8
0
  6
CONTINUOUS
 10
7.190920
 20
3.753640
  0
VERTEX
  8
0
  6
CONTINUOUS
 10
7.155720
 20
3.734720
  0
VERTEX
  8
0
  6
CONTINUOUS
 10
7.117880
 20
3.718880
  0
VERTEX
  8
0
  6
CONTINUOUS
 10
7.076960
 20
3.706560
  0
VERTEX
  8
0
  6
CONTINUOUS
 10
7.032960
 20
3.697320
  0
VERTEX
  8
0
  6
CONTINUOUS
 10
7.009640
 20
3.694240
  0
VERTEX
  8
0
  6
CONTINUOUS
 10
7.009640
 20
3.507680
  0
VERTEX
  8
0
  6
CONTINUOUS
 10
6.888200
 20
3.470720
  0
VERTEX
  8
0
  6
CONTINUOUS
 10
6.777760
 20
3.431120
  0
VERTEX
  8
0
  6
CONTINUOUS
 10
6.658080
 20
3.381840
  0
VERTEX
  8
0
  6
CONTINUOUS
 10
6.595160
 20
3.353680
  0
VERTEX
  8
0
  6
CONTINUOUS
 10
6.464920
 20
3.289440
  0
VERTEX
  8
0
  6
CONTINUOUS
 10
6.330720
 20
3.214640
  0
VERTEX
  8
0
  6
CONTINUOUS
 10
6.228200
 20
3.151280
  0
VERTEX
  8
0
  6
CONTINUOUS
 10
6.125680
 20
3.081320
  0
VERTEX
  8
0
  6
CONTINUOUS
 10
6.023160
 20
3.004760
  0
VERTEX
  8
0
  6
CONTINUOUS
 10
5.922400
 20
2.921600
  0
VERTEX
  8
0
  6
CONTINUOUS
 10
5.856400
 20
2.862200
  0
VERTEX
  8
0
  6
CONTINUOUS
 10
5.791280
 20
2.799720
  0
VERTEX
  8
0
  6
CONTINUOUS
 10
5.727920
 20
2.734160
  0
VERTEX
  8
0
  6
CONTINUOUS
 10
5.636400
 20
2.629000
  0
VERTEX
  8
0
  6
CONTINUOUS
 10
5.578320
 20
2.555080
  0
VERTEX
  8
0
  6
CONTINUOUS
 10
5.522440
 20
2.477640
  0
VERTEX
  8
0
  6
CONTINUOUS
 10
5.468760
 20
2.396240
  0
VERTEX
  8
0
  6
CONTINUOUS
 10
5.418600
 20
2.311760
  0
VERTEX
  8
0
  6
CONTINUOUS
 10
5.371520
 20
2.223760
  0
VERTEX
  8
0
  6
CONTINUOUS
 10
5.327960
 20
2.131800
  0
VERTEX
  8
0
  6
CONTINUOUS
 10
5.287920
 20
2.036320
  0
VERTEX
  8
0
  6
CONTINUOUS
 10
5.251840
 20
1.936880
  0
VERTEX
  8
0
  6
CONTINUOUS
 10
5.220160
 20
1.833480
  0
VERTEX
  8
0
  6
CONTINUOUS
 10
5.192880
 20
1.726560
  0
VERTEX
  8
0
  6
CONTINUOUS
 10
4.761680
 20
1.726560
  0
VERTEX
  8
0
  6
CONTINUOUS
 10
4.761680
 20
2.243560
  0
VERTEX
  8
0
  6
CONTINUOUS
 10
6.614520
 20
4.089360
  0
SEQEND
  8
0
  0
POLYLINE
  8
0
  6
CONTINUOUS
 66
     1
 40
0.000000
 41
0.000000
  0
VERTEX
  8
0
  6
CONTINUOUS
 10
5.188480
 20
1.729640
  0
VERTEX
  8
0
  6
CONTINUOUS
 10
5.241720
 20
1.727000
  0
VERTEX
  8
0
  6
CONTINUOUS
 10
5.289680
 20
1.719080
  0
VERTEX
  8
0
  6
CONTINUOUS
 10
5.319160
 20
1.711160
  0
VERTEX
  8
0
  6
CONTINUOUS
 10
5.358760
 20
1.695760
  0
VERTEX
  8
0
  6
CONTINUOUS
 10
5.393520
 20
1.676400
  0
VERTEX
  8
0
  6
CONTINUOUS
 10
5.423000
 20
1.653960
  0
VERTEX
  8
0
  6
CONTINUOUS
 10
5.447640
 20
1.628440
  0
VERTEX
  8
0
  6
CONTINUOUS
 10
5.460840
 20
1.610400
  0
VERTEX
  8
0
  6
CONTINUOUS
 10
5.472280
 20
1.591040
  0
VERTEX
  8
0
  6
CONTINUOUS
 10
5.481080
 20
1.570800
  0
VERTEX
  8
0
  6
CONTINUOUS
 10
5.488120
 20
1.550120
  0
VERTEX
  8
0
  6
CONTINUOUS
 10
5.492520
 20
1.529000
  0
VERTEX
  8
0
  6
CONTINUOUS
 10
5.494720
 20
1.507440
  0
VERTEX
  8
0
  6
CONTINUOUS
 10
5.494720
 20
1.485880
  0
VERTEX
  8
0
  6
CONTINUOUS
 10
5.492520
 20
1.464320
  0
VERTEX
  8
0
  6
CONTINUOUS
 10
5.488120
 20
1.442760
  0
VERTEX
  8
0
  6
CONTINUOUS
 10
5.481520
 20
1.421200
  0
VERTEX
  8
0
  6
CONTINUOUS
 10
5.472720
 20
1.400080
  0
VERTEX
  8
0
  6
CONTINUOUS
 10
5.461720
 20
1.379400
  0
VERTEX
  8
0
  6
CONTINUOUS
 10
5.448080
 20
1.359600
  0
VERTEX
  8
0
  6
CONTINUOUS
 10
5.423880
 20
1.331440
  0
VERTEX
  8
0
  6
CONTINUOUS
 10
5.394400
 20
1.305480
  0
VERTEX
  8
0
  6
CONTINUOUS
 10
5.360080
 20
1.282160
  0
VERTEX
  8
0
  6
CONTINUOUS
 10
5.320480
 20
1.262360
  0
VERTEX
  8
0
  6
CONTINUOUS
 10
5.276040
 20
1.246080
  0
VERTEX
  8
0
  6
CONTINUOUS
 10
5.177480
 20
1.222320
  0
VERTEX
  8
0
  6
CONTINUOUS
 10
5.133920
 20
1.206480
  0
VERTEX
  8
0
  6
CONTINUOUS
 10
5.095640
 20
1.186680
  0
VERTEX
  8
0
  6
CONTINUOUS
 10
5.062200
 20
1.164240
  0
VERTEX
  8
0
  6
CONTINUOUS
 10
5.042400
 20
1.147520
  0
VERTEX
  8
0
  6
CONTINUOUS
 10
5.024360
 20
1.129480
  0
VERTEX
  8
0
  6
CONTINUOUS
 10
4.994000
 20
1.091640
  0
VERTEX
  8
0
  6
CONTINUOUS
 10
4.970240
 20
1.050720
  0
VERTEX
  8
0
  6
CONTINUOUS
 10
4.952200
 20
1.008920
  0
VERTEX
  8
0
  6
CONTINUOUS
 10
4.939440
 20
0.966240
  0
VERTEX
  8
0
  6
CONTINUOUS
 10
4.931080
 20
0.924880
  0
VERTEX
  8
0
  6
CONTINUOUS
 10
4.925800
 20
0.885280
  0
VERTEX
  8
0
  6
CONTINUOUS
 10
4.923600
 20
0.831600
  0
VERTEX
  8
0
  6
CONTINUOUS
 10
4.925800
 20
0.777920
  0
VERTEX
  8
0
  6
CONTINUOUS
 10
4.929320
 20
0.750200
  0
VERTEX
  8
0
  6
CONTINUOUS
 10
4.757720
 20
0.750200
  0
VERTEX
  8
0
  6
CONTINUOUS
 10
4.757720
 20
1.729640
  0
VERTEX
  8
0
  6
CONTINUOUS
 10
5.188480
 20
1.729640
  0
SEQEND
  8
0
  0
TEXT
  8
0
 10
4.953520
 20
2.037200
 40
0.138006
  1
A
 41
1.000000
  7
SN0
 71
     0
 72
     5
 11
5.064383
 21
2.037200
  0
TEXT
  8
0
 10
4.952200
 20
1.310760
 40
0.138006
  1
B
 41
1.000000
  7
SN0
 71
     0
 72
     5
 11
5.063063
 21
1.310760
  0
SOLID
  8
0
 62
    15
 10
2.873200
 20
3.907200
 11
3.510760
 21
3.546840
 12
2.741640
 22
3.840320
 13
3.379200
 23
3.479960
  0
POLYLINE
  8
0
  6
CONTINUOUS
 66
     1
 40
0.000000
 41
0.000000
  0
VERTEX
  8
0
  6
CONTINUOUS
 10
2.873200
 20
3.907200
  0
VERTEX
  8
0
  6
CONTINUOUS
 10
3.510760
 20
3.546840
  0
VERTEX
  8
0
  6
CONTINUOUS
 10
3.379200
 20
3.479960
  0
VERTEX
  8
0
  6
CONTINUOUS
 10
2.741640
 20
3.840320
  0
VERTEX
  8
0
  6
CONTINUOUS
 10
2.873200
 20
3.907200
  0
SEQEND
  8
0
  0
SOLID
  8
0
 62
    15
 10
3.677520
 20
4.593160
 11
4.315080
 21
4.232360
 12
3.663880
 22
4.528040
 13
4.301440
 23
4.167240
  0
POLYLINE
  8
0
  6
CONTINUOUS
 66
     1
 40
0.000000
 41
0.000000
  0
VERTEX
  8
0
  6
CONTINUOUS
 10
3.677520
 20
4.593160
  0
VERTEX
  8
0
  6
CONTINUOUS
 10
4.315080
 20
4.232360
  0
VERTEX
  8
0
  6
CONTINUOUS
 10
4.301440
 20
4.167240
  0
VERTEX
  8
0
  6
CONTINUOUS
 10
3.663880
 20
4.528040
  0
VERTEX
  8
0
  6
CONTINUOUS
 10
3.677520
 20
4.593160
  0
SEQEND
  8
0
  0
SOLID
  8
0
 62
    15
 10
3.663880
 20
4.528040
 11
4.301440
 21
4.167240
 12
3.637480
 22
4.465120
 13
4.275040
 23
4.104760
  0
POLYLINE
  8
0
  6
CONTINUOUS
 66
     1
 40
0.000000
 41
0.000000
  0
VERTEX
  8
0
  6
CONTINUOUS
 10
3.663880
 20
4.528040
  0
VERTEX
  8
0
  6
CONTINUOUS
 10
4.301440
 20
4.167240
  0
VERTEX
  8
0
  6
CONTINUOUS
 10
4.275040
 20
4.104760
  0
VERTEX
  8
0
  6
CONTINUOUS
 10
3.637480
 20
4.465120
  0
VERTEX
  8
0
  6
CONTINUOUS
 10
3.663880
 20
4.528040
  0
SEQEND
  8
0
  0
SOLID
  8
0
 62
    15
 10
3.637480
 20
4.465120
 11
4.275040
 21
4.104760
 12
3.598760
 22
4.407040
 13
4.236320
 23
4.046240
  0
POLYLINE
  8
0
  6
CONTINUOUS
 66
     1
 40
0.000000
 41
0.000000
  0
VERTEX
  8
0
  6
CONTINUOUS
 10
3.637480
 20
4.465120
  0
VERTEX
  8
0
  6
CONTINUOUS
 10
4.275040
 20
4.104760
  0
VERTEX
  8
0
  6
CONTINUOUS
 10
4.236320
 20
4.046240
  0
VERTEX
  8
0
  6
CONTINUOUS
 10
3.598760
 20
4.407040
  0
VERTEX
  8
0
  6
CONTINUOUS
 10
3.637480
 20
4.465120
  0
SEQEND
  8
0
  0
SOLID
  8
0
 62
    15
 10
3.598760
 20
4.407040
 11
4.236320
 21
4.046240
 12
3.547280
 22
4.355560
 13
4.184840
 23
3.994760
  0
POLYLINE
  8
0
  6
CONTINUOUS
 66
     1
 40
0.000000
 41
0.000000
  0
VERTEX
  8
0
  6
CONTINUOUS
 10
3.598760
 20
4.407040
  0
VERTEX
  8
0
  6
CONTINUOUS
 10
4.236320
 20
4.046240
  0
VERTEX
  8
0
  6
CONTINUOUS
 10
4.184840
 20
3.994760
  0
VERTEX
  8
0
  6
CONTINUOUS
 10
3.547280
 20
4.355560
  0
VERTEX
  8
0
  6
CONTINUOUS
 10
3.598760
 20
4.407040
  0
SEQEND
  8
0
  0
SOLID
  8
0
 62
    15
 10
3.547280
 20
4.355560
 11
4.184840
 21
3.994760
 12
3.483920
 22
4.312880
 13
4.121040
 23
3.952080
  0
POLYLINE
  8
0
  6
CONTINUOUS
 66
     1
 40
0.000000
 41
0.000000
  0
VERTEX
  8
0
  6
CONTINUOUS
 10
3.547280
 20
4.355560
  0
VERTEX
  8
0
  6
CONTINUOUS
 10
4.184840
 20
3.994760
  0
VERTEX
  8
0
  6
CONTINUOUS
 10
4.121040
 20
3.952080
  0
VERTEX
  8
0
  6
CONTINUOUS
 10
3.483920
 20
4.312880
  0
VERTEX
  8
0
  6
CONTINUOUS
 10
3.547280
 20
4.355560
  0
SEQEND
  8
0
  0
SOLID
  8
0
 62
    15
 10
3.483920
 20
4.312880
 11
4.121040
 21
3.952080
 12
3.407800
 22
4.281640
 13
4.045360
 23
3.920840
  0
POLYLINE
  8
0
  6
CONTINUOUS
 66
     1
 40
0.000000
 41
0.000000
  0
VERTEX
  8
0
  6
CONTINUOUS
 10
3.483920
 20
4.312880
  0
VERTEX
  8
0
  6
CONTINUOUS
 10
4.121040
 20
3.952080
  0
VERTEX
  8
0
  6
CONTINUOUS
 10
4.045360
 20
3.920840
  0
VERTEX
  8
0
  6
CONTINUOUS
 10
3.407800
 20
4.281640
  0
VERTEX
  8
0
  6
CONTINUOUS
 10
3.483920
 20
4.312880
  0
SEQEND
  8
0
  0
SOLID
  8
0
 62
    15
 10
3.407800
 20
4.281640
 11
4.045360
 21
3.920840
 12
3.319800
 22
4.263160
 13
3.956920
 23
3.902800
  0
POLYLINE
  8
0
  6
CONTINUOUS
 66
     1
 40
0.000000
 41
0.000000
  0
VERTEX
  8
0
  6
CONTINUOUS
 10
3.407800
 20
4.281640
  0
VERTEX
  8
0
  6
CONTINUOUS
 10
4.045360
 20
3.920840
  0
VERTEX
  8
0
  6
CONTINUOUS
 10
3.956920
 20
3.902800
  0
VERTEX
  8
0
  6
CONTINUOUS
 10
3.319800
 20
4.263160
  0
VERTEX
  8
0
  6
CONTINUOUS
 10
3.407800
 20
4.281640
  0
SEQEND
  8
0
  0
SOLID
  8
0
 62
    15
 10
3.319800
 20
4.263160
 11
3.956920
 21
3.902800
 12
3.319800
 22
4.076600
 13
3.956920
 23
3.715800
  0
POLYLINE
  8
0
  6
CONTINUOUS
 66
     1
 40
0.000000
 41
0.000000
  0
VERTEX
  8
0
  6
CONTINUOUS
 10
3.319800
 20
4.263160
  0
VERTEX
  8
0
  6
CONTINUOUS
 10
3.956920
 20
3.902800
  0
VERTEX
  8
0
  6
CONTINUOUS
 10
3.956920
 20
3.715800
  0
VERTEX
  8
0
  6
CONTINUOUS
 10
3.319800
 20
4.076600
  0
VERTEX
  8
0
  6
CONTINUOUS
 10
3.319800
 20
4.263160
  0
SEQEND
  8
0
  0
SOLID
  8
0
 62
    15
 10
3.319800
 20
4.076600
 11
3.956920
 21
3.715800
 12
3.223880
 22
4.048000
 13
3.861440
 23
3.687200
  0
POLYLINE
  8
0
  6
CONTINUOUS
 66
     1
 40
0.000000
 41
0.000000
  0
VERTEX
  8
0
  6
CONTINUOUS
 10
3.319800
 20
4.076600
  0
VERTEX
  8
0
  6
CONTINUOUS
 10
3.956920
 20
3.715800
  0
VERTEX
  8
0
  6
CONTINUOUS
 10
3.861440
 20
3.687200
  0
VERTEX
  8
0
  6
CONTINUOUS
 10
3.223880
 20
4.048000
  0
VERTEX
  8
0
  6
CONTINUOUS
 10
3.319800
 20
4.076600
  0
SEQEND
  8
0
  0
SOLID
  8
0
 62
    15
 10
3.223880
 20
4.048000
 11
3.861440
 21
3.687200
 12
3.116520
 22
4.010600
 13
3.753640
 23
3.649800
  0
POLYLINE
  8
0
  6
CONTINUOUS
 66
     1
 40
0.000000
 41
0.000000
  0
VERTEX
  8
0
  6
CONTINUOUS
 10
3.223880
 20
4.048000
  0
VERTEX
  8
0
  6
CONTINUOUS
 10
3.861440
 20
3.687200
  0
VERTEX
  8
0
  6
CONTINUOUS
 10
3.753640
 20
3.649800
  0
VERTEX
  8
0
  6
CONTINUOUS
 10
3.116520
 20
4.010600
  0
VERTEX
  8
0
  6
CONTINUOUS
 10
3.223880
 20
4.048000
  0
SEQEND
  8
0
  0
SOLID
  8
0
 62
    15
 10
3.116520
 20
4.010600
 11
3.753640
 21
3.649800
 12
2.998600
 22
3.963960
 13
3.636160
 23
3.603160
  0
POLYLINE
  8
0
  6
CONTINUOUS
 66
     1
 40
0.000000
 41
0.000000
  0
VERTEX
  8
0
  6
CONTINUOUS
 10
3.116520
 20
4.010600
  0
VERTEX
  8
0
  6
CONTINUOUS
 10
3.753640
 20
3.649800
  0
VERTEX
  8
0
  6
CONTINUOUS
 10
3.636160
 20
3.603160
  0
VERTEX
  8
0
  6
CONTINUOUS
 10
2.998600
 20
3.963960
  0
VERTEX
  8
0
  6
CONTINUOUS
 10
3.116520
 20
4.010600
  0
SEQEND
  8
0
  0
SOLID
  8
0
 62
    15
 10
2.998600
 20
3.963960
 11
3.636160
 21
3.603160
 12
2.873200
 22
3.907200
 13
3.510760
 23
3.546840
  0
POLYLINE
  8
0
  6
CONTINUOUS
 66
     1
 40
0.000000
 41
0.000000
  0
VERTEX
  8
0
  6
CONTINUOUS
 10
2.998600
 20
3.963960
  0
VERTEX
  8
0
  6
CONTINUOUS
 10
3.636160
 20
3.603160
  0
VERTEX
  8
0
  6
CONTINUOUS
 10
3.510760
 20
3.546840
  0
VERTEX
  8
0
  6
CONTINUOUS
 10
2.873200
 20
3.907200
  0
VERTEX
  8
0
  6
CONTINUOUS
 10
2.998600
 20
3.963960
  0
SEQEND
  8
0
  0
SOLID
  8
0
 62
    15
 10
3.678840
 20
4.658280
 11
4.316400
 21
4.297480
 12
3.677520
 22
4.593160
 13
4.315080
 23
4.232360
  0
POLYLINE
  8
0
  6
CONTINUOUS
 66
     1
 40
0.000000
 41
0.000000
  0
VERTEX
  8
0
  6
CONTINUOUS
 10
3.678840
 20
4.658280
  0
VERTEX
  8
0
  6
CONTINUOUS
 10
4.316400
 20
4.297480
  0
VERTEX
  8
0
  6
CONTINUOUS
 10
4.315080
 20
4.232360
  0
VERTEX
  8
0
  6
CONTINUOUS
 10
3.677520
 20
4.593160
  0
VERTEX
  8
0
  6
CONTINUOUS
 10
3.678840
 20
4.658280
  0
SEQEND
  8
0
  0
SOLID
  8
0
 62
    15
 10
2.741640
 20
3.840320
 11
3.379200
 21
3.479960
 12
2.606560
 22
3.762880
 13
3.244120
 23
3.402520
  0
POLYLINE
  8
0
  6
CONTINUOUS
 66
     1
 40
0.000000
 41
0.000000
  0
VERTEX
  8
0
  6
CONTINUOUS
 10
2.741640
 20
3.840320
  0
VERTEX
  8
0
  6
CONTINUOUS
 10
3.379200
 20
3.479960
  0
VERTEX
  8
0
  6
CONTINUOUS
 10
3.244120
 20
3.402520
  0
VERTEX
  8
0
  6
CONTINUOUS
 10
2.606560
 20
3.762880
  0
VERTEX
  8
0
  6
CONTINUOUS
 10
2.741640
 20
3.840320
  0
SEQEND
  8
0
  0
SOLID
  8
0
 62
    15
 10
2.606560
 20
3.762880
 11
3.244120
 21
3.402520
 12
2.469720
 22
3.674440
 13
3.107280
 23
3.313640
  0
POLYLINE
  8
0
  6
CONTINUOUS
 66
     1
 40
0.000000
 41
0.000000
  0
VERTEX
  8
0
  6
CONTINUOUS
 10
2.606560
 20
3.762880
  0
VERTEX
  8
0
  6
CONTINUOUS
 10
3.244120
 20
3.402520
  0
VERTEX
  8
0
  6
CONTINUOUS
 10
3.107280
 20
3.313640
  0
VERTEX
  8
0
  6
CONTINUOUS
 10
2.469720
 20
3.674440
  0
VERTEX
  8
0
  6
CONTINUOUS
 10
2.606560
 20
3.762880
  0
SEQEND
  8
0
  0
SOLID
  8
0
 62
    15
 10
2.469720
 20
3.674440
 11
3.107280
 21
3.313640
 12
2.332880
 22
3.573680
 13
2.970440
 23
3.213320
  0
POLYLINE
  8
0
  6
CONTINUOUS
 66
     1
 40
0.000000
 41
0.000000
  0
VERTEX
  8
0
  6
CONTINUOUS
 10
2.469720
 20
3.674440
  0
VERTEX
  8
0
  6
CONTINUOUS
 10
3.107280
 20
3.313640
  0
VERTEX
  8
0
  6
CONTINUOUS
 10
2.970440
 20
3.213320
  0
VERTEX
  8
0
  6
CONTINUOUS
 10
2.332880
 20
3.573680
  0
VERTEX
  8
0
  6
CONTINUOUS
 10
2.469720
 20
3.674440
  0
SEQEND
  8
0
  0
SOLID
  8
0
 62
    15
 10
2.332880
 20
3.573680
 11
2.970440
 21
3.213320
 12
2.199120
 22
3.461480
 13
2.836680
 23
3.100680
  0
POLYLINE
  8
0
  6
CONTINUOUS
 66
     1
 40
0.000000
 41
0.000000
  0
VERTEX
  8
0
  6
CONTINUOUS
 10
2.332880
 20
3.573680
  0
VERTEX
  8
0
  6
CONTINUOUS
 10
2.970440
 20
3.213320
  0
VERTEX
  8
0
  6
CONTINUOUS
 10
2.836680
 20
3.100680
  0
VERTEX
  8
0
  6
CONTINUOUS
 10
2.199120
 20
3.461480
  0
VERTEX
  8
0
  6
CONTINUOUS
 10
2.332880
 20
3.573680
  0
SEQEND
  8
0
  0
SOLID
  8
0
 62
    15
 10
2.199120
 20
3.461480
 11
2.836680
 21
3.100680
 12
2.069320
 22
3.336080
 13
2.706880
 23
2.975720
  0
POLYLINE
  8
0
  6
CONTINUOUS
 66
     1
 40
0.000000
 41
0.000000
  0
VERTEX
  8
0
  6
CONTINUOUS
 10
2.199120
 20
3.461480
  0
VERTEX
  8
0
  6
CONTINUOUS
 10
2.836680
 20
3.100680
  0
VERTEX
  8
0
  6
CONTINUOUS
 10
2.706880
 20
2.975720
  0
VERTEX
  8
0
  6
CONTINUOUS
 10
2.069320
 20
3.336080
  0
VERTEX
  8
0
  6
CONTINUOUS
 10
2.199120
 20
3.461480
  0
SEQEND
  8
0
  0
SOLID
  8
0
 62
    15
 10
2.069320
 20
3.336080
 11
2.706880
 21
2.975720
 12
1.946560
 22
3.197920
 13
2.583680
 23
2.837560
  0
POLYLINE
  8
0
  6
CONTINUOUS
 66
     1
 40
0.000000
 41
0.000000
  0
VERTEX
  8
0
  6
CONTINUOUS
 10
2.069320
 20
3.336080
  0
VERTEX
  8
0
  6
CONTINUOUS
 10
2.706880
 20
2.975720
  0
VERTEX
  8
0
  6
CONTINUOUS
 10
2.583680
 20
2.837560
  0
VERTEX
  8
0
  6
CONTINUOUS
 10
1.946560
 20
3.197920
  0
VERTEX
  8
0
  6
CONTINUOUS
 10
2.069320
 20
3.336080
  0
SEQEND
  8
0
  0
SOLID
  8
0
 62
    15
 10
1.946560
 20
3.197920
 11
2.583680
 21
2.837560
 12
1.832160
 22
3.046560
 13
2.469720
 23
2.685760
  0
POLYLINE
  8
0
  6
CONTINUOUS
 66
     1
 40
0.000000
 41
0.000000
  0
VERTEX
  8
0
  6
CONTINUOUS
 10
1.946560
 20
3.197920
  0
VERTEX
  8
0
  6
CONTINUOUS
 10
2.583680
 20
2.837560
  0
VERTEX
  8
0
  6
CONTINUOUS
 10
2.469720
 20
2.685760
  0
VERTEX
  8
0
  6
CONTINUOUS
 10
1.832160
 20
3.046560
  0
VERTEX
  8
0
  6
CONTINUOUS
 10
1.946560
 20
3.197920
  0
SEQEND
  8
0
  0
SOLID
  8
0
 62
    15
 10
1.832160
 20
3.046560
 11
2.469720
 21
2.685760
 12
1.728320
 22
2.880680
 13
2.365880
 23
2.520320
  0
POLYLINE
  8
0
  6
CONTINUOUS
 66
     1
 40
0.000000
 41
0.000000
  0
VERTEX
  8
0
  6
CONTINUOUS
 10
1.832160
 20
3.046560
  0
VERTEX
  8
0
  6
CONTINUOUS
 10
2.469720
 20
2.685760
  0
VERTEX
  8
0
  6
CONTINUOUS
 10
2.365880
 20
2.520320
  0
VERTEX
  8
0
  6
CONTINUOUS
 10
1.728320
 20
2.880680
  0
VERTEX
  8
0
  6
CONTINUOUS
 10
1.832160
 20
3.046560
  0
SEQEND
  8
0
  0
SOLID
  8
0
 62
    15
 10
1.728320
 20
2.880680
 11
2.365880
 21
2.520320
 12
1.637680
 22
2.700720
 13
2.275240
 23
2.340360
  0
POLYLINE
  8
0
  6
CONTINUOUS
 66
     1
 40
0.000000
 41
0.000000
  0
VERTEX
  8
0
  6
CONTINUOUS
 10
1.728320
 20
2.880680
  0
VERTEX
  8
0
  6
CONTINUOUS
 10
2.365880
 20
2.520320
  0
VERTEX
  8
0
  6
CONTINUOUS
 10
2.275240
 20
2.340360
  0
VERTEX
  8
0
  6
CONTINUOUS
 10
1.637680
 20
2.700720
  0
VERTEX
  8
0
  6
CONTINUOUS
 10
1.728320
 20
2.880680
  0
SEQEND
  8
0
  0
SOLID
  8
0
 62
    15
 10
1.637680
 20
2.700720
 11
2.275240
 21
2.340360
 12
1.561560
 22
2.505800
 13
2.199120
 23
2.145440
  0
POLYLINE
  8
0
  6
CONTINUOUS
 66
     1
 40
0.000000
 41
0.000000
  0
VERTEX
  8
0
  6
CONTINUOUS
 10
1.637680
 20
2.700720
  0
VERTEX
  8
0
  6
CONTINUOUS
 10
2.275240
 20
2.340360
  0
VERTEX
  8
0
  6
CONTINUOUS
 10
2.199120
 20
2.145440
  0
VERTEX
  8
0
  6
CONTINUOUS
 10
1.561560
 20
2.505800
  0
VERTEX
  8
0
  6
CONTINUOUS
 10
1.637680
 20
2.700720
  0
SEQEND
  8
0
  0
SOLID
  8
0
 62
    15
 10
1.561560
 20
2.505800
 11
2.199120
 21
2.145440
 12
1.502600
 22
2.295480
 13
2.140160
 23
1.935120
  0
POLYLINE
  8
0
  6
CONTINUOUS
 66
     1
 40
0.000000
 41
0.000000
  0
VERTEX
  8
0
  6
CONTINUOUS
 10
1.561560
 20
2.505800
  0
VERTEX
  8
0
  6
CONTINUOUS
 10
2.199120
 20
2.145440
  0
VERTEX
  8
0
  6
CONTINUOUS
 10
2.140160
 20
1.935120
  0
VERTEX
  8
0
  6
CONTINUOUS
 10
1.502600
 20
2.295480
  0
VERTEX
  8
0
  6
CONTINUOUS
 10
1.561560
 20
2.505800
  0
SEQEND
  8
0
  0
SOLID
  8
0
 62
    15
 10
1.502600
 20
2.295480
 11
2.140160
 21
1.935120
 12
1.071840
 22
2.295480
 13
1.709400
 23
1.935120
  0
POLYLINE
  8
0
  6
CONTINUOUS
 66
     1
 40
0.000000
 41
0.000000
  0
VERTEX
  8
0
  6
CONTINUOUS
 10
1.502600
 20
2.295480
  0
VERTEX
  8
0
  6
CONTINUOUS
 10
2.140160
 20
1.935120
  0
VERTEX
  8
0
  6
CONTINUOUS
 10
1.709400
 20
1.935120
  0
VERTEX
  8
0
  6
CONTINUOUS
 10
1.071840
 20
2.295480
  0
VERTEX
  8
0
  6
CONTINUOUS
 10
1.502600
 20
2.295480
  0
SEQEND
  8
0
  0
POLYLINE
  8
0
  6
CONTINUOUS
 66
     1
 40
0.000000
 41
0.000000
  0
VERTEX
  8
0
  6
CONTINUOUS
 10
2.924680
 20
4.658280
  0
VERTEX
  8
0
  6
CONTINUOUS
 10
3.678840
 20
4.658280
  0
VERTEX
  8
0
  6
CONTINUOUS
 10
3.677520
 20
4.593160
  0
VERTEX
  8
0
  6
CONTINUOUS
 10
3.663880
 20
4.528040
  0
VERTEX
  8
0
  6
CONTINUOUS
 10
3.637480
 20
4.465120
  0
VERTEX
  8
0
  6
CONTINUOUS
 10
3.598760
 20
4.407040
  0
VERTEX
  8
0
  6
CONTINUOUS
 10
3.547280
 20
4.355560
  0
VERTEX
  8
0
  6
CONTINUOUS
 10
3.483920
 20
4.312880
  0
VERTEX
  8
0
  6
CONTINUOUS
 10
3.407800
 20
4.281640
  0
VERTEX
  8
0
  6
CONTINUOUS
 10
3.319800
 20
4.263160
  0
VERTEX
  8
0
  6
CONTINUOUS
 10
3.319800
 20
4.076600
  0
VERTEX
  8
0
  6
CONTINUOUS
 10
3.223880
 20
4.048000
  0
VERTEX
  8
0
  6
CONTINUOUS
 10
3.116520
 20
4.010600
  0
VERTEX
  8
0
  6
CONTINUOUS
 10
2.998600
 20
3.963960
  0
VERTEX
  8
0
  6
CONTINUOUS
 10
2.873200
 20
3.907200
  0
VERTEX
  8
0
  6
CONTINUOUS
 10
2.741640
 20
3.840320
  0
VERTEX
  8
0
  6
CONTINUOUS
 10
2.606560
 20
3.762880
  0
VERTEX
  8
0
  6
CONTINUOUS
 10
2.469720
 20
3.674440
  0
VERTEX
  8
0
  6
CONTINUOUS
 10
2.332880
 20
3.573680
  0
VERTEX
  8
0
  6
CONTINUOUS
 10
2.199120
 20
3.461480
  0
VERTEX
  8
0
  6
CONTINUOUS
 10
2.069320
 20
3.336080
  0
VERTEX
  8
0
  6
CONTINUOUS
 10
1.946560
 20
3.197920
  0
VERTEX
  8
0
  6
CONTINUOUS
 10
1.832160
 20
3.046560
  0
VERTEX
  8
0
  6
CONTINUOUS
 10
1.728320
 20
2.880680
  0
VERTEX
  8
0
  6
CONTINUOUS
 10
1.637680
 20
2.700720
  0
VERTEX
  8
0
  6
CONTINUOUS
 10
1.561560
 20
2.505800
  0
VERTEX
  8
0
  6
CONTINUOUS
 10
1.502600
 20
2.295480
  0
VERTEX
  8
0
  6
CONTINUOUS
 10
1.071840
 20
2.295480
  0
VERTEX
  8
0
  6
CONTINUOUS
 10
1.071840
 20
2.812480
  0
VERTEX
  8
0
  6
CONTINUOUS
 10
2.924680
 20
4.658280
  0
SEQEND
  8
0
  0
SOLID
  8
0
 62
    15
 10
1.421640
 20
1.760880
 11
2.072400
 21
1.398760
 12
1.375880
 22
1.731400
 13
2.026640
 23
1.368840
  0
POLYLINE
  8
0
  6
CONTINUOUS
 66
     1
 40
0.000000
 41
0.000000
  0
VERTEX
  8
0
  6
CONTINUOUS
 10
1.421640
 20
1.760880
  0
VERTEX
  8
0
  6
CONTINUOUS
 10
2.072400
 20
1.398760
  0
VERTEX
  8
0
  6
CONTINUOUS
 10
2.026640
 20
1.368840
  0
VERTEX
  8
0
  6
CONTINUOUS
 10
1.375880
 20
1.731400
  0
VERTEX
  8
0
  6
CONTINUOUS
 10
1.421640
 20
1.760880
  0
SEQEND
  8
0
  0
SOLID
  8
0
 62
    15
 10
1.727880
 20
2.229040
 11
2.378640
 21
1.866920
 12
1.761320
 22
2.196040
 13
2.412520
 23
1.833480
  0
POLYLINE
  8
0
  6
CONTINUOUS
 66
     1
 40
0.000000
 41
0.000000
  0
VERTEX
  8
0
  6
CONTINUOUS
 10
1.727880
 20
2.229040
  0
VERTEX
  8
0
  6
CONTINUOUS
 10
2.378640
 20
1.866920
  0
VERTEX
  8
0
  6
CONTINUOUS
 10
2.412520
 20
1.833480
  0
VERTEX
  8
0
  6
CONTINUOUS
 10
1.761320
 20
2.196040
  0
VERTEX
  8
0
  6
CONTINUOUS
 10
1.727880
 20
2.229040
  0
SEQEND
  8
0
  0
SOLID
  8
0
 62
    15
 10
1.761320
 20
2.196040
 11
2.412520
 21
1.833480
 12
1.786400
 22
2.158200
 13
2.437160
 23
1.796080
  0
POLYLINE
  8
0
  6
CONTINUOUS
 66
     1
 40
0.000000
 41
0.000000
  0
VERTEX
  8
0
  6
CONTINUOUS
 10
1.761320
 20
2.196040
  0
VERTEX
  8
0
  6
CONTINUOUS
 10
2.412520
 20
1.833480
  0
VERTEX
  8
0
  6
CONTINUOUS
 10
2.437160
 20
1.796080
  0
VERTEX
  8
0
  6
CONTINUOUS
 10
1.786400
 20
2.158200
  0
VERTEX
  8
0
  6
CONTINUOUS
 10
1.761320
 20
2.196040
  0
SEQEND
  8
0
  0
SOLID
  8
0
 62
    15
 10
1.786400
 20
2.158200
 11
2.437160
 21
1.796080
 12
1.801800
 22
2.117720
 13
2.453000
 23
1.755160
  0
POLYLINE
  8
0
  6
CONTINUOUS
 66
     1
 40
0.000000
 41
0.000000
  0
VERTEX
  8
0
  6
CONTINUOUS
 10
1.786400
 20
2.158200
  0
VERTEX
  8
0
  6
CONTINUOUS
 10
2.437160
 20
1.796080
  0
VERTEX
  8
0
  6
CONTINUOUS
 10
2.453000
 20
1.755160
  0
VERTEX
  8
0
  6
CONTINUOUS
 10
1.801800
 20
2.117720
  0
VERTEX
  8
0
  6
CONTINUOUS
 10
1.786400
 20
2.158200
  0
SEQEND
  8
0
  0
SOLID
  8
0
 62
     7
 10
1.801800
 20
2.117720
 11
2.453000
 21
1.755160
 12
1.808840
 22
2.075040
 13
2.459600
 23
1.712480
  0
POLYLINE
  8
0
  6
CONTINUOUS
 66
     1
 40
0.000000
 41
0.000000
  0
VERTEX
  8
0
  6
CONTINUOUS
 10
1.801800
 20
2.117720
  0
VERTEX
  8
0
  6
CONTINUOUS
 10
2.453000
 20
1.755160
  0
VERTEX
  8
0
  6
CONTINUOUS
 10
2.459600
 20
1.712480
  0
VERTEX
  8
0
  6
CONTINUOUS
 10
1.808840
 20
2.075040
  0
VERTEX
  8
0
  6
CONTINUOUS
 10
1.801800
 20
2.117720
  0
SEQEND
  8
0
  0
SOLID
  8
0
 62
     7
 10
1.808840
 20
2.075040
 11
2.459600
 21
1.712480
 12
1.806640
 22
2.031480
 13
2.457400
 23
1.669360
  0
POLYLINE
  8
0
  6
CONTINUOUS
 66
     1
 40
0.000000
 41
0.000000
  0
VERTEX
  8
0
  6
CONTINUOUS
 10
1.808840
 20
2.075040
  0
VERTEX
  8
0
  6
CONTINUOUS
 10
2.459600
 20
1.712480
  0
VERTEX
  8
0
  6
CONTINUOUS
 10
2.457400
 20
1.669360
  0
VERTEX
  8
0
  6
CONTINUOUS
 10
1.806640
 20
2.031480
  0
VERTEX
  8
0
  6
CONTINUOUS
 10
1.808840
 20
2.075040
  0
SEQEND
  8
0
  0
SOLID
  8
0
 62
     7
 10
1.806640
 20
2.031480
 11
2.457400
 21
1.669360
 12
1.795640
 22
1.988360
 13
2.446400
 23
1.626240
  0
POLYLINE
  8
0
  6
CONTINUOUS
 66
     1
 40
0.000000
 41
0.000000
  0
VERTEX
  8
0
  6
CONTINUOUS
 10
1.806640
 20
2.031480
  0
VERTEX
  8
0
  6
CONTINUOUS
 10
2.457400
 20
1.669360
  0
VERTEX
  8
0
  6
CONTINUOUS
 10
2.446400
 20
1.626240
  0
VERTEX
  8
0
  6
CONTINUOUS
 10
1.795640
 20
1.988360
  0
VERTEX
  8
0
  6
CONTINUOUS
 10
1.806640
 20
2.031480
  0
SEQEND
  8
0
  0
SOLID
  8
0
 62
     7
 10
1.795640
 20
1.988360
 11
2.446400
 21
1.626240
 12
1.775400
 22
1.947000
 13
2.426160
 23
1.584440
  0
POLYLINE
  8
0
  6
CONTINUOUS
 66
     1
 40
0.000000
 41
0.000000
  0
VERTEX
  8
0
  6
CONTINUOUS
 10
1.795640
 20
1.988360
  0
VERTEX
  8
0
  6
CONTINUOUS
 10
2.446400
 20
1.626240
  0
VERTEX
  8
0
  6
CONTINUOUS
 10
2.426160
 20
1.584440
  0
VERTEX
  8
0
  6
CONTINUOUS
 10
1.775400
 20
1.947000
  0
VERTEX
  8
0
  6
CONTINUOUS
 10
1.795640
 20
1.988360
  0
SEQEND
  8
0
  0
SOLID
  8
0
 62
     7
 10
1.775400
 20
1.947000
 11
2.426160
 21
1.584440
 12
1.746360
 22
1.907840
 13
2.397120
 23
1.545720
  0
POLYLINE
  8
0
  6
CONTINUOUS
 66
     1
 40
0.000000
 41
0.000000
  0
VERTEX
  8
0
  6
CONTINUOUS
 10
1.775400
 20
1.947000
  0
VERTEX
  8
0
  6
CONTINUOUS
 10
2.426160
 20
1.584440
  0
VERTEX
  8
0
  6
CONTINUOUS
 10
2.397120
 20
1.545720
  0
VERTEX
  8
0
  6
CONTINUOUS
 10
1.746360
 20
1.907840
  0
VERTEX
  8
0
  6
CONTINUOUS
 10
1.775400
 20
1.947000
  0
SEQEND
  8
0
  0
SOLID
  8
0
 62
     7
 10
1.746360
 20
1.907840
 11
2.397120
 21
1.545720
 12
1.708520
 22
1.872640
 13
2.359280
 23
1.510520
  0
POLYLINE
  8
0
  6
CONTINUOUS
 66
     1
 40
0.000000
 41
0.000000
  0
VERTEX
  8
0
  6
CONTINUOUS
 10
1.746360
 20
1.907840
  0
VERTEX
  8
0
  6
CONTINUOUS
 10
2.397120
 20
1.545720
  0
VERTEX
  8
0
  6
CONTINUOUS
 10
2.359280
 20
1.510520
  0
VERTEX
  8
0
  6
CONTINUOUS
 10
1.708520
 20
1.872640
  0
VERTEX
  8
0
  6
CONTINUOUS
 10
1.746360
 20
1.907840
  0
SEQEND
  8
0
  0
SOLID
  8
0
 62
    15
 10
1.708520
 20
1.872640
 11
2.359280
 21
1.510520
 12
1.661440
 22
1.842280
 13
2.312200
 23
1.480160
  0
POLYLINE
  8
0
  6
CONTINUOUS
 66
     1
 40
0.000000
 41
0.000000
  0
VERTEX
  8
0
  6
CONTINUOUS
 10
1.708520
 20
1.872640
  0
VERTEX
  8
0
  6
CONTINUOUS
 10
2.359280
 20
1.510520
  0
VERTEX
  8
0
  6
CONTINUOUS
 10
2.312200
 20
1.480160
  0
VERTEX
  8
0
  6
CONTINUOUS
 10
1.661440
 20
1.842280
  0
VERTEX
  8
0
  6
CONTINUOUS
 10
1.708520
 20
1.872640
  0
SEQEND
  8
0
  0
SOLID
  8
0
 62
    15
 10
1.661440
 20
1.842280
 11
2.312200
 21
1.480160
 12
1.605560
 22
1.818520
 13
2.256320
 23
1.455960
  0
POLYLINE
  8
0
  6
CONTINUOUS
 66
     1
 40
0.000000
 41
0.000000
  0
VERTEX
  8
0
  6
CONTINUOUS
 10
1.661440
 20
1.842280
  0
VERTEX
  8
0
  6
CONTINUOUS
 10
2.312200
 20
1.480160
  0
VERTEX
  8
0
  6
CONTINUOUS
 10
2.256320
 20
1.455960
  0
VERTEX
  8
0
  6
CONTINUOUS
 10
1.605560
 20
1.818520
  0
VERTEX
  8
0
  6
CONTINUOUS
 10
1.661440
 20
1.842280
  0
SEQEND
  8
0
  0
SOLID
  8
0
 62
    15
 10
1.605560
 20
1.818520
 11
2.256320
 21
1.455960
 12
1.476200
 22
1.784640
 13
2.127400
 23
1.422520
  0
POLYLINE
  8
0
  6
CONTINUOUS
 66
     1
 40
0.000000
 41
0.000000
  0
VERTEX
  8
0
  6
CONTINUOUS
 10
1.605560
 20
1.818520
  0
VERTEX
  8
0
  6
CONTINUOUS
 10
2.256320
 20
1.455960
  0
VERTEX
  8
0
  6
CONTINUOUS
 10
2.127400
 20
1.422520
  0
VERTEX
  8
0
  6
CONTINUOUS
 10
1.476200
 20
1.784640
  0
VERTEX
  8
0
  6
CONTINUOUS
 10
1.605560
 20
1.818520
  0
SEQEND
  8
0
  0
SOLID
  8
0
 62
    15
 10
1.476200
 20
1.784640
 11
2.127400
 21
1.422520
 12
1.421640
 22
1.760880
 13
2.072400
 23
1.398760
  0
POLYLINE
  8
0
  6
CONTINUOUS
 66
     1
 40
0.000000
 41
0.000000
  0
VERTEX
  8
0
  6
CONTINUOUS
 10
1.476200
 20
1.784640
  0
VERTEX
  8
0
  6
CONTINUOUS
 10
2.127400
 20
1.422520
  0
VERTEX
  8
0
  6
CONTINUOUS
 10
2.072400
 20
1.398760
  0
VERTEX
  8
0
  6
CONTINUOUS
 10
1.421640
 20
1.760880
  0
VERTEX
  8
0
  6
CONTINUOUS
 10
1.476200
 20
1.784640
  0
SEQEND
  8
0
  0
SOLID
  8
0
 62
    15
 10
1.684760
 20
2.257200
 11
2.335960
 21
1.894640
 12
1.727880
 22
2.229040
 13
2.378640
 23
1.866920
  0
POLYLINE
  8
0
  6
CONTINUOUS
 66
     1
 40
0.000000
 41
0.000000
  0
VERTEX
  8
0
  6
CONTINUOUS
 10
1.684760
 20
2.257200
  0
VERTEX
  8
0
  6
CONTINUOUS
 10
2.335960
 20
1.894640
  0
VERTEX
  8
0
  6
CONTINUOUS
 10
2.378640
 20
1.866920
  0
VERTEX
  8
0
  6
CONTINUOUS
 10
1.727880
 20
2.229040
  0
VERTEX
  8
0
  6
CONTINUOUS
 10
1.684760
 20
2.257200
  0
SEQEND
  8
0
  0
SOLID
  8
0
 62
     7
 10
1.375880
 20
1.731400
 11
2.026640
 21
1.368840
 12
1.338040
 22
1.697080
 13
1.989240
 23
1.334520
  0
POLYLINE
  8
0
  6
CONTINUOUS
 66
     1
 40
0.000000
 41
0.000000
  0
VERTEX
  8
0
  6
CONTINUOUS
 10
1.375880
 20
1.731400
  0
VERTEX
  8
0
  6
CONTINUOUS
 10
2.026640
 20
1.368840
  0
VERTEX
  8
0
  6
CONTINUOUS
 10
1.989240
 20
1.334520
  0
VERTEX
  8
0
  6
CONTINUOUS
 10
1.338040
 20
1.697080
  0
VERTEX
  8
0
  6
CONTINUOUS
 10
1.375880
 20
1.731400
  0
SEQEND
  8
0
  0
SOLID
  8
0
 62
     7
 10
1.338040
 20
1.697080
 11
1.989240
 21
1.334520
 12
1.307680
 22
1.658800
 13
1.958880
 23
1.296680
  0
POLYLINE
  8
0
  6
CONTINUOUS
 66
     1
 40
0.000000
 41
0.000000
  0
VERTEX
  8
0
  6
CONTINUOUS
 10
1.338040
 20
1.697080
  0
VERTEX
  8
0
  6
CONTINUOUS
 10
1.989240
 20
1.334520
  0
VERTEX
  8
0
  6
CONTINUOUS
 10
1.958880
 20
1.296680
  0
VERTEX
  8
0
  6
CONTINUOUS
 10
1.307680
 20
1.658800
  0
VERTEX
  8
0
  6
CONTINUOUS
 10
1.338040
 20
1.697080
  0
SEQEND
  8
0
  0
SOLID
  8
0
 62
     7
 10
1.307680
 20
1.658800
 11
1.958880
 21
1.296680
 12
1.283920
 22
1.618320
 13
1.935120
 23
1.255760
  0
POLYLINE
  8
0
  6
CONTINUOUS
 66
     1
 40
0.000000
 41
0.000000
  0
VERTEX
  8
0
  6
CONTINUOUS
 10
1.307680
 20
1.658800
  0
VERTEX
  8
0
  6
CONTINUOUS
 10
1.958880
 20
1.296680
  0
VERTEX
  8
0
  6
CONTINUOUS
 10
1.935120
 20
1.255760
  0
VERTEX
  8
0
  6
CONTINUOUS
 10
1.283920
 20
1.618320
  0
VERTEX
  8
0
  6
CONTINUOUS
 10
1.307680
 20
1.658800
  0
SEQEND
  8
0
  0
SOLID
  8
0
 62
     7
 10
1.283920
 20
1.618320
 11
1.935120
 21
1.255760
 12
1.266320
 22
1.576080
 13
1.917080
 23
1.213960
  0
POLYLINE
  8
0
  6
CONTINUOUS
 66
     1
 40
0.000000
 41
0.000000
  0
VERTEX
  8
0
  6
CONTINUOUS
 10
1.283920
 20
1.618320
  0
VERTEX
  8
0
  6
CONTINUOUS
 10
1.935120
 20
1.255760
  0
VERTEX
  8
0
  6
CONTINUOUS
 10
1.917080
 20
1.213960
  0
VERTEX
  8
0
  6
CONTINUOUS
 10
1.266320
 20
1.576080
  0
VERTEX
  8
0
  6
CONTINUOUS
 10
1.283920
 20
1.618320
  0
SEQEND
  8
0
  0
SOLID
  8
0
 62
     7
 10
1.266320
 20
1.576080
 11
1.917080
 21
1.213960
 12
1.253120
 22
1.533840
 13
1.904320
 23
1.171280
  0
POLYLINE
  8
0
  6
CONTINUOUS
 66
     1
 40
0.000000
 41
0.000000
  0
VERTEX
  8
0
  6
CONTINUOUS
 10
1.266320
 20
1.576080
  0
VERTEX
  8
0
  6
CONTINUOUS
 10
1.917080
 20
1.213960
  0
VERTEX
  8
0
  6
CONTINUOUS
 10
1.904320
 20
1.171280
  0
VERTEX
  8
0
  6
CONTINUOUS
 10
1.253120
 20
1.533840
  0
VERTEX
  8
0
  6
CONTINUOUS
 10
1.266320
 20
1.576080
  0
SEQEND
  8
0
  0
SOLID
  8
0
 62
     7
 10
1.253120
 20
1.533840
 11
1.904320
 21
1.171280
 12
1.244760
 22
1.492040
 13
1.895520
 23
1.129920
  0
POLYLINE
  8
0
  6
CONTINUOUS
 66
     1
 40
0.000000
 41
0.000000
  0
VERTEX
  8
0
  6
CONTINUOUS
 10
1.253120
 20
1.533840
  0
VERTEX
  8
0
  6
CONTINUOUS
 10
1.904320
 20
1.171280
  0
VERTEX
  8
0
  6
CONTINUOUS
 10
1.895520
 20
1.129920
  0
VERTEX
  8
0
  6
CONTINUOUS
 10
1.244760
 20
1.492040
  0
VERTEX
  8
0
  6
CONTINUOUS
 10
1.253120
 20
1.533840
  0
SEQEND
  8
0
  0
SOLID
  8
0
 62
     7
 10
1.244760
 20
1.492040
 11
1.895520
 21
1.129920
 12
1.239920
 22
1.452440
 13
1.890680
 23
1.090320
  0
POLYLINE
  8
0
  6
CONTINUOUS
 66
     1
 40
0.000000
 41
0.000000
  0
VERTEX
  8
0
  6
CONTINUOUS
 10
1.244760
 20
1.492040
  0
VERTEX
  8
0
  6
CONTINUOUS
 10
1.895520
 20
1.129920
  0
VERTEX
  8
0
  6
CONTINUOUS
 10
1.890680
 20
1.090320
  0
VERTEX
  8
0
  6
CONTINUOUS
 10
1.239920
 20
1.452440
  0
VERTEX
  8
0
  6
CONTINUOUS
 10
1.244760
 20
1.492040
  0
SEQEND
  8
0
  0
SOLID
  8
0
 62
     7
 10
1.239920
 20
1.452440
 11
1.890680
 21
1.090320
 12
1.237720
 22
1.415920
 13
1.888480
 23
1.053360
  0
POLYLINE
  8
0
  6
CONTINUOUS
 66
     1
 40
0.000000
 41
0.000000
  0
VERTEX
  8
0
  6
CONTINUOUS
 10
1.239920
 20
1.452440
  0
VERTEX
  8
0
  6
CONTINUOUS
 10
1.890680
 20
1.090320
  0
VERTEX
  8
0
  6
CONTINUOUS
 10
1.888480
 20
1.053360
  0
VERTEX
  8
0
  6
CONTINUOUS
 10
1.237720
 20
1.415920
  0
VERTEX
  8
0
  6
CONTINUOUS
 10
1.239920
 20
1.452440
  0
SEQEND
  8
0
  0
SOLID
  8
0
 62
     7
 10
1.237720
 20
1.415920
 11
1.888480
 21
1.053360
 12
1.237720
 22
1.383360
 13
1.888480
 23
1.021240
  0
POLYLINE
  8
0
  6
CONTINUOUS
 66
     1
 40
0.000000
 41
0.000000
  0
VERTEX
  8
0
  6
CONTINUOUS
 10
1.237720
 20
1.415920
  0
VERTEX
  8
0
  6
CONTINUOUS
 10
1.888480
 20
1.053360
  0
VERTEX
  8
0
  6
CONTINUOUS
 10
1.888480
 20
1.021240
  0
VERTEX
  8
0
  6
CONTINUOUS
 10
1.237720
 20
1.383360
  0
VERTEX
  8
0
  6
CONTINUOUS
 10
1.237720
 20
1.415920
  0
SEQEND
  8
0
  0
SOLID
  8
0
 62
     7
 10
1.237720
 20
1.383360
 11
1.888480
 21
1.021240
 12
1.239040
 22
1.356080
 13
1.889800
 23
0.993960
  0
POLYLINE
  8
0
  6
CONTINUOUS
 66
     1
 40
0.000000
 41
0.000000
  0
VERTEX
  8
0
  6
CONTINUOUS
 10
1.237720
 20
1.383360
  0
VERTEX
  8
0
  6
CONTINUOUS
 10
1.888480
 20
1.021240
  0
VERTEX
  8
0
  6
CONTINUOUS
 10
1.889800
 20
0.993960
  0
VERTEX
  8
0
  6
CONTINUOUS
 10
1.239040
 20
1.356080
  0
VERTEX
  8
0
  6
CONTINUOUS
 10
1.237720
 20
1.383360
  0
SEQEND
  8
0
  0
SOLID
  8
0
 62
     7
 10
1.239040
 20
1.356080
 11
1.889800
 21
0.993960
 12
1.240800
 22
1.335400
 13
1.891560
 23
0.973280
  0
POLYLINE
  8
0
  6
CONTINUOUS
 66
     1
 40
0.000000
 41
0.000000
  0
VERTEX
  8
0
  6
CONTINUOUS
 10
1.239040
 20
1.356080
  0
VERTEX
  8
0
  6
CONTINUOUS
 10
1.889800
 20
0.993960
  0
VERTEX
  8
0
  6
CONTINUOUS
 10
1.891560
 20
0.973280
  0
VERTEX
  8
0
  6
CONTINUOUS
 10
1.240800
 20
1.335400
  0
VERTEX
  8
0
  6
CONTINUOUS
 10
1.239040
 20
1.356080
  0
SEQEND
  8
0
  0
SOLID
  8
0
 62
     7
 10
1.240800
 20
1.335400
 11
1.891560
 21
0.973280
 12
1.242560
 22
1.322200
 13
1.893320
 23
0.959640
  0
POLYLINE
  8
0
  6
CONTINUOUS
 66
     1
 40
0.000000
 41
0.000000
  0
VERTEX
  8
0
  6
CONTINUOUS
 10
1.240800
 20
1.335400
  0
VERTEX
  8
0
  6
CONTINUOUS
 10
1.891560
 20
0.973280
  0
VERTEX
  8
0
  6
CONTINUOUS
 10
1.893320
 20
0.959640
  0
VERTEX
  8
0
  6
CONTINUOUS
 10
1.242560
 20
1.322200
  0
VERTEX
  8
0
  6
CONTINUOUS
 10
1.240800
 20
1.335400
  0
SEQEND
  8
0
  0
SOLID
  8
0
 62
     7
 10
1.242560
 20
1.322200
 11
1.893320
 21
0.959640
 12
1.243440
 22
1.317360
 13
1.894200
 23
0.955240
  0
POLYLINE
  8
0
  6
CONTINUOUS
 66
     1
 40
0.000000
 41
0.000000
  0
VERTEX
  8
0
  6
CONTINUOUS
 10
1.242560
 20
1.322200
  0
VERTEX
  8
0
  6
CONTINUOUS
 10
1.893320
 20
0.959640
  0
VERTEX
  8
0
  6
CONTINUOUS
 10
1.894200
 20
0.955240
  0
VERTEX
  8
0
  6
CONTINUOUS
 10
1.243440
 20
1.317360
  0
VERTEX
  8
0
  6
CONTINUOUS
 10
1.242560
 20
1.322200
  0
SEQEND
  8
0
  0
SOLID
  8
0
 62
    15
 10
1.243440
 20
1.317360
 11
1.894200
 21
0.955240
 12
1.071840
 22
1.317360
 13
1.722600
 23
0.955240
  0
POLYLINE
  8
0
  6
CONTINUOUS
 66
     1
 40
0.000000
 41
0.000000
  0
VERTEX
  8
0
  6
CONTINUOUS
 10
1.243440
 20
1.317360
  0
VERTEX
  8
0
  6
CONTINUOUS
 10
1.894200
 20
0.955240
  0
VERTEX
  8
0
  6
CONTINUOUS
 10
1.722600
 20
0.955240
  0
VERTEX
  8
0
  6
CONTINUOUS
 10
1.071840
 20
1.317360
  0
VERTEX
  8
0
  6
CONTINUOUS
 10
1.243440
 20
1.317360
  0
SEQEND
  8
0
  0
POLYLINE
  8
0
  6
CONTINUOUS
 66
     1
 40
0.000000
 41
0.000000
  0
VERTEX
  8
0
  6
CONTINUOUS
 10
1.502600
 20
2.296800
  0
VERTEX
  8
0
  6
CONTINUOUS
 10
1.572120
 20
2.292400
  0
VERTEX
  8
0
  6
CONTINUOUS
 10
1.633280
 20
2.278320
  0
VERTEX
  8
0
  6
CONTINUOUS
 10
1.684760
 20
2.257200
  0
VERTEX
  8
0
  6
CONTINUOUS
 10
1.727880
 20
2.229040
  0
VERTEX
  8
0
  6
CONTINUOUS
 10
1.761320
 20
2.196040
  0
VERTEX
  8
0
  6
CONTINUOUS
 10
1.786400
 20
2.158200
  0
VERTEX
  8
0
  6
CONTINUOUS
 10
1.801800
 20
2.117720
  0
VERTEX
  8
0
  6
CONTINUOUS
 10
1.808840
 20
2.075040
  0
VERTEX
  8
0
  6
CONTINUOUS
 10
1.806640
 20
2.031480
  0
VERTEX
  8
0
  6
CONTINUOUS
 10
1.795640
 20
1.988360
  0
VERTEX
  8
0
  6
CONTINUOUS
 10
1.775400
 20
1.947000
  0
VERTEX
  8
0
  6
CONTINUOUS
 10
1.746360
 20
1.907840
  0
VERTEX
  8
0
  6
CONTINUOUS
 10
1.708520
 20
1.872640
  0
VERTEX
  8
0
  6
CONTINUOUS
 10
1.661440
 20
1.842280
  0
VERTEX
  8
0
  6
CONTINUOUS
 10
1.605560
 20
1.818520
  0
VERTEX
  8
0
  6
CONTINUOUS
 10
1.476200
 20
1.784640
  0
VERTEX
  8
0
  6
CONTINUOUS
 10
1.421640
 20
1.760880
  0
VERTEX
  8
0
  6
CONTINUOUS
 10
1.375880
 20
1.731400
  0
VERTEX
  8
0
  6
CONTINUOUS
 10
1.338040
 20
1.697080
  0
VERTEX
  8
0
  6
CONTINUOUS
 10
1.307680
 20
1.658800
  0
VERTEX
  8
0
  6
CONTINUOUS
 10
1.283920
 20
1.618320
  0
VERTEX
  8
0
  6
CONTINUOUS
 10
1.266320
 20
1.576080
  0
VERTEX
  8
0
  6
CONTINUOUS
 10
1.253120
 20
1.533840
  0
VERTEX
  8
0
  6
CONTINUOUS
 10
1.244760
 20
1.492040
  0
VERTEX
  8
0
  6
CONTINUOUS
 10
1.239920
 20
1.452440
  0
VERTEX
  8
0
  6
CONTINUOUS
 10
1.237720
 20
1.415920
  0
VERTEX
  8
0
  6
CONTINUOUS
 10
1.237720
 20
1.383360
  0
VERTEX
  8
0
  6
CONTINUOUS
 10
1.239040
 20
1.356080
  0
VERTEX
  8
0
  6
CONTINUOUS
 10
1.240800
 20
1.335400
  0
VERTEX
  8
0
  6
CONTINUOUS
 10
1.242560
 20
1.322200
  0
VERTEX
  8
0
  6
CONTINUOUS
 10
1.243440
 20
1.317360
  0
VERTEX
  8
0
  6
CONTINUOUS
 10
1.071840
 20
1.317360
  0
VERTEX
  8
0
  6
CONTINUOUS
 10
1.071840
 20
2.296800
  0
VERTEX
  8
0
  6
CONTINUOUS
 10
1.502600
 20
2.296800
  0
SEQEND
  8
0
  0
TEXT
  8
0
 10
2.339040
 20
1.343320
 40
0.138006
  1
            
 41
1.000000
  7
SN0
 71
     0
 72
     5
 11
2.894615
 21
1.343320
  0
TEXT
  8
0
 10
2.339040
 20
1.151480
 40
0.138006
  1
BA  910A 11/16" x 3-9/16"
 41
1.000000
  7
SN0
 71
     0
 72
     5
 11
4.263082
 21
1.151480
  0
TEXT
  8
0
 10
2.339040
 20
0.960080
 40
0.138006
  1
BA  910B 3/4" x 1"
 41
1.000000
  7
SN0
 71
     0
 72
     5
 11
3.700577
 21
0.960080
  0
TEXT
  8
0
 10
1.193720
 20
2.445080
 40
0.138006
  1
A
 41
1.000000
  7
SN0
 71
     0
 72
     5
 11
1.304583
 21
2.445080
  0
TEXT
  8
0
 10
1.193720
 20
2.031920
 40
0.138006
  1
B
 41
1.000000
  7
SN0
 71
     0
 72
     5
 11
1.304583
 21
2.031920
  0
ENDSEC
  0
EOF
