  0
SECTION
  2
HEADER
  9
$ACADVER
  1
AC1006
  9
$EXTMIN
 10
3.724600
 20
0.410080
  9
$EXTMAX
 10
7.314560
 20
3.516920
  9
$LTSCALE
 40
0.044000
  9
$PDMODE
 70
    35
  9
$PDSIZE
 40
0.035200
  0
ENDSEC
  0
SECTION
  2
TABLES
  0
TABLE
  2
LTYPE
 70
     9
  0
LTYPE
  2
CONTINUOUS
 70
    64
  3
Solid line
 72
    65
 73
     0
 40
0.000000
  0
LTYPE
  2
DASHED
 70
    64
  3
__ __ __ __ __ __ __ __ __ __ __ __ __ __ __
 72
    65
 73
     2
 40
0.000330
 49
0.000220
 49
-0.000110
  0
LTYPE
  2
HIDDEN
 70
    64
  3
 _ _ _ _ _ _ _ _ _ _ _ _ _ _ _ _ _ _ _ _ _ _
 72
    65
 73
     2
 40
0.000165
 49
0.000110
 49
-0.000055
  0
LTYPE
  2
CENTER
 70
    64
  3
____ _ ____ _ ____ _ ____ _ ____ _ ____ _ ____
 72
    65
 73
     4
 40
0.000880
 49
0.000550
 49
-0.000110
 49
0.000110
 49
-0.000110
  0
LTYPE
  2
PHANTOM
 70
    64
  3
_____ _ _ _____ _ _ _____ _ _ _____ _ _ ____
 72
    65
 73
     6
 40
0.001100
 49
0.000550
 49
-0.000110
 49
0.000110
 49
-0.000110
 49
0.000110
 49
-0.000110
  0
LTYPE
  2
DOT
 70
    64
  3
...............................................
 72
    65
 73
     2
 40
0.000110
 49
0.000000
 49
-0.000110
  0
LTYPE
  2
DASHDOT
 70
    64
  3
__ . __ . __ . __ . __ . __ . __ . __ . __ . __
 72
    65
 73
     4
 40
0.000440
 49
0.000220
 49
-0.000110
 49
0.000000
 49
-0.000110
  0
LTYPE
  2
BORDER
 70
    64
  3
__ __ . __ __ . __ __ . __ __ . __ __ . __ __
 72
    65
 73
     6
 40
0.000770
 49
0.000220
 49
-0.000110
 49
0.000220
 49
-0.000110
 49
0.000000
 49
-0.000110
  0
LTYPE
  2
DIVIDE
 70
    64
  3
__ . . __ . . __ . . __ . . __ . . __ . . __
 72
    65
 73
     6
 40
0.000550
 49
0.000220
 49
-0.000110
 49
0.000000
 49
-0.000110
 49
0.000000
 49
-0.000110
  0
LTYPE
  2
DOTDOT
 70
    64
  3
 . .  . .  . .  . .  . .  . . 
 72
    65
 73
     5
 40
0.000242
 49
-0.000110
 49
0.000000
 49
-0.000110
 49
0.000000
 49
-0.000110
  0
ENDTAB
  0
TABLE
  2
STYLE
 70
     2
  0
STYLE
 70
     0
  2
SN0
 40
0.000000
 41
0.000440
 50
0.000000
 71
     0
 42
0.000000
  3
ROMAND
  0
STYLE
 70
    68
  2
SV0
 40
0.000000
 41
0.000440
 50
0.000000
 71
     0
 42
0.000000
  3
ROMAND
  0
ENDTAB
  0
TABLE
  2
LAYER
 70
     3
  0
LAYER
  2
FOREGROUND
 70
    64
 62
     7
  6
CONTINUOUS
  0
LAYER
  2
BACKGROUND
 70
    65
 62
    -7
  6
CONTINUOUS
  0
LAYER
  2
0
 70
    64
 62
     7
  6
CONTINUOUS
  0
ENDTAB
  0
ENDSEC
  0
SECTION
  2
ENTITIES
  0
POLYLINE
  8
FOREGROUND
  6
CONTINUOUS
 66
     1
 40
0.000000
 41
0.000000
  0
VERTEX
  8
FOREGROUND
  6
CONTINUOUS
 10
0.000000
 20
3.927000
  0
VERTEX
  8
FOREGROUND
  6
CONTINUOUS
 10
8.499920
 20
3.927000
  0
VERTEX
  8
FOREGROUND
  6
CONTINUOUS
 10
8.499920
 20
-7.073000
  0
VERTEX
  8
FOREGROUND
  6
CONTINUOUS
 10
0.000000
 20
-7.073000
  0
VERTEX
  8
FOREGROUND
  6
CONTINUOUS
 10
0.000000
 20
3.927000
  0
SEQEND
  8
0
  0
POLYLINE
  8
FOREGROUND
  6
CONTINUOUS
 66
     1
 40
0.000000
 41
0.000000
  0
VERTEX
  8
FOREGROUND
  6
CONTINUOUS
 10
0.000000
 20
3.927000
  0
VERTEX
  8
FOREGROUND
  6
CONTINUOUS
 10
8.499920
 20
3.927000
  0
VERTEX
  8
FOREGROUND
  6
CONTINUOUS
 10
8.499920
 20
-7.073000
  0
VERTEX
  8
FOREGROUND
  6
CONTINUOUS
 10
0.000000
 20
-7.073000
  0
VERTEX
  8
FOREGROUND
  6
CONTINUOUS
 10
0.000000
 20
3.927000
  0
SEQEND
  8
0
  0
SOLID
  8
0
 62
    15
 10
5.533440
 20
1.535160
 11
5.533000
 21
2.274360
 12
5.538280
 22
1.534720
 13
5.537840
 23
2.273480
  0
POLYLINE
  8
0
  6
CONTINUOUS
 66
     1
 40
0.000000
 41
0.000000
  0
VERTEX
  8
0
  6
CONTINUOUS
 10
5.533440
 20
1.535160
  0
VERTEX
  8
0
  6
CONTINUOUS
 10
5.533000
 20
2.274360
  0
VERTEX
  8
0
  6
CONTINUOUS
 10
5.537840
 20
2.273480
  0
VERTEX
  8
0
  6
CONTINUOUS
 10
5.538280
 20
1.534720
  0
VERTEX
  8
0
  6
CONTINUOUS
 10
5.533440
 20
1.535160
  0
SEQEND
  8
0
  0
SOLID
  8
0
 62
    15
 10
3.779160
 20
0.862840
 11
3.778720
 21
1.601600
 12
3.779160
 22
1.611720
 13
3.778720
 23
2.350920
  0
POLYLINE
  8
0
  6
CONTINUOUS
 66
     1
 40
0.000000
 41
0.000000
  0
VERTEX
  8
0
  6
CONTINUOUS
 10
3.779160
 20
0.862840
  0
VERTEX
  8
0
  6
CONTINUOUS
 10
3.778720
 20
1.601600
  0
VERTEX
  8
0
  6
CONTINUOUS
 10
3.778720
 20
2.350920
  0
VERTEX
  8
0
  6
CONTINUOUS
 10
3.779160
 20
1.611720
  0
VERTEX
  8
0
  6
CONTINUOUS
 10
3.779160
 20
0.862840
  0
SEQEND
  8
0
  0
SOLID
  8
0
 62
    15
 10
4.358640
 20
1.611720
 11
4.358200
 21
2.350920
 12
4.369200
 22
1.474440
 13
4.368760
 23
2.213640
  0
POLYLINE
  8
0
  6
CONTINUOUS
 66
     1
 40
0.000000
 41
0.000000
  0
VERTEX
  8
0
  6
CONTINUOUS
 10
4.358640
 20
1.611720
  0
VERTEX
  8
0
  6
CONTINUOUS
 10
4.358200
 20
2.350920
  0
VERTEX
  8
0
  6
CONTINUOUS
 10
4.368760
 20
2.213640
  0
VERTEX
  8
0
  6
CONTINUOUS
 10
4.369200
 20
1.474440
  0
VERTEX
  8
0
  6
CONTINUOUS
 10
4.358640
 20
1.611720
  0
SEQEND
  8
0
  0
SOLID
  8
0
 62
    15
 10
4.369200
 20
1.474440
 11
4.368760
 21
2.213640
 12
4.383720
 22
1.496000
 13
4.383280
 23
2.235200
  0
POLYLINE
  8
0
  6
CONTINUOUS
 66
     1
 40
0.000000
 41
0.000000
  0
VERTEX
  8
0
  6
CONTINUOUS
 10
4.369200
 20
1.474440
  0
VERTEX
  8
0
  6
CONTINUOUS
 10
4.368760
 20
2.213640
  0
VERTEX
  8
0
  6
CONTINUOUS
 10
4.383280
 20
2.235200
  0
VERTEX
  8
0
  6
CONTINUOUS
 10
4.383720
 20
1.496000
  0
VERTEX
  8
0
  6
CONTINUOUS
 10
4.369200
 20
1.474440
  0
SEQEND
  8
0
  0
SOLID
  8
0
 62
    15
 10
4.383720
 20
1.496000
 11
4.383280
 21
2.235200
 12
4.400000
 22
1.514920
 13
4.400000
 23
2.254120
  0
POLYLINE
  8
0
  6
CONTINUOUS
 66
     1
 40
0.000000
 41
0.000000
  0
VERTEX
  8
0
  6
CONTINUOUS
 10
4.383720
 20
1.496000
  0
VERTEX
  8
0
  6
CONTINUOUS
 10
4.383280
 20
2.235200
  0
VERTEX
  8
0
  6
CONTINUOUS
 10
4.400000
 20
2.254120
  0
VERTEX
  8
0
  6
CONTINUOUS
 10
4.400000
 20
1.514920
  0
VERTEX
  8
0
  6
CONTINUOUS
 10
4.383720
 20
1.496000
  0
SEQEND
  8
0
  0
SOLID
  8
0
 62
    15
 10
4.400000
 20
1.514920
 11
4.400000
 21
2.254120
 12
4.438720
 22
1.544400
 13
4.438280
 23
2.283160
  0
POLYLINE
  8
0
  6
CONTINUOUS
 66
     1
 40
0.000000
 41
0.000000
  0
VERTEX
  8
0
  6
CONTINUOUS
 10
4.400000
 20
1.514920
  0
VERTEX
  8
0
  6
CONTINUOUS
 10
4.400000
 20
2.254120
  0
VERTEX
  8
0
  6
CONTINUOUS
 10
4.438280
 20
2.283160
  0
VERTEX
  8
0
  6
CONTINUOUS
 10
4.438720
 20
1.544400
  0
VERTEX
  8
0
  6
CONTINUOUS
 10
4.400000
 20
1.514920
  0
SEQEND
  8
0
  0
SOLID
  8
0
 62
    15
 10
4.438720
 20
1.544400
 11
4.438280
 21
2.283160
 12
4.481840
 22
1.562000
 13
4.481400
 23
2.301200
  0
POLYLINE
  8
0
  6
CONTINUOUS
 66
     1
 40
0.000000
 41
0.000000
  0
VERTEX
  8
0
  6
CONTINUOUS
 10
4.438720
 20
1.544400
  0
VERTEX
  8
0
  6
CONTINUOUS
 10
4.438280
 20
2.283160
  0
VERTEX
  8
0
  6
CONTINUOUS
 10
4.481400
 20
2.301200
  0
VERTEX
  8
0
  6
CONTINUOUS
 10
4.481840
 20
1.562000
  0
VERTEX
  8
0
  6
CONTINUOUS
 10
4.438720
 20
1.544400
  0
SEQEND
  8
0
  0
SOLID
  8
0
 62
    15
 10
4.481840
 20
1.562000
 11
4.481400
 21
2.301200
 12
4.528040
 22
1.568600
 13
4.527600
 23
2.307360
  0
POLYLINE
  8
0
  6
CONTINUOUS
 66
     1
 40
0.000000
 41
0.000000
  0
VERTEX
  8
0
  6
CONTINUOUS
 10
4.481840
 20
1.562000
  0
VERTEX
  8
0
  6
CONTINUOUS
 10
4.481400
 20
2.301200
  0
VERTEX
  8
0
  6
CONTINUOUS
 10
4.527600
 20
2.307360
  0
VERTEX
  8
0
  6
CONTINUOUS
 10
4.528040
 20
1.568600
  0
VERTEX
  8
0
  6
CONTINUOUS
 10
4.481840
 20
1.562000
  0
SEQEND
  8
0
  0
SOLID
  8
0
 62
    15
 10
4.528040
 20
1.568600
 11
4.527600
 21
2.307360
 12
4.574680
 22
1.563320
 13
4.574240
 23
2.302520
  0
POLYLINE
  8
0
  6
CONTINUOUS
 66
     1
 40
0.000000
 41
0.000000
  0
VERTEX
  8
0
  6
CONTINUOUS
 10
4.528040
 20
1.568600
  0
VERTEX
  8
0
  6
CONTINUOUS
 10
4.527600
 20
2.307360
  0
VERTEX
  8
0
  6
CONTINUOUS
 10
4.574240
 20
2.302520
  0
VERTEX
  8
0
  6
CONTINUOUS
 10
4.574680
 20
1.563320
  0
VERTEX
  8
0
  6
CONTINUOUS
 10
4.528040
 20
1.568600
  0
SEQEND
  8
0
  0
SOLID
  8
0
 62
    15
 10
4.574680
 20
1.563320
 11
4.574240
 21
2.302520
 12
4.619560
 22
1.547480
 13
4.619120
 23
2.286680
  0
POLYLINE
  8
0
  6
CONTINUOUS
 66
     1
 40
0.000000
 41
0.000000
  0
VERTEX
  8
0
  6
CONTINUOUS
 10
4.574680
 20
1.563320
  0
VERTEX
  8
0
  6
CONTINUOUS
 10
4.574240
 20
2.302520
  0
VERTEX
  8
0
  6
CONTINUOUS
 10
4.619120
 20
2.286680
  0
VERTEX
  8
0
  6
CONTINUOUS
 10
4.619560
 20
1.547480
  0
VERTEX
  8
0
  6
CONTINUOUS
 10
4.574680
 20
1.563320
  0
SEQEND
  8
0
  0
SOLID
  8
0
 62
    15
 10
4.619560
 20
1.547480
 11
4.619120
 21
2.286680
 12
4.660920
 22
1.520200
 13
4.660480
 23
2.259400
  0
POLYLINE
  8
0
  6
CONTINUOUS
 66
     1
 40
0.000000
 41
0.000000
  0
VERTEX
  8
0
  6
CONTINUOUS
 10
4.619560
 20
1.547480
  0
VERTEX
  8
0
  6
CONTINUOUS
 10
4.619120
 20
2.286680
  0
VERTEX
  8
0
  6
CONTINUOUS
 10
4.660480
 20
2.259400
  0
VERTEX
  8
0
  6
CONTINUOUS
 10
4.660920
 20
1.520200
  0
VERTEX
  8
0
  6
CONTINUOUS
 10
4.619560
 20
1.547480
  0
SEQEND
  8
0
  0
SOLID
  8
0
 62
    15
 10
4.660920
 20
1.520200
 11
4.660480
 21
2.259400
 12
4.696560
 22
1.482360
 13
4.696120
 23
2.221560
  0
POLYLINE
  8
0
  6
CONTINUOUS
 66
     1
 40
0.000000
 41
0.000000
  0
VERTEX
  8
0
  6
CONTINUOUS
 10
4.660920
 20
1.520200
  0
VERTEX
  8
0
  6
CONTINUOUS
 10
4.660480
 20
2.259400
  0
VERTEX
  8
0
  6
CONTINUOUS
 10
4.696120
 20
2.221560
  0
VERTEX
  8
0
  6
CONTINUOUS
 10
4.696560
 20
1.482360
  0
VERTEX
  8
0
  6
CONTINUOUS
 10
4.660920
 20
1.520200
  0
SEQEND
  8
0
  0
SOLID
  8
0
 62
    15
 10
4.696560
 20
1.482360
 11
4.696120
 21
2.221560
 12
4.726040
 22
1.516240
 13
4.725600
 23
2.255440
  0
POLYLINE
  8
0
  6
CONTINUOUS
 66
     1
 40
0.000000
 41
0.000000
  0
VERTEX
  8
0
  6
CONTINUOUS
 10
4.696560
 20
1.482360
  0
VERTEX
  8
0
  6
CONTINUOUS
 10
4.696120
 20
2.221560
  0
VERTEX
  8
0
  6
CONTINUOUS
 10
4.725600
 20
2.255440
  0
VERTEX
  8
0
  6
CONTINUOUS
 10
4.726040
 20
1.516240
  0
VERTEX
  8
0
  6
CONTINUOUS
 10
4.696560
 20
1.482360
  0
SEQEND
  8
0
  0
SOLID
  8
0
 62
    15
 10
4.726040
 20
1.516240
 11
4.725600
 21
2.255440
 12
4.759480
 22
1.543960
 13
4.759040
 23
2.283160
  0
POLYLINE
  8
0
  6
CONTINUOUS
 66
     1
 40
0.000000
 41
0.000000
  0
VERTEX
  8
0
  6
CONTINUOUS
 10
4.726040
 20
1.516240
  0
VERTEX
  8
0
  6
CONTINUOUS
 10
4.725600
 20
2.255440
  0
VERTEX
  8
0
  6
CONTINUOUS
 10
4.759040
 20
2.283160
  0
VERTEX
  8
0
  6
CONTINUOUS
 10
4.759480
 20
1.543960
  0
VERTEX
  8
0
  6
CONTINUOUS
 10
4.726040
 20
1.516240
  0
SEQEND
  8
0
  0
SOLID
  8
0
 62
    15
 10
4.759480
 20
1.543960
 11
4.759040
 21
2.283160
 12
4.796440
 22
1.563760
 13
4.796000
 23
2.302960
  0
POLYLINE
  8
0
  6
CONTINUOUS
 66
     1
 40
0.000000
 41
0.000000
  0
VERTEX
  8
0
  6
CONTINUOUS
 10
4.759480
 20
1.543960
  0
VERTEX
  8
0
  6
CONTINUOUS
 10
4.759040
 20
2.283160
  0
VERTEX
  8
0
  6
CONTINUOUS
 10
4.796000
 20
2.302960
  0
VERTEX
  8
0
  6
CONTINUOUS
 10
4.796440
 20
1.563760
  0
VERTEX
  8
0
  6
CONTINUOUS
 10
4.759480
 20
1.543960
  0
SEQEND
  8
0
  0
SOLID
  8
0
 62
    15
 10
4.796440
 20
1.563760
 11
4.796000
 21
2.302960
 12
4.835600
 22
1.573880
 13
4.835160
 23
2.313080
  0
POLYLINE
  8
0
  6
CONTINUOUS
 66
     1
 40
0.000000
 41
0.000000
  0
VERTEX
  8
0
  6
CONTINUOUS
 10
4.796440
 20
1.563760
  0
VERTEX
  8
0
  6
CONTINUOUS
 10
4.796000
 20
2.302960
  0
VERTEX
  8
0
  6
CONTINUOUS
 10
4.835160
 20
2.313080
  0
VERTEX
  8
0
  6
CONTINUOUS
 10
4.835600
 20
1.573880
  0
VERTEX
  8
0
  6
CONTINUOUS
 10
4.796440
 20
1.563760
  0
SEQEND
  8
0
  0
SOLID
  8
0
 62
    15
 10
4.835600
 20
1.573880
 11
4.835160
 21
2.313080
 12
4.876520
 22
1.573000
 13
4.876520
 23
2.312200
  0
POLYLINE
  8
0
  6
CONTINUOUS
 66
     1
 40
0.000000
 41
0.000000
  0
VERTEX
  8
0
  6
CONTINUOUS
 10
4.835600
 20
1.573880
  0
VERTEX
  8
0
  6
CONTINUOUS
 10
4.835160
 20
2.313080
  0
VERTEX
  8
0
  6
CONTINUOUS
 10
4.876520
 20
2.312200
  0
VERTEX
  8
0
  6
CONTINUOUS
 10
4.876520
 20
1.573000
  0
VERTEX
  8
0
  6
CONTINUOUS
 10
4.835600
 20
1.573880
  0
SEQEND
  8
0
  0
SOLID
  8
0
 62
    15
 10
4.876520
 20
1.573000
 11
4.876520
 21
2.312200
 12
4.919640
 22
1.559360
 13
4.919200
 23
2.298560
  0
POLYLINE
  8
0
  6
CONTINUOUS
 66
     1
 40
0.000000
 41
0.000000
  0
VERTEX
  8
0
  6
CONTINUOUS
 10
4.876520
 20
1.573000
  0
VERTEX
  8
0
  6
CONTINUOUS
 10
4.876520
 20
2.312200
  0
VERTEX
  8
0
  6
CONTINUOUS
 10
4.919200
 20
2.298560
  0
VERTEX
  8
0
  6
CONTINUOUS
 10
4.919640
 20
1.559360
  0
VERTEX
  8
0
  6
CONTINUOUS
 10
4.876520
 20
1.573000
  0
SEQEND
  8
0
  0
SOLID
  8
0
 62
    15
 10
4.919640
 20
1.559360
 11
4.919200
 21
2.298560
 12
4.941640
 22
1.547480
 13
4.941200
 23
2.286680
  0
POLYLINE
  8
0
  6
CONTINUOUS
 66
     1
 40
0.000000
 41
0.000000
  0
VERTEX
  8
0
  6
CONTINUOUS
 10
4.919640
 20
1.559360
  0
VERTEX
  8
0
  6
CONTINUOUS
 10
4.919200
 20
2.298560
  0
VERTEX
  8
0
  6
CONTINUOUS
 10
4.941200
 20
2.286680
  0
VERTEX
  8
0
  6
CONTINUOUS
 10
4.941640
 20
1.547480
  0
VERTEX
  8
0
  6
CONTINUOUS
 10
4.919640
 20
1.559360
  0
SEQEND
  8
0
  0
SOLID
  8
0
 62
    15
 10
4.941640
 20
1.547480
 11
4.941200
 21
2.286680
 12
4.963640
 22
1.531640
 13
4.963200
 23
2.270840
  0
POLYLINE
  8
0
  6
CONTINUOUS
 66
     1
 40
0.000000
 41
0.000000
  0
VERTEX
  8
0
  6
CONTINUOUS
 10
4.941640
 20
1.547480
  0
VERTEX
  8
0
  6
CONTINUOUS
 10
4.941200
 20
2.286680
  0
VERTEX
  8
0
  6
CONTINUOUS
 10
4.963200
 20
2.270840
  0
VERTEX
  8
0
  6
CONTINUOUS
 10
4.963640
 20
1.531640
  0
VERTEX
  8
0
  6
CONTINUOUS
 10
4.941640
 20
1.547480
  0
SEQEND
  8
0
  0
SOLID
  8
0
 62
    15
 10
4.963640
 20
1.531640
 11
4.963200
 21
2.270840
 12
4.985640
 22
1.511840
 13
4.985200
 23
2.250600
  0
POLYLINE
  8
0
  6
CONTINUOUS
 66
     1
 40
0.000000
 41
0.000000
  0
VERTEX
  8
0
  6
CONTINUOUS
 10
4.963640
 20
1.531640
  0
VERTEX
  8
0
  6
CONTINUOUS
 10
4.963200
 20
2.270840
  0
VERTEX
  8
0
  6
CONTINUOUS
 10
4.985200
 20
2.250600
  0
VERTEX
  8
0
  6
CONTINUOUS
 10
4.985640
 20
1.511840
  0
VERTEX
  8
0
  6
CONTINUOUS
 10
4.963640
 20
1.531640
  0
SEQEND
  8
0
  0
SOLID
  8
0
 62
    15
 10
4.985640
 20
1.511840
 11
4.985200
 21
2.250600
 12
5.008080
 22
1.487640
 13
5.007640
 23
2.226840
  0
POLYLINE
  8
0
  6
CONTINUOUS
 66
     1
 40
0.000000
 41
0.000000
  0
VERTEX
  8
0
  6
CONTINUOUS
 10
4.985640
 20
1.511840
  0
VERTEX
  8
0
  6
CONTINUOUS
 10
4.985200
 20
2.250600
  0
VERTEX
  8
0
  6
CONTINUOUS
 10
5.007640
 20
2.226840
  0
VERTEX
  8
0
  6
CONTINUOUS
 10
5.008080
 20
1.487640
  0
VERTEX
  8
0
  6
CONTINUOUS
 10
4.985640
 20
1.511840
  0
SEQEND
  8
0
  0
SOLID
  8
0
 62
    15
 10
5.008080
 20
1.487640
 11
5.007640
 21
2.226840
 12
5.053840
 22
1.441880
 13
5.053400
 23
2.181080
  0
POLYLINE
  8
0
  6
CONTINUOUS
 66
     1
 40
0.000000
 41
0.000000
  0
VERTEX
  8
0
  6
CONTINUOUS
 10
5.008080
 20
1.487640
  0
VERTEX
  8
0
  6
CONTINUOUS
 10
5.007640
 20
2.226840
  0
VERTEX
  8
0
  6
CONTINUOUS
 10
5.053400
 20
2.181080
  0
VERTEX
  8
0
  6
CONTINUOUS
 10
5.053840
 20
1.441880
  0
VERTEX
  8
0
  6
CONTINUOUS
 10
5.008080
 20
1.487640
  0
SEQEND
  8
0
  0
SOLID
  8
0
 62
    15
 10
5.053840
 20
1.441880
 11
5.053400
 21
2.181080
 12
5.100480
 22
1.408880
 13
5.100040
 23
2.147640
  0
POLYLINE
  8
0
  6
CONTINUOUS
 66
     1
 40
0.000000
 41
0.000000
  0
VERTEX
  8
0
  6
CONTINUOUS
 10
5.053840
 20
1.441880
  0
VERTEX
  8
0
  6
CONTINUOUS
 10
5.053400
 20
2.181080
  0
VERTEX
  8
0
  6
CONTINUOUS
 10
5.100040
 20
2.147640
  0
VERTEX
  8
0
  6
CONTINUOUS
 10
5.100480
 20
1.408880
  0
VERTEX
  8
0
  6
CONTINUOUS
 10
5.053840
 20
1.441880
  0
SEQEND
  8
0
  0
SOLID
  8
0
 62
    15
 10
5.100480
 20
1.408880
 11
5.100040
 21
2.147640
 12
5.145360
 22
1.386000
 13
5.144920
 23
2.125200
  0
POLYLINE
  8
0
  6
CONTINUOUS
 66
     1
 40
0.000000
 41
0.000000
  0
VERTEX
  8
0
  6
CONTINUOUS
 10
5.100480
 20
1.408880
  0
VERTEX
  8
0
  6
CONTINUOUS
 10
5.100040
 20
2.147640
  0
VERTEX
  8
0
  6
CONTINUOUS
 10
5.144920
 20
2.125200
  0
VERTEX
  8
0
  6
CONTINUOUS
 10
5.145360
 20
1.386000
  0
VERTEX
  8
0
  6
CONTINUOUS
 10
5.100480
 20
1.408880
  0
SEQEND
  8
0
  0
SOLID
  8
0
 62
    15
 10
5.145360
 20
1.386000
 11
5.144920
 21
2.125200
 12
5.187160
 22
1.371480
 13
5.186720
 23
2.110680
  0
POLYLINE
  8
0
  6
CONTINUOUS
 66
     1
 40
0.000000
 41
0.000000
  0
VERTEX
  8
0
  6
CONTINUOUS
 10
5.145360
 20
1.386000
  0
VERTEX
  8
0
  6
CONTINUOUS
 10
5.144920
 20
2.125200
  0
VERTEX
  8
0
  6
CONTINUOUS
 10
5.186720
 20
2.110680
  0
VERTEX
  8
0
  6
CONTINUOUS
 10
5.187160
 20
1.371480
  0
VERTEX
  8
0
  6
CONTINUOUS
 10
5.145360
 20
1.386000
  0
SEQEND
  8
0
  0
SOLID
  8
0
 62
    15
 10
5.187160
 20
1.371480
 11
5.186720
 21
2.110680
 12
5.223680
 22
1.364000
 13
5.223240
 23
2.103200
  0
POLYLINE
  8
0
  6
CONTINUOUS
 66
     1
 40
0.000000
 41
0.000000
  0
VERTEX
  8
0
  6
CONTINUOUS
 10
5.187160
 20
1.371480
  0
VERTEX
  8
0
  6
CONTINUOUS
 10
5.186720
 20
2.110680
  0
VERTEX
  8
0
  6
CONTINUOUS
 10
5.223240
 20
2.103200
  0
VERTEX
  8
0
  6
CONTINUOUS
 10
5.223680
 20
1.364000
  0
VERTEX
  8
0
  6
CONTINUOUS
 10
5.187160
 20
1.371480
  0
SEQEND
  8
0
  0
SOLID
  8
0
 62
    15
 10
5.223680
 20
1.364000
 11
5.223240
 21
2.103200
 12
5.251840
 22
1.360920
 13
5.251840
 23
2.100120
  0
POLYLINE
  8
0
  6
CONTINUOUS
 66
     1
 40
0.000000
 41
0.000000
  0
VERTEX
  8
0
  6
CONTINUOUS
 10
5.223680
 20
1.364000
  0
VERTEX
  8
0
  6
CONTINUOUS
 10
5.223240
 20
2.103200
  0
VERTEX
  8
0
  6
CONTINUOUS
 10
5.251840
 20
2.100120
  0
VERTEX
  8
0
  6
CONTINUOUS
 10
5.251840
 20
1.360920
  0
VERTEX
  8
0
  6
CONTINUOUS
 10
5.223680
 20
1.364000
  0
SEQEND
  8
0
  0
SOLID
  8
0
 62
    15
 10
5.251840
 20
1.360920
 11
5.251840
 21
2.100120
 12
5.270760
 22
1.360480
 13
5.270320
 23
2.099680
  0
POLYLINE
  8
0
  6
CONTINUOUS
 66
     1
 40
0.000000
 41
0.000000
  0
VERTEX
  8
0
  6
CONTINUOUS
 10
5.251840
 20
1.360920
  0
VERTEX
  8
0
  6
CONTINUOUS
 10
5.251840
 20
2.100120
  0
VERTEX
  8
0
  6
CONTINUOUS
 10
5.270320
 20
2.099680
  0
VERTEX
  8
0
  6
CONTINUOUS
 10
5.270760
 20
1.360480
  0
VERTEX
  8
0
  6
CONTINUOUS
 10
5.251840
 20
1.360920
  0
SEQEND
  8
0
  0
SOLID
  8
0
 62
    15
 10
5.270760
 20
1.360480
 11
5.270320
 21
2.099680
 12
5.277360
 22
1.360920
 13
5.276920
 23
2.100120
  0
POLYLINE
  8
0
  6
CONTINUOUS
 66
     1
 40
0.000000
 41
0.000000
  0
VERTEX
  8
0
  6
CONTINUOUS
 10
5.270760
 20
1.360480
  0
VERTEX
  8
0
  6
CONTINUOUS
 10
5.270320
 20
2.099680
  0
VERTEX
  8
0
  6
CONTINUOUS
 10
5.276920
 20
2.100120
  0
VERTEX
  8
0
  6
CONTINUOUS
 10
5.277360
 20
1.360920
  0
VERTEX
  8
0
  6
CONTINUOUS
 10
5.270760
 20
1.360480
  0
SEQEND
  8
0
  0
SOLID
  8
0
 62
    15
 10
5.277360
 20
1.360920
 11
5.276920
 21
2.100120
 12
5.291880
 22
1.383800
 13
5.291440
 23
2.123000
  0
POLYLINE
  8
0
  6
CONTINUOUS
 66
     1
 40
0.000000
 41
0.000000
  0
VERTEX
  8
0
  6
CONTINUOUS
 10
5.277360
 20
1.360920
  0
VERTEX
  8
0
  6
CONTINUOUS
 10
5.276920
 20
2.100120
  0
VERTEX
  8
0
  6
CONTINUOUS
 10
5.291440
 20
2.123000
  0
VERTEX
  8
0
  6
CONTINUOUS
 10
5.291880
 20
1.383800
  0
VERTEX
  8
0
  6
CONTINUOUS
 10
5.277360
 20
1.360920
  0
SEQEND
  8
0
  0
SOLID
  8
0
 62
    15
 10
5.291880
 20
1.383800
 11
5.291440
 21
2.123000
 12
5.306840
 22
1.403160
 13
5.306400
 23
2.142360
  0
POLYLINE
  8
0
  6
CONTINUOUS
 66
     1
 40
0.000000
 41
0.000000
  0
VERTEX
  8
0
  6
CONTINUOUS
 10
5.291880
 20
1.383800
  0
VERTEX
  8
0
  6
CONTINUOUS
 10
5.291440
 20
2.123000
  0
VERTEX
  8
0
  6
CONTINUOUS
 10
5.306400
 20
2.142360
  0
VERTEX
  8
0
  6
CONTINUOUS
 10
5.306840
 20
1.403160
  0
VERTEX
  8
0
  6
CONTINUOUS
 10
5.291880
 20
1.383800
  0
SEQEND
  8
0
  0
SOLID
  8
0
 62
    15
 10
5.306840
 20
1.403160
 11
5.306400
 21
2.142360
 12
5.322680
 22
1.419000
 13
5.322240
 23
2.158200
  0
POLYLINE
  8
0
  6
CONTINUOUS
 66
     1
 40
0.000000
 41
0.000000
  0
VERTEX
  8
0
  6
CONTINUOUS
 10
5.306840
 20
1.403160
  0
VERTEX
  8
0
  6
CONTINUOUS
 10
5.306400
 20
2.142360
  0
VERTEX
  8
0
  6
CONTINUOUS
 10
5.322240
 20
2.158200
  0
VERTEX
  8
0
  6
CONTINUOUS
 10
5.322680
 20
1.419000
  0
VERTEX
  8
0
  6
CONTINUOUS
 10
5.306840
 20
1.403160
  0
SEQEND
  8
0
  0
SOLID
  8
0
 62
    15
 10
5.322680
 20
1.419000
 11
5.322240
 21
2.158200
 12
5.339840
 22
1.431760
 13
5.339400
 23
2.170960
  0
POLYLINE
  8
0
  6
CONTINUOUS
 66
     1
 40
0.000000
 41
0.000000
  0
VERTEX
  8
0
  6
CONTINUOUS
 10
5.322680
 20
1.419000
  0
VERTEX
  8
0
  6
CONTINUOUS
 10
5.322240
 20
2.158200
  0
VERTEX
  8
0
  6
CONTINUOUS
 10
5.339400
 20
2.170960
  0
VERTEX
  8
0
  6
CONTINUOUS
 10
5.339840
 20
1.431760
  0
VERTEX
  8
0
  6
CONTINUOUS
 10
5.322680
 20
1.419000
  0
SEQEND
  8
0
  0
SOLID
  8
0
 62
    15
 10
5.339840
 20
1.431760
 11
5.339400
 21
2.170960
 12
5.378560
 22
1.448040
 13
5.378120
 23
2.187240
  0
POLYLINE
  8
0
  6
CONTINUOUS
 66
     1
 40
0.000000
 41
0.000000
  0
VERTEX
  8
0
  6
CONTINUOUS
 10
5.339840
 20
1.431760
  0
VERTEX
  8
0
  6
CONTINUOUS
 10
5.339400
 20
2.170960
  0
VERTEX
  8
0
  6
CONTINUOUS
 10
5.378120
 20
2.187240
  0
VERTEX
  8
0
  6
CONTINUOUS
 10
5.378560
 20
1.448040
  0
VERTEX
  8
0
  6
CONTINUOUS
 10
5.339840
 20
1.431760
  0
SEQEND
  8
0
  0
SOLID
  8
0
 62
    15
 10
5.378560
 20
1.448040
 11
5.378120
 21
2.187240
 12
5.425200
 22
1.453320
 13
5.424760
 23
2.192520
  0
POLYLINE
  8
0
  6
CONTINUOUS
 66
     1
 40
0.000000
 41
0.000000
  0
VERTEX
  8
0
  6
CONTINUOUS
 10
5.378560
 20
1.448040
  0
VERTEX
  8
0
  6
CONTINUOUS
 10
5.378120
 20
2.187240
  0
VERTEX
  8
0
  6
CONTINUOUS
 10
5.424760
 20
2.192520
  0
VERTEX
  8
0
  6
CONTINUOUS
 10
5.425200
 20
1.453320
  0
VERTEX
  8
0
  6
CONTINUOUS
 10
5.378560
 20
1.448040
  0
SEQEND
  8
0
  0
SOLID
  8
0
 62
    15
 10
5.425200
 20
1.453320
 11
5.424760
 21
2.192520
 12
5.437960
 22
1.489400
 13
5.437520
 23
2.228600
  0
POLYLINE
  8
0
  6
CONTINUOUS
 66
     1
 40
0.000000
 41
0.000000
  0
VERTEX
  8
0
  6
CONTINUOUS
 10
5.425200
 20
1.453320
  0
VERTEX
  8
0
  6
CONTINUOUS
 10
5.424760
 20
2.192520
  0
VERTEX
  8
0
  6
CONTINUOUS
 10
5.437520
 20
2.228600
  0
VERTEX
  8
0
  6
CONTINUOUS
 10
5.437960
 20
1.489400
  0
VERTEX
  8
0
  6
CONTINUOUS
 10
5.425200
 20
1.453320
  0
SEQEND
  8
0
  0
SOLID
  8
0
 62
    15
 10
5.437960
 20
1.489400
 11
5.437520
 21
2.228600
 12
5.457320
 22
1.514920
 13
5.456880
 23
2.254120
  0
POLYLINE
  8
0
  6
CONTINUOUS
 66
     1
 40
0.000000
 41
0.000000
  0
VERTEX
  8
0
  6
CONTINUOUS
 10
5.437960
 20
1.489400
  0
VERTEX
  8
0
  6
CONTINUOUS
 10
5.437520
 20
2.228600
  0
VERTEX
  8
0
  6
CONTINUOUS
 10
5.456880
 20
2.254120
  0
VERTEX
  8
0
  6
CONTINUOUS
 10
5.457320
 20
1.514920
  0
VERTEX
  8
0
  6
CONTINUOUS
 10
5.437960
 20
1.489400
  0
SEQEND
  8
0
  0
SOLID
  8
0
 62
    15
 10
5.457320
 20
1.514920
 11
5.456880
 21
2.254120
 12
5.470520
 22
1.523720
 13
5.470520
 23
2.262920
  0
POLYLINE
  8
0
  6
CONTINUOUS
 66
     1
 40
0.000000
 41
0.000000
  0
VERTEX
  8
0
  6
CONTINUOUS
 10
5.457320
 20
1.514920
  0
VERTEX
  8
0
  6
CONTINUOUS
 10
5.456880
 20
2.254120
  0
VERTEX
  8
0
  6
CONTINUOUS
 10
5.470520
 20
2.262920
  0
VERTEX
  8
0
  6
CONTINUOUS
 10
5.470520
 20
1.523720
  0
VERTEX
  8
0
  6
CONTINUOUS
 10
5.457320
 20
1.514920
  0
SEQEND
  8
0
  0
SOLID
  8
0
 62
    15
 10
5.470520
 20
1.523720
 11
5.470520
 21
2.262920
 12
5.487680
 22
1.529880
 13
5.487240
 23
2.269080
  0
POLYLINE
  8
0
  6
CONTINUOUS
 66
     1
 40
0.000000
 41
0.000000
  0
VERTEX
  8
0
  6
CONTINUOUS
 10
5.470520
 20
1.523720
  0
VERTEX
  8
0
  6
CONTINUOUS
 10
5.470520
 20
2.262920
  0
VERTEX
  8
0
  6
CONTINUOUS
 10
5.487240
 20
2.269080
  0
VERTEX
  8
0
  6
CONTINUOUS
 10
5.487680
 20
1.529880
  0
VERTEX
  8
0
  6
CONTINUOUS
 10
5.470520
 20
1.523720
  0
SEQEND
  8
0
  0
SOLID
  8
0
 62
    15
 10
5.487680
 20
1.529880
 11
5.487240
 21
2.269080
 12
5.508360
 22
1.533840
 13
5.507920
 23
2.273040
  0
POLYLINE
  8
0
  6
CONTINUOUS
 66
     1
 40
0.000000
 41
0.000000
  0
VERTEX
  8
0
  6
CONTINUOUS
 10
5.487680
 20
1.529880
  0
VERTEX
  8
0
  6
CONTINUOUS
 10
5.487240
 20
2.269080
  0
VERTEX
  8
0
  6
CONTINUOUS
 10
5.507920
 20
2.273040
  0
VERTEX
  8
0
  6
CONTINUOUS
 10
5.508360
 20
1.533840
  0
VERTEX
  8
0
  6
CONTINUOUS
 10
5.487680
 20
1.529880
  0
SEQEND
  8
0
  0
SOLID
  8
0
 62
    15
 10
5.508360
 20
1.533840
 11
5.507920
 21
2.273040
 12
5.533440
 22
1.535160
 13
5.533000
 23
2.274360
  0
POLYLINE
  8
0
  6
CONTINUOUS
 66
     1
 40
0.000000
 41
0.000000
  0
VERTEX
  8
0
  6
CONTINUOUS
 10
5.508360
 20
1.533840
  0
VERTEX
  8
0
  6
CONTINUOUS
 10
5.507920
 20
2.273040
  0
VERTEX
  8
0
  6
CONTINUOUS
 10
5.533000
 20
2.274360
  0
VERTEX
  8
0
  6
CONTINUOUS
 10
5.533440
 20
1.535160
  0
VERTEX
  8
0
  6
CONTINUOUS
 10
5.508360
 20
1.533840
  0
SEQEND
  8
0
  0
SOLID
  8
0
 62
    15
 10
3.779160
 20
1.611720
 11
3.778720
 21
2.350920
 12
4.358640
 22
1.611720
 13
4.358200
 23
2.350920
  0
POLYLINE
  8
0
  6
CONTINUOUS
 66
     1
 40
0.000000
 41
0.000000
  0
VERTEX
  8
0
  6
CONTINUOUS
 10
3.779160
 20
1.611720
  0
VERTEX
  8
0
  6
CONTINUOUS
 10
3.778720
 20
2.350920
  0
VERTEX
  8
0
  6
CONTINUOUS
 10
4.358200
 20
2.350920
  0
VERTEX
  8
0
  6
CONTINUOUS
 10
4.358640
 20
1.611720
  0
VERTEX
  8
0
  6
CONTINUOUS
 10
3.779160
 20
1.611720
  0
SEQEND
  8
0
  0
SOLID
  8
0
 62
    15
 10
5.538280
 20
1.534720
 11
5.537840
 21
2.273480
 12
5.563360
 22
1.533400
 13
5.562920
 23
2.272160
  0
POLYLINE
  8
0
  6
CONTINUOUS
 66
     1
 40
0.000000
 41
0.000000
  0
VERTEX
  8
0
  6
CONTINUOUS
 10
5.538280
 20
1.534720
  0
VERTEX
  8
0
  6
CONTINUOUS
 10
5.537840
 20
2.273480
  0
VERTEX
  8
0
  6
CONTINUOUS
 10
5.562920
 20
2.272160
  0
VERTEX
  8
0
  6
CONTINUOUS
 10
5.563360
 20
1.533400
  0
VERTEX
  8
0
  6
CONTINUOUS
 10
5.538280
 20
1.534720
  0
SEQEND
  8
0
  0
SOLID
  8
0
 62
    15
 10
5.563360
 20
1.533400
 11
5.562920
 21
2.272160
 12
5.584040
 22
1.529440
 13
5.583600
 23
2.268640
  0
POLYLINE
  8
0
  6
CONTINUOUS
 66
     1
 40
0.000000
 41
0.000000
  0
VERTEX
  8
0
  6
CONTINUOUS
 10
5.563360
 20
1.533400
  0
VERTEX
  8
0
  6
CONTINUOUS
 10
5.562920
 20
2.272160
  0
VERTEX
  8
0
  6
CONTINUOUS
 10
5.583600
 20
2.268640
  0
VERTEX
  8
0
  6
CONTINUOUS
 10
5.584040
 20
1.529440
  0
VERTEX
  8
0
  6
CONTINUOUS
 10
5.563360
 20
1.533400
  0
SEQEND
  8
0
  0
SOLID
  8
0
 62
    15
 10
5.584040
 20
1.529440
 11
5.583600
 21
2.268640
 12
5.601200
 22
1.523280
 13
5.600760
 23
2.262480
  0
POLYLINE
  8
0
  6
CONTINUOUS
 66
     1
 40
0.000000
 41
0.000000
  0
VERTEX
  8
0
  6
CONTINUOUS
 10
5.584040
 20
1.529440
  0
VERTEX
  8
0
  6
CONTINUOUS
 10
5.583600
 20
2.268640
  0
VERTEX
  8
0
  6
CONTINUOUS
 10
5.600760
 20
2.262480
  0
VERTEX
  8
0
  6
CONTINUOUS
 10
5.601200
 20
1.523280
  0
VERTEX
  8
0
  6
CONTINUOUS
 10
5.584040
 20
1.529440
  0
SEQEND
  8
0
  0
SOLID
  8
0
 62
    15
 10
5.601200
 20
1.523280
 11
5.600760
 21
2.262480
 12
5.614400
 22
1.514480
 13
5.613960
 23
2.253240
  0
POLYLINE
  8
0
  6
CONTINUOUS
 66
     1
 40
0.000000
 41
0.000000
  0
VERTEX
  8
0
  6
CONTINUOUS
 10
5.601200
 20
1.523280
  0
VERTEX
  8
0
  6
CONTINUOUS
 10
5.600760
 20
2.262480
  0
VERTEX
  8
0
  6
CONTINUOUS
 10
5.613960
 20
2.253240
  0
VERTEX
  8
0
  6
CONTINUOUS
 10
5.614400
 20
1.514480
  0
VERTEX
  8
0
  6
CONTINUOUS
 10
5.601200
 20
1.523280
  0
SEQEND
  8
0
  0
SOLID
  8
0
 62
    15
 10
5.614400
 20
1.514480
 11
5.613960
 21
2.253240
 12
5.633760
 22
1.488960
 13
5.633320
 23
2.228160
  0
POLYLINE
  8
0
  6
CONTINUOUS
 66
     1
 40
0.000000
 41
0.000000
  0
VERTEX
  8
0
  6
CONTINUOUS
 10
5.614400
 20
1.514480
  0
VERTEX
  8
0
  6
CONTINUOUS
 10
5.613960
 20
2.253240
  0
VERTEX
  8
0
  6
CONTINUOUS
 10
5.633320
 20
2.228160
  0
VERTEX
  8
0
  6
CONTINUOUS
 10
5.633760
 20
1.488960
  0
VERTEX
  8
0
  6
CONTINUOUS
 10
5.614400
 20
1.514480
  0
SEQEND
  8
0
  0
SOLID
  8
0
 62
    15
 10
5.633760
 20
1.488960
 11
5.633320
 21
2.228160
 12
5.646520
 22
1.452880
 13
5.646080
 23
2.191640
  0
POLYLINE
  8
0
  6
CONTINUOUS
 66
     1
 40
0.000000
 41
0.000000
  0
VERTEX
  8
0
  6
CONTINUOUS
 10
5.633760
 20
1.488960
  0
VERTEX
  8
0
  6
CONTINUOUS
 10
5.633320
 20
2.228160
  0
VERTEX
  8
0
  6
CONTINUOUS
 10
5.646080
 20
2.191640
  0
VERTEX
  8
0
  6
CONTINUOUS
 10
5.646520
 20
1.452880
  0
VERTEX
  8
0
  6
CONTINUOUS
 10
5.633760
 20
1.488960
  0
SEQEND
  8
0
  0
SOLID
  8
0
 62
    15
 10
5.646520
 20
1.452880
 11
5.646080
 21
2.191640
 12
5.693160
 22
1.447600
 13
5.692720
 23
2.186800
  0
POLYLINE
  8
0
  6
CONTINUOUS
 66
     1
 40
0.000000
 41
0.000000
  0
VERTEX
  8
0
  6
CONTINUOUS
 10
5.646520
 20
1.452880
  0
VERTEX
  8
0
  6
CONTINUOUS
 10
5.646080
 20
2.191640
  0
VERTEX
  8
0
  6
CONTINUOUS
 10
5.692720
 20
2.186800
  0
VERTEX
  8
0
  6
CONTINUOUS
 10
5.693160
 20
1.447600
  0
VERTEX
  8
0
  6
CONTINUOUS
 10
5.646520
 20
1.452880
  0
SEQEND
  8
0
  0
SOLID
  8
0
 62
    15
 10
5.693160
 20
1.447600
 11
5.692720
 21
2.186800
 12
5.731880
 22
1.431320
 13
5.731440
 23
2.170520
  0
POLYLINE
  8
0
  6
CONTINUOUS
 66
     1
 40
0.000000
 41
0.000000
  0
VERTEX
  8
0
  6
CONTINUOUS
 10
5.693160
 20
1.447600
  0
VERTEX
  8
0
  6
CONTINUOUS
 10
5.692720
 20
2.186800
  0
VERTEX
  8
0
  6
CONTINUOUS
 10
5.731440
 20
2.170520
  0
VERTEX
  8
0
  6
CONTINUOUS
 10
5.731880
 20
1.431320
  0
VERTEX
  8
0
  6
CONTINUOUS
 10
5.693160
 20
1.447600
  0
SEQEND
  8
0
  0
SOLID
  8
0
 62
    15
 10
5.731880
 20
1.431320
 11
5.731440
 21
2.170520
 12
5.749040
 22
1.418560
 13
5.748600
 23
2.157760
  0
POLYLINE
  8
0
  6
CONTINUOUS
 66
     1
 40
0.000000
 41
0.000000
  0
VERTEX
  8
0
  6
CONTINUOUS
 10
5.731880
 20
1.431320
  0
VERTEX
  8
0
  6
CONTINUOUS
 10
5.731440
 20
2.170520
  0
VERTEX
  8
0
  6
CONTINUOUS
 10
5.748600
 20
2.157760
  0
VERTEX
  8
0
  6
CONTINUOUS
 10
5.749040
 20
1.418560
  0
VERTEX
  8
0
  6
CONTINUOUS
 10
5.731880
 20
1.431320
  0
SEQEND
  8
0
  0
SOLID
  8
0
 62
    15
 10
5.749040
 20
1.418560
 11
5.748600
 21
2.157760
 12
5.764880
 22
1.402720
 13
5.764440
 23
2.141480
  0
POLYLINE
  8
0
  6
CONTINUOUS
 66
     1
 40
0.000000
 41
0.000000
  0
VERTEX
  8
0
  6
CONTINUOUS
 10
5.749040
 20
1.418560
  0
VERTEX
  8
0
  6
CONTINUOUS
 10
5.748600
 20
2.157760
  0
VERTEX
  8
0
  6
CONTINUOUS
 10
5.764440
 20
2.141480
  0
VERTEX
  8
0
  6
CONTINUOUS
 10
5.764880
 20
1.402720
  0
VERTEX
  8
0
  6
CONTINUOUS
 10
5.749040
 20
1.418560
  0
SEQEND
  8
0
  0
SOLID
  8
0
 62
    15
 10
5.764880
 20
1.402720
 11
5.764440
 21
2.141480
 12
5.779840
 22
1.383360
 13
5.779400
 23
2.122120
  0
POLYLINE
  8
0
  6
CONTINUOUS
 66
     1
 40
0.000000
 41
0.000000
  0
VERTEX
  8
0
  6
CONTINUOUS
 10
5.764880
 20
1.402720
  0
VERTEX
  8
0
  6
CONTINUOUS
 10
5.764440
 20
2.141480
  0
VERTEX
  8
0
  6
CONTINUOUS
 10
5.779400
 20
2.122120
  0
VERTEX
  8
0
  6
CONTINUOUS
 10
5.779840
 20
1.383360
  0
VERTEX
  8
0
  6
CONTINUOUS
 10
5.764880
 20
1.402720
  0
SEQEND
  8
0
  0
SOLID
  8
0
 62
    15
 10
5.779840
 20
1.383360
 11
5.779400
 21
2.122120
 12
5.794360
 22
1.360480
 13
5.793920
 23
2.099240
  0
POLYLINE
  8
0
  6
CONTINUOUS
 66
     1
 40
0.000000
 41
0.000000
  0
VERTEX
  8
0
  6
CONTINUOUS
 10
5.779840
 20
1.383360
  0
VERTEX
  8
0
  6
CONTINUOUS
 10
5.779400
 20
2.122120
  0
VERTEX
  8
0
  6
CONTINUOUS
 10
5.793920
 20
2.099240
  0
VERTEX
  8
0
  6
CONTINUOUS
 10
5.794360
 20
1.360480
  0
VERTEX
  8
0
  6
CONTINUOUS
 10
5.779840
 20
1.383360
  0
SEQEND
  8
0
  0
SOLID
  8
0
 62
    15
 10
5.794360
 20
1.360480
 11
5.793920
 21
2.099240
 12
5.800960
 22
1.360040
 13
5.800520
 23
2.099240
  0
POLYLINE
  8
0
  6
CONTINUOUS
 66
     1
 40
0.000000
 41
0.000000
  0
VERTEX
  8
0
  6
CONTINUOUS
 10
5.794360
 20
1.360480
  0
VERTEX
  8
0
  6
CONTINUOUS
 10
5.793920
 20
2.099240
  0
VERTEX
  8
0
  6
CONTINUOUS
 10
5.800520
 20
2.099240
  0
VERTEX
  8
0
  6
CONTINUOUS
 10
5.800960
 20
1.360040
  0
VERTEX
  8
0
  6
CONTINUOUS
 10
5.794360
 20
1.360480
  0
SEQEND
  8
0
  0
SOLID
  8
0
 62
    15
 10
5.800960
 20
1.360040
 11
5.800520
 21
2.099240
 12
5.819440
 22
1.360480
 13
5.819440
 23
2.099680
  0
POLYLINE
  8
0
  6
CONTINUOUS
 66
     1
 40
0.000000
 41
0.000000
  0
VERTEX
  8
0
  6
CONTINUOUS
 10
5.800960
 20
1.360040
  0
VERTEX
  8
0
  6
CONTINUOUS
 10
5.800520
 20
2.099240
  0
VERTEX
  8
0
  6
CONTINUOUS
 10
5.819440
 20
2.099680
  0
VERTEX
  8
0
  6
CONTINUOUS
 10
5.819440
 20
1.360480
  0
VERTEX
  8
0
  6
CONTINUOUS
 10
5.800960
 20
1.360040
  0
SEQEND
  8
0
  0
SOLID
  8
0
 62
    15
 10
5.819440
 20
1.360480
 11
5.819440
 21
2.099680
 12
5.848040
 22
1.363560
 13
5.847600
 23
2.102760
  0
POLYLINE
  8
0
  6
CONTINUOUS
 66
     1
 40
0.000000
 41
0.000000
  0
VERTEX
  8
0
  6
CONTINUOUS
 10
5.819440
 20
1.360480
  0
VERTEX
  8
0
  6
CONTINUOUS
 10
5.819440
 20
2.099680
  0
VERTEX
  8
0
  6
CONTINUOUS
 10
5.847600
 20
2.102760
  0
VERTEX
  8
0
  6
CONTINUOUS
 10
5.848040
 20
1.363560
  0
VERTEX
  8
0
  6
CONTINUOUS
 10
5.819440
 20
1.360480
  0
SEQEND
  8
0
  0
SOLID
  8
0
 62
    15
 10
5.848040
 20
1.363560
 11
5.847600
 21
2.102760
 12
5.884560
 22
1.371040
 13
5.884120
 23
2.110240
  0
POLYLINE
  8
0
  6
CONTINUOUS
 66
     1
 40
0.000000
 41
0.000000
  0
VERTEX
  8
0
  6
CONTINUOUS
 10
5.848040
 20
1.363560
  0
VERTEX
  8
0
  6
CONTINUOUS
 10
5.847600
 20
2.102760
  0
VERTEX
  8
0
  6
CONTINUOUS
 10
5.884120
 20
2.110240
  0
VERTEX
  8
0
  6
CONTINUOUS
 10
5.884560
 20
1.371040
  0
VERTEX
  8
0
  6
CONTINUOUS
 10
5.848040
 20
1.363560
  0
SEQEND
  8
0
  0
SOLID
  8
0
 62
    15
 10
5.884560
 20
1.371040
 11
5.884120
 21
2.110240
 12
5.926360
 22
1.385560
 13
5.925920
 23
2.124320
  0
POLYLINE
  8
0
  6
CONTINUOUS
 66
     1
 40
0.000000
 41
0.000000
  0
VERTEX
  8
0
  6
CONTINUOUS
 10
5.884560
 20
1.371040
  0
VERTEX
  8
0
  6
CONTINUOUS
 10
5.884120
 20
2.110240
  0
VERTEX
  8
0
  6
CONTINUOUS
 10
5.925920
 20
2.124320
  0
VERTEX
  8
0
  6
CONTINUOUS
 10
5.926360
 20
1.385560
  0
VERTEX
  8
0
  6
CONTINUOUS
 10
5.884560
 20
1.371040
  0
SEQEND
  8
0
  0
SOLID
  8
0
 62
    15
 10
5.926360
 20
1.385560
 11
5.925920
 21
2.124320
 12
5.971240
 22
1.408000
 13
5.970800
 23
2.147200
  0
POLYLINE
  8
0
  6
CONTINUOUS
 66
     1
 40
0.000000
 41
0.000000
  0
VERTEX
  8
0
  6
CONTINUOUS
 10
5.926360
 20
1.385560
  0
VERTEX
  8
0
  6
CONTINUOUS
 10
5.925920
 20
2.124320
  0
VERTEX
  8
0
  6
CONTINUOUS
 10
5.970800
 20
2.147200
  0
VERTEX
  8
0
  6
CONTINUOUS
 10
5.971240
 20
1.408000
  0
VERTEX
  8
0
  6
CONTINUOUS
 10
5.926360
 20
1.385560
  0
SEQEND
  8
0
  0
SOLID
  8
0
 62
    15
 10
5.971240
 20
1.408000
 11
5.970800
 21
2.147200
 12
6.017880
 22
1.441440
 13
6.017440
 23
2.180640
  0
POLYLINE
  8
0
  6
CONTINUOUS
 66
     1
 40
0.000000
 41
0.000000
  0
VERTEX
  8
0
  6
CONTINUOUS
 10
5.971240
 20
1.408000
  0
VERTEX
  8
0
  6
CONTINUOUS
 10
5.970800
 20
2.147200
  0
VERTEX
  8
0
  6
CONTINUOUS
 10
6.017440
 20
2.180640
  0
VERTEX
  8
0
  6
CONTINUOUS
 10
6.017880
 20
1.441440
  0
VERTEX
  8
0
  6
CONTINUOUS
 10
5.971240
 20
1.408000
  0
SEQEND
  8
0
  0
SOLID
  8
0
 62
    15
 10
6.017880
 20
1.441440
 11
6.017440
 21
2.180640
 12
6.063640
 22
1.487200
 13
6.063200
 23
2.225960
  0
POLYLINE
  8
0
  6
CONTINUOUS
 66
     1
 40
0.000000
 41
0.000000
  0
VERTEX
  8
0
  6
CONTINUOUS
 10
6.017880
 20
1.441440
  0
VERTEX
  8
0
  6
CONTINUOUS
 10
6.017440
 20
2.180640
  0
VERTEX
  8
0
  6
CONTINUOUS
 10
6.063200
 20
2.225960
  0
VERTEX
  8
0
  6
CONTINUOUS
 10
6.063640
 20
1.487200
  0
VERTEX
  8
0
  6
CONTINUOUS
 10
6.017880
 20
1.441440
  0
SEQEND
  8
0
  0
SOLID
  8
0
 62
    15
 10
6.063640
 20
1.487200
 11
6.063200
 21
2.225960
 12
6.086080
 22
1.510960
 13
6.085640
 23
2.250160
  0
POLYLINE
  8
0
  6
CONTINUOUS
 66
     1
 40
0.000000
 41
0.000000
  0
VERTEX
  8
0
  6
CONTINUOUS
 10
6.063640
 20
1.487200
  0
VERTEX
  8
0
  6
CONTINUOUS
 10
6.063200
 20
2.225960
  0
VERTEX
  8
0
  6
CONTINUOUS
 10
6.085640
 20
2.250160
  0
VERTEX
  8
0
  6
CONTINUOUS
 10
6.086080
 20
1.510960
  0
VERTEX
  8
0
  6
CONTINUOUS
 10
6.063640
 20
1.487200
  0
SEQEND
  8
0
  0
SOLID
  8
0
 62
    15
 10
6.086080
 20
1.510960
 11
6.085640
 21
2.250160
 12
6.108080
 22
1.530760
 13
6.107640
 23
2.269960
  0
POLYLINE
  8
0
  6
CONTINUOUS
 66
     1
 40
0.000000
 41
0.000000
  0
VERTEX
  8
0
  6
CONTINUOUS
 10
6.086080
 20
1.510960
  0
VERTEX
  8
0
  6
CONTINUOUS
 10
6.085640
 20
2.250160
  0
VERTEX
  8
0
  6
CONTINUOUS
 10
6.107640
 20
2.269960
  0
VERTEX
  8
0
  6
CONTINUOUS
 10
6.108080
 20
1.530760
  0
VERTEX
  8
0
  6
CONTINUOUS
 10
6.086080
 20
1.510960
  0
SEQEND
  8
0
  0
SOLID
  8
0
 62
    15
 10
6.108080
 20
1.530760
 11
6.107640
 21
2.269960
 12
6.130080
 22
1.547040
 13
6.129640
 23
2.285800
  0
POLYLINE
  8
0
  6
CONTINUOUS
 66
     1
 40
0.000000
 41
0.000000
  0
VERTEX
  8
0
  6
CONTINUOUS
 10
6.108080
 20
1.530760
  0
VERTEX
  8
0
  6
CONTINUOUS
 10
6.107640
 20
2.269960
  0
VERTEX
  8
0
  6
CONTINUOUS
 10
6.129640
 20
2.285800
  0
VERTEX
  8
0
  6
CONTINUOUS
 10
6.130080
 20
1.547040
  0
VERTEX
  8
0
  6
CONTINUOUS
 10
6.108080
 20
1.530760
  0
SEQEND
  8
0
  0
SOLID
  8
0
 62
    15
 10
6.130080
 20
1.547040
 11
6.129640
 21
2.285800
 12
6.152080
 22
1.558920
 13
6.151640
 23
2.298120
  0
POLYLINE
  8
0
  6
CONTINUOUS
 66
     1
 40
0.000000
 41
0.000000
  0
VERTEX
  8
0
  6
CONTINUOUS
 10
6.130080
 20
1.547040
  0
VERTEX
  8
0
  6
CONTINUOUS
 10
6.129640
 20
2.285800
  0
VERTEX
  8
0
  6
CONTINUOUS
 10
6.151640
 20
2.298120
  0
VERTEX
  8
0
  6
CONTINUOUS
 10
6.152080
 20
1.558920
  0
VERTEX
  8
0
  6
CONTINUOUS
 10
6.130080
 20
1.547040
  0
SEQEND
  8
0
  0
SOLID
  8
0
 62
    15
 10
6.152080
 20
1.558920
 11
6.151640
 21
2.298120
 12
6.194760
 22
1.572560
 13
6.194760
 23
2.311760
  0
POLYLINE
  8
0
  6
CONTINUOUS
 66
     1
 40
0.000000
 41
0.000000
  0
VERTEX
  8
0
  6
CONTINUOUS
 10
6.152080
 20
1.558920
  0
VERTEX
  8
0
  6
CONTINUOUS
 10
6.151640
 20
2.298120
  0
VERTEX
  8
0
  6
CONTINUOUS
 10
6.194760
 20
2.311760
  0
VERTEX
  8
0
  6
CONTINUOUS
 10
6.194760
 20
1.572560
  0
VERTEX
  8
0
  6
CONTINUOUS
 10
6.152080
 20
1.558920
  0
SEQEND
  8
0
  0
SOLID
  8
0
 62
    15
 10
6.194760
 20
1.572560
 11
6.194760
 21
2.311760
 12
6.236120
 22
1.573440
 13
6.235680
 23
2.312640
  0
POLYLINE
  8
0
  6
CONTINUOUS
 66
     1
 40
0.000000
 41
0.000000
  0
VERTEX
  8
0
  6
CONTINUOUS
 10
6.194760
 20
1.572560
  0
VERTEX
  8
0
  6
CONTINUOUS
 10
6.194760
 20
2.311760
  0
VERTEX
  8
0
  6
CONTINUOUS
 10
6.235680
 20
2.312640
  0
VERTEX
  8
0
  6
CONTINUOUS
 10
6.236120
 20
1.573440
  0
VERTEX
  8
0
  6
CONTINUOUS
 10
6.194760
 20
1.572560
  0
SEQEND
  8
0
  0
SOLID
  8
0
 62
    15
 10
6.236120
 20
1.573440
 11
6.235680
 21
2.312640
 12
6.275280
 22
1.563320
 13
6.275280
 23
2.302520
  0
POLYLINE
  8
0
  6
CONTINUOUS
 66
     1
 40
0.000000
 41
0.000000
  0
VERTEX
  8
0
  6
CONTINUOUS
 10
6.236120
 20
1.573440
  0
VERTEX
  8
0
  6
CONTINUOUS
 10
6.235680
 20
2.312640
  0
VERTEX
  8
0
  6
CONTINUOUS
 10
6.275280
 20
2.302520
  0
VERTEX
  8
0
  6
CONTINUOUS
 10
6.275280
 20
1.563320
  0
VERTEX
  8
0
  6
CONTINUOUS
 10
6.236120
 20
1.573440
  0
SEQEND
  8
0
  0
SOLID
  8
0
 62
    15
 10
6.275280
 20
1.563320
 11
6.275280
 21
2.302520
 12
6.312240
 22
1.543520
 13
6.311800
 23
2.282720
  0
POLYLINE
  8
0
  6
CONTINUOUS
 66
     1
 40
0.000000
 41
0.000000
  0
VERTEX
  8
0
  6
CONTINUOUS
 10
6.275280
 20
1.563320
  0
VERTEX
  8
0
  6
CONTINUOUS
 10
6.275280
 20
2.302520
  0
VERTEX
  8
0
  6
CONTINUOUS
 10
6.311800
 20
2.282720
  0
VERTEX
  8
0
  6
CONTINUOUS
 10
6.312240
 20
1.543520
  0
VERTEX
  8
0
  6
CONTINUOUS
 10
6.275280
 20
1.563320
  0
SEQEND
  8
0
  0
SOLID
  8
0
 62
    15
 10
6.312240
 20
1.543520
 11
6.311800
 21
2.282720
 12
6.345680
 22
1.515800
 13
6.345240
 23
2.255000
  0
POLYLINE
  8
0
  6
CONTINUOUS
 66
     1
 40
0.000000
 41
0.000000
  0
VERTEX
  8
0
  6
CONTINUOUS
 10
6.312240
 20
1.543520
  0
VERTEX
  8
0
  6
CONTINUOUS
 10
6.311800
 20
2.282720
  0
VERTEX
  8
0
  6
CONTINUOUS
 10
6.345240
 20
2.255000
  0
VERTEX
  8
0
  6
CONTINUOUS
 10
6.345680
 20
1.515800
  0
VERTEX
  8
0
  6
CONTINUOUS
 10
6.312240
 20
1.543520
  0
SEQEND
  8
0
  0
SOLID
  8
0
 62
    15
 10
6.345680
 20
1.515800
 11
6.345240
 21
2.255000
 12
6.375160
 22
1.481920
 13
6.374720
 23
2.220680
  0
POLYLINE
  8
0
  6
CONTINUOUS
 66
     1
 40
0.000000
 41
0.000000
  0
VERTEX
  8
0
  6
CONTINUOUS
 10
6.345680
 20
1.515800
  0
VERTEX
  8
0
  6
CONTINUOUS
 10
6.345240
 20
2.255000
  0
VERTEX
  8
0
  6
CONTINUOUS
 10
6.374720
 20
2.220680
  0
VERTEX
  8
0
  6
CONTINUOUS
 10
6.375160
 20
1.481920
  0
VERTEX
  8
0
  6
CONTINUOUS
 10
6.345680
 20
1.515800
  0
SEQEND
  8
0
  0
SOLID
  8
0
 62
    15
 10
6.375160
 20
1.481920
 11
6.374720
 21
2.220680
 12
6.410800
 22
1.519760
 13
6.410360
 23
2.258960
  0
POLYLINE
  8
0
  6
CONTINUOUS
 66
     1
 40
0.000000
 41
0.000000
  0
VERTEX
  8
0
  6
CONTINUOUS
 10
6.375160
 20
1.481920
  0
VERTEX
  8
0
  6
CONTINUOUS
 10
6.374720
 20
2.220680
  0
VERTEX
  8
0
  6
CONTINUOUS
 10
6.410360
 20
2.258960
  0
VERTEX
  8
0
  6
CONTINUOUS
 10
6.410800
 20
1.519760
  0
VERTEX
  8
0
  6
CONTINUOUS
 10
6.375160
 20
1.481920
  0
SEQEND
  8
0
  0
SOLID
  8
0
 62
    15
 10
6.410800
 20
1.519760
 11
6.410360
 21
2.258960
 12
6.452160
 22
1.547040
 13
6.451720
 23
2.286240
  0
POLYLINE
  8
0
  6
CONTINUOUS
 66
     1
 40
0.000000
 41
0.000000
  0
VERTEX
  8
0
  6
CONTINUOUS
 10
6.410800
 20
1.519760
  0
VERTEX
  8
0
  6
CONTINUOUS
 10
6.410360
 20
2.258960
  0
VERTEX
  8
0
  6
CONTINUOUS
 10
6.451720
 20
2.286240
  0
VERTEX
  8
0
  6
CONTINUOUS
 10
6.452160
 20
1.547040
  0
VERTEX
  8
0
  6
CONTINUOUS
 10
6.410800
 20
1.519760
  0
SEQEND
  8
0
  0
SOLID
  8
0
 62
    15
 10
6.452160
 20
1.547040
 11
6.451720
 21
2.286240
 12
6.497040
 22
1.562880
 13
6.496600
 23
2.302080
  0
POLYLINE
  8
0
  6
CONTINUOUS
 66
     1
 40
0.000000
 41
0.000000
  0
VERTEX
  8
0
  6
CONTINUOUS
 10
6.452160
 20
1.547040
  0
VERTEX
  8
0
  6
CONTINUOUS
 10
6.451720
 20
2.286240
  0
VERTEX
  8
0
  6
CONTINUOUS
 10
6.496600
 20
2.302080
  0
VERTEX
  8
0
  6
CONTINUOUS
 10
6.497040
 20
1.562880
  0
VERTEX
  8
0
  6
CONTINUOUS
 10
6.452160
 20
1.547040
  0
SEQEND
  8
0
  0
SOLID
  8
0
 62
    15
 10
6.497040
 20
1.562880
 11
6.496600
 21
2.302080
 12
6.543680
 22
1.567720
 13
6.543240
 23
2.306920
  0
POLYLINE
  8
0
  6
CONTINUOUS
 66
     1
 40
0.000000
 41
0.000000
  0
VERTEX
  8
0
  6
CONTINUOUS
 10
6.497040
 20
1.562880
  0
VERTEX
  8
0
  6
CONTINUOUS
 10
6.496600
 20
2.302080
  0
VERTEX
  8
0
  6
CONTINUOUS
 10
6.543240
 20
2.306920
  0
VERTEX
  8
0
  6
CONTINUOUS
 10
6.543680
 20
1.567720
  0
VERTEX
  8
0
  6
CONTINUOUS
 10
6.497040
 20
1.562880
  0
SEQEND
  8
0
  0
SOLID
  8
0
 62
    15
 10
6.543680
 20
1.567720
 11
6.543240
 21
2.306920
 12
6.589880
 22
1.561560
 13
6.589440
 23
2.300760
  0
POLYLINE
  8
0
  6
CONTINUOUS
 66
     1
 40
0.000000
 41
0.000000
  0
VERTEX
  8
0
  6
CONTINUOUS
 10
6.543680
 20
1.567720
  0
VERTEX
  8
0
  6
CONTINUOUS
 10
6.543240
 20
2.306920
  0
VERTEX
  8
0
  6
CONTINUOUS
 10
6.589440
 20
2.300760
  0
VERTEX
  8
0
  6
CONTINUOUS
 10
6.589880
 20
1.561560
  0
VERTEX
  8
0
  6
CONTINUOUS
 10
6.543680
 20
1.567720
  0
SEQEND
  8
0
  0
SOLID
  8
0
 62
    15
 10
6.589880
 20
1.561560
 11
6.589440
 21
2.300760
 12
6.633000
 22
1.543520
 13
6.632560
 23
2.282720
  0
POLYLINE
  8
0
  6
CONTINUOUS
 66
     1
 40
0.000000
 41
0.000000
  0
VERTEX
  8
0
  6
CONTINUOUS
 10
6.589880
 20
1.561560
  0
VERTEX
  8
0
  6
CONTINUOUS
 10
6.589440
 20
2.300760
  0
VERTEX
  8
0
  6
CONTINUOUS
 10
6.632560
 20
2.282720
  0
VERTEX
  8
0
  6
CONTINUOUS
 10
6.633000
 20
1.543520
  0
VERTEX
  8
0
  6
CONTINUOUS
 10
6.589880
 20
1.561560
  0
SEQEND
  8
0
  0
SOLID
  8
0
 62
    15
 10
6.633000
 20
1.543520
 11
6.632560
 21
2.282720
 12
6.671280
 22
1.514480
 13
6.671280
 23
2.253680
  0
POLYLINE
  8
0
  6
CONTINUOUS
 66
     1
 40
0.000000
 41
0.000000
  0
VERTEX
  8
0
  6
CONTINUOUS
 10
6.633000
 20
1.543520
  0
VERTEX
  8
0
  6
CONTINUOUS
 10
6.632560
 20
2.282720
  0
VERTEX
  8
0
  6
CONTINUOUS
 10
6.671280
 20
2.253680
  0
VERTEX
  8
0
  6
CONTINUOUS
 10
6.671280
 20
1.514480
  0
VERTEX
  8
0
  6
CONTINUOUS
 10
6.633000
 20
1.543520
  0
SEQEND
  8
0
  0
SOLID
  8
0
 62
    15
 10
6.671280
 20
1.514480
 11
6.671280
 21
2.253680
 12
6.688000
 22
1.495560
 13
6.687560
 23
2.234760
  0
POLYLINE
  8
0
  6
CONTINUOUS
 66
     1
 40
0.000000
 41
0.000000
  0
VERTEX
  8
0
  6
CONTINUOUS
 10
6.671280
 20
1.514480
  0
VERTEX
  8
0
  6
CONTINUOUS
 10
6.671280
 20
2.253680
  0
VERTEX
  8
0
  6
CONTINUOUS
 10
6.687560
 20
2.234760
  0
VERTEX
  8
0
  6
CONTINUOUS
 10
6.688000
 20
1.495560
  0
VERTEX
  8
0
  6
CONTINUOUS
 10
6.671280
 20
1.514480
  0
SEQEND
  8
0
  0
SOLID
  8
0
 62
    15
 10
6.688000
 20
1.495560
 11
6.687560
 21
2.234760
 12
6.702520
 22
1.474000
 13
6.702080
 23
2.212760
  0
POLYLINE
  8
0
  6
CONTINUOUS
 66
     1
 40
0.000000
 41
0.000000
  0
VERTEX
  8
0
  6
CONTINUOUS
 10
6.688000
 20
1.495560
  0
VERTEX
  8
0
  6
CONTINUOUS
 10
6.687560
 20
2.234760
  0
VERTEX
  8
0
  6
CONTINUOUS
 10
6.702080
 20
2.212760
  0
VERTEX
  8
0
  6
CONTINUOUS
 10
6.702520
 20
1.474000
  0
VERTEX
  8
0
  6
CONTINUOUS
 10
6.688000
 20
1.495560
  0
SEQEND
  8
0
  0
SOLID
  8
0
 62
    15
 10
6.702520
 20
1.474000
 11
6.702080
 21
2.212760
 12
6.713080
 22
1.611280
 13
6.712640
 23
2.350040
  0
POLYLINE
  8
0
  6
CONTINUOUS
 66
     1
 40
0.000000
 41
0.000000
  0
VERTEX
  8
0
  6
CONTINUOUS
 10
6.702520
 20
1.474000
  0
VERTEX
  8
0
  6
CONTINUOUS
 10
6.702080
 20
2.212760
  0
VERTEX
  8
0
  6
CONTINUOUS
 10
6.712640
 20
2.350040
  0
VERTEX
  8
0
  6
CONTINUOUS
 10
6.713080
 20
1.611280
  0
VERTEX
  8
0
  6
CONTINUOUS
 10
6.702520
 20
1.474000
  0
SEQEND
  8
0
  0
SOLID
  8
0
 62
    15
 10
6.713080
 20
1.611280
 11
6.712640
 21
2.350040
 12
7.314120
 22
1.611280
 13
7.313680
 23
2.350480
  0
POLYLINE
  8
0
  6
CONTINUOUS
 66
     1
 40
0.000000
 41
0.000000
  0
VERTEX
  8
0
  6
CONTINUOUS
 10
6.713080
 20
1.611280
  0
VERTEX
  8
0
  6
CONTINUOUS
 10
6.712640
 20
2.350040
  0
VERTEX
  8
0
  6
CONTINUOUS
 10
7.313680
 20
2.350480
  0
VERTEX
  8
0
  6
CONTINUOUS
 10
7.314120
 20
1.611280
  0
VERTEX
  8
0
  6
CONTINUOUS
 10
6.713080
 20
1.611280
  0
SEQEND
  8
0
  0
POLYLINE
  8
0
  6
CONTINUOUS
 66
     1
 40
0.000000
 41
0.000000
  0
VERTEX
  8
0
  6
CONTINUOUS
 10
7.313240
 20
1.611280
  0
VERTEX
  8
0
  6
CONTINUOUS
 10
7.313240
 20
0.862840
  0
VERTEX
  8
0
  6
CONTINUOUS
 10
3.779160
 20
0.862840
  0
VERTEX
  8
0
  6
CONTINUOUS
 10
3.779160
 20
1.611720
  0
VERTEX
  8
0
  6
CONTINUOUS
 10
4.358640
 20
1.611720
  0
VERTEX
  8
0
  6
CONTINUOUS
 10
4.369200
 20
1.474440
  0
VERTEX
  8
0
  6
CONTINUOUS
 10
4.383720
 20
1.496000
  0
VERTEX
  8
0
  6
CONTINUOUS
 10
4.400000
 20
1.514920
  0
VERTEX
  8
0
  6
CONTINUOUS
 10
4.438720
 20
1.544400
  0
VERTEX
  8
0
  6
CONTINUOUS
 10
4.481840
 20
1.562000
  0
VERTEX
  8
0
  6
CONTINUOUS
 10
4.528040
 20
1.568600
  0
VERTEX
  8
0
  6
CONTINUOUS
 10
4.574680
 20
1.563320
  0
VERTEX
  8
0
  6
CONTINUOUS
 10
4.619560
 20
1.547480
  0
VERTEX
  8
0
  6
CONTINUOUS
 10
4.660920
 20
1.520200
  0
VERTEX
  8
0
  6
CONTINUOUS
 10
4.696560
 20
1.482360
  0
VERTEX
  8
0
  6
CONTINUOUS
 10
4.726040
 20
1.516240
  0
VERTEX
  8
0
  6
CONTINUOUS
 10
4.759480
 20
1.543960
  0
VERTEX
  8
0
  6
CONTINUOUS
 10
4.796440
 20
1.563760
  0
VERTEX
  8
0
  6
CONTINUOUS
 10
4.835600
 20
1.573880
  0
VERTEX
  8
0
  6
CONTINUOUS
 10
4.876520
 20
1.573000
  0
VERTEX
  8
0
  6
CONTINUOUS
 10
4.919640
 20
1.559360
  0
VERTEX
  8
0
  6
CONTINUOUS
 10
4.941640
 20
1.547480
  0
VERTEX
  8
0
  6
CONTINUOUS
 10
4.963640
 20
1.531640
  0
VERTEX
  8
0
  6
CONTINUOUS
 10
4.985640
 20
1.511840
  0
VERTEX
  8
0
  6
CONTINUOUS
 10
5.053840
 20
1.441880
  0
VERTEX
  8
0
  6
CONTINUOUS
 10
5.100480
 20
1.408880
  0
VERTEX
  8
0
  6
CONTINUOUS
 10
5.145360
 20
1.386000
  0
VERTEX
  8
0
  6
CONTINUOUS
 10
5.187160
 20
1.371480
  0
VERTEX
  8
0
  6
CONTINUOUS
 10
5.223680
 20
1.364000
  0
VERTEX
  8
0
  6
CONTINUOUS
 10
5.251840
 20
1.360920
  0
VERTEX
  8
0
  6
CONTINUOUS
 10
5.277360
 20
1.360920
  0
VERTEX
  8
0
  6
CONTINUOUS
 10
5.291880
 20
1.383800
  0
VERTEX
  8
0
  6
CONTINUOUS
 10
5.306840
 20
1.403160
  0
VERTEX
  8
0
  6
CONTINUOUS
 10
5.322680
 20
1.419000
  0
VERTEX
  8
0
  6
CONTINUOUS
 10
5.339840
 20
1.431760
  0
VERTEX
  8
0
  6
CONTINUOUS
 10
5.378560
 20
1.448040
  0
VERTEX
  8
0
  6
CONTINUOUS
 10
5.425200
 20
1.453320
  0
VERTEX
  8
0
  6
CONTINUOUS
 10
5.437960
 20
1.489400
  0
VERTEX
  8
0
  6
CONTINUOUS
 10
5.457320
 20
1.514920
  0
VERTEX
  8
0
  6
CONTINUOUS
 10
5.470520
 20
1.523720
  0
VERTEX
  8
0
  6
CONTINUOUS
 10
5.487680
 20
1.529880
  0
VERTEX
  8
0
  6
CONTINUOUS
 10
5.508360
 20
1.533840
  0
VERTEX
  8
0
  6
CONTINUOUS
 10
5.538280
 20
1.534720
  0
VERTEX
  8
0
  6
CONTINUOUS
 10
5.563360
 20
1.533400
  0
VERTEX
  8
0
  6
CONTINUOUS
 10
5.584040
 20
1.529440
  0
VERTEX
  8
0
  6
CONTINUOUS
 10
5.601200
 20
1.523280
  0
VERTEX
  8
0
  6
CONTINUOUS
 10
5.614400
 20
1.514480
  0
VERTEX
  8
0
  6
CONTINUOUS
 10
5.633760
 20
1.488960
  0
VERTEX
  8
0
  6
CONTINUOUS
 10
5.646520
 20
1.452880
  0
VERTEX
  8
0
  6
CONTINUOUS
 10
5.693160
 20
1.447600
  0
VERTEX
  8
0
  6
CONTINUOUS
 10
5.731880
 20
1.431320
  0
VERTEX
  8
0
  6
CONTINUOUS
 10
5.749040
 20
1.418560
  0
VERTEX
  8
0
  6
CONTINUOUS
 10
5.764880
 20
1.402720
  0
VERTEX
  8
0
  6
CONTINUOUS
 10
5.779840
 20
1.383360
  0
VERTEX
  8
0
  6
CONTINUOUS
 10
5.794360
 20
1.360480
  0
VERTEX
  8
0
  6
CONTINUOUS
 10
5.819440
 20
1.360480
  0
VERTEX
  8
0
  6
CONTINUOUS
 10
5.848040
 20
1.363560
  0
VERTEX
  8
0
  6
CONTINUOUS
 10
5.884560
 20
1.371040
  0
VERTEX
  8
0
  6
CONTINUOUS
 10
5.926360
 20
1.385560
  0
VERTEX
  8
0
  6
CONTINUOUS
 10
5.971240
 20
1.408000
  0
VERTEX
  8
0
  6
CONTINUOUS
 10
6.017880
 20
1.441440
  0
VERTEX
  8
0
  6
CONTINUOUS
 10
6.086080
 20
1.510960
  0
VERTEX
  8
0
  6
CONTINUOUS
 10
6.108080
 20
1.530760
  0
VERTEX
  8
0
  6
CONTINUOUS
 10
6.130080
 20
1.547040
  0
VERTEX
  8
0
  6
CONTINUOUS
 10
6.152080
 20
1.558920
  0
VERTEX
  8
0
  6
CONTINUOUS
 10
6.194760
 20
1.572560
  0
VERTEX
  8
0
  6
CONTINUOUS
 10
6.236120
 20
1.573440
  0
VERTEX
  8
0
  6
CONTINUOUS
 10
6.275280
 20
1.563320
  0
VERTEX
  8
0
  6
CONTINUOUS
 10
6.312240
 20
1.543520
  0
VERTEX
  8
0
  6
CONTINUOUS
 10
6.345680
 20
1.515800
  0
VERTEX
  8
0
  6
CONTINUOUS
 10
6.375160
 20
1.481920
  0
VERTEX
  8
0
  6
CONTINUOUS
 10
6.410800
 20
1.519760
  0
VERTEX
  8
0
  6
CONTINUOUS
 10
6.452160
 20
1.547040
  0
VERTEX
  8
0
  6
CONTINUOUS
 10
6.497040
 20
1.562880
  0
VERTEX
  8
0
  6
CONTINUOUS
 10
6.543680
 20
1.567720
  0
VERTEX
  8
0
  6
CONTINUOUS
 10
6.589880
 20
1.561560
  0
VERTEX
  8
0
  6
CONTINUOUS
 10
6.633000
 20
1.543520
  0
VERTEX
  8
0
  6
CONTINUOUS
 10
6.671280
 20
1.514480
  0
VERTEX
  8
0
  6
CONTINUOUS
 10
6.688000
 20
1.495560
  0
VERTEX
  8
0
  6
CONTINUOUS
 10
6.702520
 20
1.474000
  0
VERTEX
  8
0
  6
CONTINUOUS
 10
6.713080
 20
1.611280
  0
VERTEX
  8
0
  6
CONTINUOUS
 10
7.314120
 20
1.611280
  0
VERTEX
  8
0
  6
CONTINUOUS
 10
7.313240
 20
1.611280
  0
SEQEND
  8
0
  0
TEXT
  8
0
 10
5.250520
 20
0.645920
 40
0.138054
  1
BA  907
 41
1.000000
  7
SN0
 71
     0
 72
     5
 11
5.840709
 21
0.645920
  0
TEXT
  8
0
 10
5.048560
 20
0.454080
 40
0.138054
  1
3/4" x 3-9/16"
 41
1.000000
  7
SN0
 71
     0
 72
     5
 11
6.041722
 21
0.454080
  0
POLYLINE
  8
0
  6
CONTINUOUS
 66
     1
 40
0.014080
 41
0.014080
  0
VERTEX
  8
0
  6
CONTINUOUS
 10
7.267040
 20
3.509000
  0
VERTEX
  8
0
  6
CONTINUOUS
 10
6.666000
 20
3.508560
  0
VERTEX
  8
0
  6
CONTINUOUS
 10
6.655440
 20
3.371280
  0
VERTEX
  8
0
  6
CONTINUOUS
 10
6.633000
 20
3.402960
  0
VERTEX
  8
0
  6
CONTINUOUS
 10
6.606160
 20
3.428040
  0
VERTEX
  8
0
  6
CONTINUOUS
 10
6.575800
 20
3.446520
  0
VERTEX
  8
0
  6
CONTINUOUS
 10
6.553800
 20
3.455760
  0
VERTEX
  8
0
  6
CONTINUOUS
 10
6.519920
 20
3.463680
  0
VERTEX
  8
0
  6
CONTINUOUS
 10
6.496600
 20
3.465440
  0
VERTEX
  8
0
  6
CONTINUOUS
 10
6.461400
 20
3.462800
  0
VERTEX
  8
0
  6
CONTINUOUS
 10
6.427080
 20
3.454000
  0
VERTEX
  8
0
  6
CONTINUOUS
 10
6.394080
 20
3.438600
  0
VERTEX
  8
0
  6
CONTINUOUS
 10
6.363280
 20
3.417480
  0
VERTEX
  8
0
  6
CONTINUOUS
 10
6.336440
 20
3.389760
  0
VERTEX
  8
0
  6
CONTINUOUS
 10
6.328080
 20
3.379200
  0
VERTEX
  8
0
  6
CONTINUOUS
 10
6.298160
 20
3.413080
  0
VERTEX
  8
0
  6
CONTINUOUS
 10
6.281880
 20
3.428040
  0
VERTEX
  8
0
  6
CONTINUOUS
 10
6.247120
 20
3.451800
  0
VERTEX
  8
0
  6
CONTINUOUS
 10
6.218960
 20
3.464120
  0
VERTEX
  8
0
  6
CONTINUOUS
 10
6.199160
 20
3.469400
  0
VERTEX
  8
0
  6
CONTINUOUS
 10
6.178920
 20
3.472040
  0
VERTEX
  8
0
  6
CONTINUOUS
 10
6.158240
 20
3.471600
  0
VERTEX
  8
0
  6
CONTINUOUS
 10
6.137120
 20
3.468080
  0
VERTEX
  8
0
  6
CONTINUOUS
 10
6.105000
 20
3.456200
  0
VERTEX
  8
0
  6
CONTINUOUS
 10
6.083000
 20
3.444320
  0
VERTEX
  8
0
  6
CONTINUOUS
 10
6.061000
 20
3.428480
  0
VERTEX
  8
0
  6
CONTINUOUS
 10
6.027560
 20
3.397240
  0
VERTEX
  8
0
  6
CONTINUOUS
 10
5.982680
 20
3.348840
  0
VERTEX
  8
0
  6
CONTINUOUS
 10
5.947480
 20
3.320680
  0
VERTEX
  8
0
  6
CONTINUOUS
 10
5.912720
 20
3.299120
  0
VERTEX
  8
0
  6
CONTINUOUS
 10
5.879280
 20
3.282840
  0
VERTEX
  8
0
  6
CONTINUOUS
 10
5.837480
 20
3.268760
  0
VERTEX
  8
0
  6
CONTINUOUS
 10
5.800960
 20
3.260840
  0
VERTEX
  8
0
  6
CONTINUOUS
 10
5.761800
 20
3.257320
  0
VERTEX
  8
0
  6
CONTINUOUS
 10
5.747280
 20
3.257760
  0
VERTEX
  8
0
  6
CONTINUOUS
 10
5.725280
 20
3.290760
  0
VERTEX
  8
0
  6
CONTINUOUS
 10
5.701960
 20
3.315840
  0
VERTEX
  8
0
  6
CONTINUOUS
 10
5.684800
 20
3.328600
  0
VERTEX
  8
0
  6
CONTINUOUS
 10
5.656640
 20
3.342240
  0
VERTEX
  8
0
  6
CONTINUOUS
 10
5.624080
 20
3.348840
  0
VERTEX
  8
0
  6
CONTINUOUS
 10
5.599440
 20
3.350160
  0
VERTEX
  8
0
  6
CONTINUOUS
 10
5.590200
 20
3.378320
  0
VERTEX
  8
0
  6
CONTINUOUS
 10
5.578320
 20
3.400320
  0
VERTEX
  8
0
  6
CONTINUOUS
 10
5.561160
 20
3.416600
  0
VERTEX
  8
0
  6
CONTINUOUS
 10
5.537400
 20
3.427160
  0
VERTEX
  8
0
  6
CONTINUOUS
 10
5.516280
 20
3.430680
  0
VERTEX
  8
0
  6
CONTINUOUS
 10
5.486360
 20
3.432440
  0
VERTEX
  8
0
  6
CONTINUOUS
 10
5.450280
 20
3.429800
  0
VERTEX
  8
0
  6
CONTINUOUS
 10
5.431360
 20
3.424520
  0
VERTEX
  8
0
  6
CONTINUOUS
 10
5.416400
 20
3.417040
  0
VERTEX
  8
0
  6
CONTINUOUS
 10
5.399240
 20
3.400760
  0
VERTEX
  8
0
  6
CONTINUOUS
 10
5.387360
 20
3.378760
  0
VERTEX
  8
0
  6
CONTINUOUS
 10
5.378120
 20
3.350600
  0
VERTEX
  8
0
  6
CONTINUOUS
 10
5.353480
 20
3.349280
  0
VERTEX
  8
0
  6
CONTINUOUS
 10
5.320920
 20
3.342680
  0
VERTEX
  8
0
  6
CONTINUOUS
 10
5.292760
 20
3.329040
  0
VERTEX
  8
0
  6
CONTINUOUS
 10
5.275600
 20
3.316280
  0
VERTEX
  8
0
  6
CONTINUOUS
 10
5.252280
 20
3.291200
  0
VERTEX
  8
0
  6
CONTINUOUS
 10
5.230280
 20
3.258200
  0
VERTEX
  8
0
  6
CONTINUOUS
 10
5.198600
 20
3.258640
  0
VERTEX
  8
0
  6
CONTINUOUS
 10
5.159000
 20
3.264360
  0
VERTEX
  8
0
  6
CONTINUOUS
 10
5.119840
 20
3.275360
  0
VERTEX
  8
0
  6
CONTINUOUS
 10
5.098280
 20
3.283280
  0
VERTEX
  8
0
  6
CONTINUOUS
 10
5.064840
 20
3.299560
  0
VERTEX
  8
0
  6
CONTINUOUS
 10
5.030080
 20
3.321120
  0
VERTEX
  8
0
  6
CONTINUOUS
 10
4.994880
 20
3.349280
  0
VERTEX
  8
0
  6
CONTINUOUS
 10
4.938560
 20
3.409120
  0
VERTEX
  8
0
  6
CONTINUOUS
 10
4.905560
 20
3.437280
  0
VERTEX
  8
0
  6
CONTINUOUS
 10
4.883560
 20
3.451360
  0
VERTEX
  8
0
  6
CONTINUOUS
 10
4.851000
 20
3.465440
  0
VERTEX
  8
0
  6
CONTINUOUS
 10
4.840440
 20
3.468520
  0
VERTEX
  8
0
  6
CONTINUOUS
 10
4.819320
 20
3.472040
  0
VERTEX
  8
0
  6
CONTINUOUS
 10
4.798640
 20
3.472480
  0
VERTEX
  8
0
  6
CONTINUOUS
 10
4.768720
 20
3.467640
  0
VERTEX
  8
0
  6
CONTINUOUS
 10
4.749360
 20
3.461040
  0
VERTEX
  8
0
  6
CONTINUOUS
 10
4.730440
 20
3.452240
  0
VERTEX
  8
0
  6
CONTINUOUS
 10
4.695680
 20
3.428480
  0
VERTEX
  8
0
  6
CONTINUOUS
 10
4.664000
 20
3.397240
  0
VERTEX
  8
0
  6
CONTINUOUS
 10
4.649480
 20
3.379640
  0
VERTEX
  8
0
  6
CONTINUOUS
 10
4.623520
 20
3.409120
  0
VERTEX
  8
0
  6
CONTINUOUS
 10
4.614280
 20
3.417920
  0
VERTEX
  8
0
  6
CONTINUOUS
 10
4.583480
 20
3.439040
  0
VERTEX
  8
0
  6
CONTINUOUS
 10
4.550480
 20
3.454440
  0
VERTEX
  8
0
  6
CONTINUOUS
 10
4.516160
 20
3.463240
  0
VERTEX
  8
0
  6
CONTINUOUS
 10
4.480960
 20
3.465880
  0
VERTEX
  8
0
  6
CONTINUOUS
 10
4.457640
 20
3.464120
  0
VERTEX
  8
0
  6
CONTINUOUS
 10
4.423760
 20
3.456200
  0
VERTEX
  8
0
  6
CONTINUOUS
 10
4.391640
 20
3.441680
  0
VERTEX
  8
0
  6
CONTINUOUS
 10
4.362160
 20
3.421000
  0
VERTEX
  8
0
  6
CONTINUOUS
 10
4.336640
 20
3.393720
  0
VERTEX
  8
0
  6
CONTINUOUS
 10
4.322120
 20
3.371720
  0
VERTEX
  8
0
  6
CONTINUOUS
 10
4.311560
 20
3.509000
  0
VERTEX
  8
0
  6
CONTINUOUS
 10
3.732080
 20
3.509000
  0
VERTEX
  8
0
  6
CONTINUOUS
 10
3.732080
 20
2.760120
  0
VERTEX
  8
0
  6
CONTINUOUS
 10
7.266160
 20
2.760120
  0
VERTEX
  8
0
  6
CONTINUOUS
 10
7.266160
 20
3.509000
  0
VERTEX
  8
0
  6
CONTINUOUS
 10
7.267040
 20
3.509000
  0
SEQEND
  8
0
  0
ENDSEC
  0
EOF
