  0
SECTION
  2
HEADER
  9
$ACADVER
  1
AC1006
  9
$EXTMIN
 10
3.301760
 20
0.642400
  9
$EXTMAX
 10
7.538520
 20
3.979360
  9
$LTSCALE
 40
0.044000
  9
$PDMODE
 70
    35
  9
$PDSIZE
 40
0.035200
  0
ENDSEC
  0
SECTION
  2
TABLES
  0
TABLE
  2
LTYPE
 70
     9
  0
LTYPE
  2
CONTINUOUS
 70
    64
  3
Solid line
 72
    65
 73
     0
 40
0.000000
  0
LTYPE
  2
DASHED
 70
    64
  3
__ __ __ __ __ __ __ __ __ __ __ __ __ __ __
 72
    65
 73
     2
 40
0.000330
 49
0.000220
 49
-0.000110
  0
LTYPE
  2
HIDDEN
 70
    64
  3
 _ _ _ _ _ _ _ _ _ _ _ _ _ _ _ _ _ _ _ _ _ _
 72
    65
 73
     2
 40
0.000165
 49
0.000110
 49
-0.000055
  0
LTYPE
  2
CENTER
 70
    64
  3
____ _ ____ _ ____ _ ____ _ ____ _ ____ _ ____
 72
    65
 73
     4
 40
0.000880
 49
0.000550
 49
-0.000110
 49
0.000110
 49
-0.000110
  0
LTYPE
  2
PHANTOM
 70
    64
  3
_____ _ _ _____ _ _ _____ _ _ _____ _ _ ____
 72
    65
 73
     6
 40
0.001100
 49
0.000550
 49
-0.000110
 49
0.000110
 49
-0.000110
 49
0.000110
 49
-0.000110
  0
LTYPE
  2
DOT
 70
    64
  3
...............................................
 72
    65
 73
     2
 40
0.000110
 49
0.000000
 49
-0.000110
  0
LTYPE
  2
DASHDOT
 70
    64
  3
__ . __ . __ . __ . __ . __ . __ . __ . __ . __
 72
    65
 73
     4
 40
0.000440
 49
0.000220
 49
-0.000110
 49
0.000000
 49
-0.000110
  0
LTYPE
  2
BORDER
 70
    64
  3
__ __ . __ __ . __ __ . __ __ . __ __ . __ __
 72
    65
 73
     6
 40
0.000770
 49
0.000220
 49
-0.000110
 49
0.000220
 49
-0.000110
 49
0.000000
 49
-0.000110
  0
LTYPE
  2
DIVIDE
 70
    64
  3
__ . . __ . . __ . . __ . . __ . . __ . . __
 72
    65
 73
     6
 40
0.000550
 49
0.000220
 49
-0.000110
 49
0.000000
 49
-0.000110
 49
0.000000
 49
-0.000110
  0
LTYPE
  2
DOTDOT
 70
    64
  3
 . .  . .  . .  . .  . .  . . 
 72
    65
 73
     5
 40
0.000242
 49
-0.000110
 49
0.000000
 49
-0.000110
 49
0.000000
 49
-0.000110
  0
ENDTAB
  0
TABLE
  2
STYLE
 70
     2
  0
STYLE
 70
     0
  2
SN0
 40
0.000000
 41
0.000440
 50
0.000000
 71
     0
 42
0.000000
  3
ROMAND
  0
STYLE
 70
    68
  2
SV0
 40
0.000000
 41
0.000440
 50
0.000000
 71
     0
 42
0.000000
  3
ROMAND
  0
ENDTAB
  0
TABLE
  2
LAYER
 70
     3
  0
LAYER
  2
FOREGROUND
 70
    64
 62
     7
  6
CONTINUOUS
  0
LAYER
  2
BACKGROUND
 70
    65
 62
    -7
  6
CONTINUOUS
  0
LAYER
  2
0
 70
    64
 62
     7
  6
CONTINUOUS
  0
ENDTAB
  0
ENDSEC
  0
SECTION
  2
ENTITIES
  0
POLYLINE
  8
FOREGROUND
  6
CONTINUOUS
 66
     1
 40
0.000000
 41
0.000000
  0
VERTEX
  8
FOREGROUND
  6
CONTINUOUS
 10
0.000000
 20
4.621760
  0
VERTEX
  8
FOREGROUND
  6
CONTINUOUS
 10
8.499920
 20
4.621760
  0
VERTEX
  8
FOREGROUND
  6
CONTINUOUS
 10
8.499920
 20
-6.378240
  0
VERTEX
  8
FOREGROUND
  6
CONTINUOUS
 10
0.000000
 20
-6.378240
  0
VERTEX
  8
FOREGROUND
  6
CONTINUOUS
 10
0.000000
 20
4.621760
  0
SEQEND
  8
0
  0
POLYLINE
  8
FOREGROUND
  6
CONTINUOUS
 66
     1
 40
0.000000
 41
0.000000
  0
VERTEX
  8
FOREGROUND
  6
CONTINUOUS
 10
0.000000
 20
4.621760
  0
VERTEX
  8
FOREGROUND
  6
CONTINUOUS
 10
8.499920
 20
4.621760
  0
VERTEX
  8
FOREGROUND
  6
CONTINUOUS
 10
8.499920
 20
-6.378240
  0
VERTEX
  8
FOREGROUND
  6
CONTINUOUS
 10
0.000000
 20
-6.378240
  0
VERTEX
  8
FOREGROUND
  6
CONTINUOUS
 10
0.000000
 20
4.621760
  0
SEQEND
  8
0
  0
SOLID
  8
0
 62
    15
 10
3.880360
 20
2.368960
 11
4.525840
 21
2.738120
 12
3.853960
 22
2.334640
 13
4.499440
 23
2.703800
  0
POLYLINE
  8
0
  6
CONTINUOUS
 66
     1
 40
0.000000
 41
0.000000
  0
VERTEX
  8
0
  6
CONTINUOUS
 10
3.880360
 20
2.368960
  0
VERTEX
  8
0
  6
CONTINUOUS
 10
4.525840
 20
2.738120
  0
VERTEX
  8
0
  6
CONTINUOUS
 10
4.499440
 20
2.703800
  0
VERTEX
  8
0
  6
CONTINUOUS
 10
3.853960
 20
2.334640
  0
VERTEX
  8
0
  6
CONTINUOUS
 10
3.880360
 20
2.368960
  0
SEQEND
  8
0
  0
SOLID
  8
0
 62
    15
 10
3.931840
 20
3.042600
 11
4.577320
 21
3.411320
 12
3.953840
 22
3.033360
 13
4.599760
 23
3.402520
  0
POLYLINE
  8
0
  6
CONTINUOUS
 66
     1
 40
0.000000
 41
0.000000
  0
VERTEX
  8
0
  6
CONTINUOUS
 10
3.931840
 20
3.042600
  0
VERTEX
  8
0
  6
CONTINUOUS
 10
4.577320
 20
3.411320
  0
VERTEX
  8
0
  6
CONTINUOUS
 10
4.599760
 20
3.402520
  0
VERTEX
  8
0
  6
CONTINUOUS
 10
3.953840
 20
3.033360
  0
VERTEX
  8
0
  6
CONTINUOUS
 10
3.931840
 20
3.042600
  0
SEQEND
  8
0
  0
SOLID
  8
0
 62
    15
 10
3.953840
 20
3.033360
 11
4.599760
 21
3.402520
 12
3.973640
 22
3.020160
 13
4.619120
 23
3.389320
  0
POLYLINE
  8
0
  6
CONTINUOUS
 66
     1
 40
0.000000
 41
0.000000
  0
VERTEX
  8
0
  6
CONTINUOUS
 10
3.953840
 20
3.033360
  0
VERTEX
  8
0
  6
CONTINUOUS
 10
4.599760
 20
3.402520
  0
VERTEX
  8
0
  6
CONTINUOUS
 10
4.619120
 20
3.389320
  0
VERTEX
  8
0
  6
CONTINUOUS
 10
3.973640
 20
3.020160
  0
VERTEX
  8
0
  6
CONTINUOUS
 10
3.953840
 20
3.033360
  0
SEQEND
  8
0
  0
SOLID
  8
0
 62
    15
 10
3.973640
 20
3.020160
 11
4.619120
 21
3.389320
 12
3.989920
 22
3.003440
 13
4.635840
 23
3.372600
  0
POLYLINE
  8
0
  6
CONTINUOUS
 66
     1
 40
0.000000
 41
0.000000
  0
VERTEX
  8
0
  6
CONTINUOUS
 10
3.973640
 20
3.020160
  0
VERTEX
  8
0
  6
CONTINUOUS
 10
4.619120
 20
3.389320
  0
VERTEX
  8
0
  6
CONTINUOUS
 10
4.635840
 20
3.372600
  0
VERTEX
  8
0
  6
CONTINUOUS
 10
3.989920
 20
3.003440
  0
VERTEX
  8
0
  6
CONTINUOUS
 10
3.973640
 20
3.020160
  0
SEQEND
  8
0
  0
SOLID
  8
0
 62
    15
 10
3.989920
 20
3.003440
 11
4.635840
 21
3.372600
 12
4.004000
 22
2.984080
 13
4.649480
 23
3.353240
  0
POLYLINE
  8
0
  6
CONTINUOUS
 66
     1
 40
0.000000
 41
0.000000
  0
VERTEX
  8
0
  6
CONTINUOUS
 10
3.989920
 20
3.003440
  0
VERTEX
  8
0
  6
CONTINUOUS
 10
4.635840
 20
3.372600
  0
VERTEX
  8
0
  6
CONTINUOUS
 10
4.649480
 20
3.353240
  0
VERTEX
  8
0
  6
CONTINUOUS
 10
4.004000
 20
2.984080
  0
VERTEX
  8
0
  6
CONTINUOUS
 10
3.989920
 20
3.003440
  0
SEQEND
  8
0
  0
SOLID
  8
0
 62
    15
 10
4.004000
 20
2.984080
 11
4.649480
 21
3.353240
 12
4.014560
 22
2.962520
 13
4.660040
 23
3.331240
  0
POLYLINE
  8
0
  6
CONTINUOUS
 66
     1
 40
0.000000
 41
0.000000
  0
VERTEX
  8
0
  6
CONTINUOUS
 10
4.004000
 20
2.984080
  0
VERTEX
  8
0
  6
CONTINUOUS
 10
4.649480
 20
3.353240
  0
VERTEX
  8
0
  6
CONTINUOUS
 10
4.660040
 20
3.331240
  0
VERTEX
  8
0
  6
CONTINUOUS
 10
4.014560
 20
2.962520
  0
VERTEX
  8
0
  6
CONTINUOUS
 10
4.004000
 20
2.984080
  0
SEQEND
  8
0
  0
SOLID
  8
0
 62
    15
 10
4.014560
 20
2.962520
 11
4.660040
 21
3.331240
 12
4.022040
 22
2.938760
 13
4.667520
 23
3.307920
  0
POLYLINE
  8
0
  6
CONTINUOUS
 66
     1
 40
0.000000
 41
0.000000
  0
VERTEX
  8
0
  6
CONTINUOUS
 10
4.014560
 20
2.962520
  0
VERTEX
  8
0
  6
CONTINUOUS
 10
4.660040
 20
3.331240
  0
VERTEX
  8
0
  6
CONTINUOUS
 10
4.667520
 20
3.307920
  0
VERTEX
  8
0
  6
CONTINUOUS
 10
4.022040
 20
2.938760
  0
VERTEX
  8
0
  6
CONTINUOUS
 10
4.014560
 20
2.962520
  0
SEQEND
  8
0
  0
SOLID
  8
0
 62
    15
 10
4.022040
 20
2.938760
 11
4.667520
 21
3.307920
 12
4.026440
 22
2.888600
 13
4.672360
 23
3.257760
  0
POLYLINE
  8
0
  6
CONTINUOUS
 66
     1
 40
0.000000
 41
0.000000
  0
VERTEX
  8
0
  6
CONTINUOUS
 10
4.022040
 20
2.938760
  0
VERTEX
  8
0
  6
CONTINUOUS
 10
4.667520
 20
3.307920
  0
VERTEX
  8
0
  6
CONTINUOUS
 10
4.672360
 20
3.257760
  0
VERTEX
  8
0
  6
CONTINUOUS
 10
4.026440
 20
2.888600
  0
VERTEX
  8
0
  6
CONTINUOUS
 10
4.022040
 20
2.938760
  0
SEQEND
  8
0
  0
SOLID
  8
0
 62
    15
 10
4.026440
 20
2.888600
 11
4.672360
 21
3.257760
 12
4.023360
 22
2.863520
 13
4.669280
 23
3.232240
  0
POLYLINE
  8
0
  6
CONTINUOUS
 66
     1
 40
0.000000
 41
0.000000
  0
VERTEX
  8
0
  6
CONTINUOUS
 10
4.026440
 20
2.888600
  0
VERTEX
  8
0
  6
CONTINUOUS
 10
4.672360
 20
3.257760
  0
VERTEX
  8
0
  6
CONTINUOUS
 10
4.669280
 20
3.232240
  0
VERTEX
  8
0
  6
CONTINUOUS
 10
4.023360
 20
2.863520
  0
VERTEX
  8
0
  6
CONTINUOUS
 10
4.026440
 20
2.888600
  0
SEQEND
  8
0
  0
SOLID
  8
0
 62
    15
 10
4.023360
 20
2.863520
 11
4.669280
 21
3.232240
 12
4.016320
 22
2.838440
 13
4.662240
 23
3.207600
  0
POLYLINE
  8
0
  6
CONTINUOUS
 66
     1
 40
0.000000
 41
0.000000
  0
VERTEX
  8
0
  6
CONTINUOUS
 10
4.023360
 20
2.863520
  0
VERTEX
  8
0
  6
CONTINUOUS
 10
4.669280
 20
3.232240
  0
VERTEX
  8
0
  6
CONTINUOUS
 10
4.662240
 20
3.207600
  0
VERTEX
  8
0
  6
CONTINUOUS
 10
4.016320
 20
2.838440
  0
VERTEX
  8
0
  6
CONTINUOUS
 10
4.023360
 20
2.863520
  0
SEQEND
  8
0
  0
SOLID
  8
0
 62
    15
 10
4.016320
 20
2.838440
 11
4.662240
 21
3.207600
 12
4.005760
 22
2.815120
 13
4.651240
 23
3.183840
  0
POLYLINE
  8
0
  6
CONTINUOUS
 66
     1
 40
0.000000
 41
0.000000
  0
VERTEX
  8
0
  6
CONTINUOUS
 10
4.016320
 20
2.838440
  0
VERTEX
  8
0
  6
CONTINUOUS
 10
4.662240
 20
3.207600
  0
VERTEX
  8
0
  6
CONTINUOUS
 10
4.651240
 20
3.183840
  0
VERTEX
  8
0
  6
CONTINUOUS
 10
4.005760
 20
2.815120
  0
VERTEX
  8
0
  6
CONTINUOUS
 10
4.016320
 20
2.838440
  0
SEQEND
  8
0
  0
SOLID
  8
0
 62
    15
 10
4.005760
 20
2.815120
 11
4.651240
 21
3.183840
 12
3.990800
 22
2.793120
 13
4.636280
 23
3.161840
  0
POLYLINE
  8
0
  6
CONTINUOUS
 66
     1
 40
0.000000
 41
0.000000
  0
VERTEX
  8
0
  6
CONTINUOUS
 10
4.005760
 20
2.815120
  0
VERTEX
  8
0
  6
CONTINUOUS
 10
4.651240
 20
3.183840
  0
VERTEX
  8
0
  6
CONTINUOUS
 10
4.636280
 20
3.161840
  0
VERTEX
  8
0
  6
CONTINUOUS
 10
3.990800
 20
2.793120
  0
VERTEX
  8
0
  6
CONTINUOUS
 10
4.005760
 20
2.815120
  0
SEQEND
  8
0
  0
SOLID
  8
0
 62
    15
 10
3.887400
 20
2.733280
 11
4.533320
 21
3.102000
 12
3.922160
 22
2.700720
 13
4.568080
 23
3.069880
  0
POLYLINE
  8
0
  6
CONTINUOUS
 66
     1
 40
0.000000
 41
0.000000
  0
VERTEX
  8
0
  6
CONTINUOUS
 10
3.887400
 20
2.733280
  0
VERTEX
  8
0
  6
CONTINUOUS
 10
4.533320
 20
3.102000
  0
VERTEX
  8
0
  6
CONTINUOUS
 10
4.568080
 20
3.069880
  0
VERTEX
  8
0
  6
CONTINUOUS
 10
3.922160
 20
2.700720
  0
VERTEX
  8
0
  6
CONTINUOUS
 10
3.887400
 20
2.733280
  0
SEQEND
  8
0
  0
SOLID
  8
0
 62
    15
 10
3.971440
 20
2.773320
 11
4.617360
 21
3.142040
 12
3.948120
 22
2.756160
 13
4.593600
 23
3.125320
  0
POLYLINE
  8
0
  6
CONTINUOUS
 66
     1
 40
0.000000
 41
0.000000
  0
VERTEX
  8
0
  6
CONTINUOUS
 10
3.971440
 20
2.773320
  0
VERTEX
  8
0
  6
CONTINUOUS
 10
4.617360
 20
3.142040
  0
VERTEX
  8
0
  6
CONTINUOUS
 10
4.593600
 20
3.125320
  0
VERTEX
  8
0
  6
CONTINUOUS
 10
3.948120
 20
2.756160
  0
VERTEX
  8
0
  6
CONTINUOUS
 10
3.971440
 20
2.773320
  0
SEQEND
  8
0
  0
SOLID
  8
0
 62
    15
 10
3.990800
 20
2.793120
 11
4.636280
 21
3.161840
 12
3.971440
 22
2.773320
 13
4.617360
 23
3.142040
  0
POLYLINE
  8
0
  6
CONTINUOUS
 66
     1
 40
0.000000
 41
0.000000
  0
VERTEX
  8
0
  6
CONTINUOUS
 10
3.990800
 20
2.793120
  0
VERTEX
  8
0
  6
CONTINUOUS
 10
4.636280
 20
3.161840
  0
VERTEX
  8
0
  6
CONTINUOUS
 10
4.617360
 20
3.142040
  0
VERTEX
  8
0
  6
CONTINUOUS
 10
3.971440
 20
2.773320
  0
VERTEX
  8
0
  6
CONTINUOUS
 10
3.990800
 20
2.793120
  0
SEQEND
  8
0
  0
SOLID
  8
0
 62
    15
 10
3.922160
 20
2.700720
 11
4.568080
 21
3.069880
 12
3.950320
 22
2.666400
 13
4.595800
 23
3.035120
  0
POLYLINE
  8
0
  6
CONTINUOUS
 66
     1
 40
0.000000
 41
0.000000
  0
VERTEX
  8
0
  6
CONTINUOUS
 10
3.922160
 20
2.700720
  0
VERTEX
  8
0
  6
CONTINUOUS
 10
4.568080
 20
3.069880
  0
VERTEX
  8
0
  6
CONTINUOUS
 10
4.595800
 20
3.035120
  0
VERTEX
  8
0
  6
CONTINUOUS
 10
3.950320
 20
2.666400
  0
VERTEX
  8
0
  6
CONTINUOUS
 10
3.922160
 20
2.700720
  0
SEQEND
  8
0
  0
SOLID
  8
0
 62
    15
 10
3.950320
 20
2.666400
 11
4.595800
 21
3.035120
 12
3.969680
 22
2.629000
 13
4.615160
 23
2.997720
  0
POLYLINE
  8
0
  6
CONTINUOUS
 66
     1
 40
0.000000
 41
0.000000
  0
VERTEX
  8
0
  6
CONTINUOUS
 10
3.950320
 20
2.666400
  0
VERTEX
  8
0
  6
CONTINUOUS
 10
4.595800
 20
3.035120
  0
VERTEX
  8
0
  6
CONTINUOUS
 10
4.615160
 20
2.997720
  0
VERTEX
  8
0
  6
CONTINUOUS
 10
3.969680
 20
2.629000
  0
VERTEX
  8
0
  6
CONTINUOUS
 10
3.950320
 20
2.666400
  0
SEQEND
  8
0
  0
SOLID
  8
0
 62
    15
 10
3.969680
 20
2.629000
 11
4.615160
 21
2.997720
 12
3.978480
 22
2.587640
 13
4.624400
 23
2.956360
  0
POLYLINE
  8
0
  6
CONTINUOUS
 66
     1
 40
0.000000
 41
0.000000
  0
VERTEX
  8
0
  6
CONTINUOUS
 10
3.969680
 20
2.629000
  0
VERTEX
  8
0
  6
CONTINUOUS
 10
4.615160
 20
2.997720
  0
VERTEX
  8
0
  6
CONTINUOUS
 10
4.624400
 20
2.956360
  0
VERTEX
  8
0
  6
CONTINUOUS
 10
3.978480
 20
2.587640
  0
VERTEX
  8
0
  6
CONTINUOUS
 10
3.969680
 20
2.629000
  0
SEQEND
  8
0
  0
SOLID
  8
0
 62
    15
 10
3.978480
 20
2.587640
 11
4.624400
 21
2.956360
 12
3.975840
 22
2.541880
 13
4.621760
 23
2.910600
  0
POLYLINE
  8
0
  6
CONTINUOUS
 66
     1
 40
0.000000
 41
0.000000
  0
VERTEX
  8
0
  6
CONTINUOUS
 10
3.978480
 20
2.587640
  0
VERTEX
  8
0
  6
CONTINUOUS
 10
4.624400
 20
2.956360
  0
VERTEX
  8
0
  6
CONTINUOUS
 10
4.621760
 20
2.910600
  0
VERTEX
  8
0
  6
CONTINUOUS
 10
3.975840
 20
2.541880
  0
VERTEX
  8
0
  6
CONTINUOUS
 10
3.978480
 20
2.587640
  0
SEQEND
  8
0
  0
SOLID
  8
0
 62
    15
 10
3.975840
 20
2.541880
 11
4.621760
 21
2.910600
 12
3.969680
 22
2.517240
 13
4.615160
 23
2.885960
  0
POLYLINE
  8
0
  6
CONTINUOUS
 66
     1
 40
0.000000
 41
0.000000
  0
VERTEX
  8
0
  6
CONTINUOUS
 10
3.975840
 20
2.541880
  0
VERTEX
  8
0
  6
CONTINUOUS
 10
4.621760
 20
2.910600
  0
VERTEX
  8
0
  6
CONTINUOUS
 10
4.615160
 20
2.885960
  0
VERTEX
  8
0
  6
CONTINUOUS
 10
3.969680
 20
2.517240
  0
VERTEX
  8
0
  6
CONTINUOUS
 10
3.975840
 20
2.541880
  0
SEQEND
  8
0
  0
SOLID
  8
0
 62
    15
 10
3.969680
 20
2.517240
 11
4.615160
 21
2.885960
 12
3.959560
 22
2.490840
 13
4.605480
 23
2.859560
  0
POLYLINE
  8
0
  6
CONTINUOUS
 66
     1
 40
0.000000
 41
0.000000
  0
VERTEX
  8
0
  6
CONTINUOUS
 10
3.969680
 20
2.517240
  0
VERTEX
  8
0
  6
CONTINUOUS
 10
4.615160
 20
2.885960
  0
VERTEX
  8
0
  6
CONTINUOUS
 10
4.605480
 20
2.859560
  0
VERTEX
  8
0
  6
CONTINUOUS
 10
3.959560
 20
2.490840
  0
VERTEX
  8
0
  6
CONTINUOUS
 10
3.969680
 20
2.517240
  0
SEQEND
  8
0
  0
SOLID
  8
0
 62
    15
 10
3.959560
 20
2.490840
 11
4.605480
 21
2.859560
 12
3.945920
 22
2.463120
 13
4.591840
 23
2.831840
  0
POLYLINE
  8
0
  6
CONTINUOUS
 66
     1
 40
0.000000
 41
0.000000
  0
VERTEX
  8
0
  6
CONTINUOUS
 10
3.959560
 20
2.490840
  0
VERTEX
  8
0
  6
CONTINUOUS
 10
4.605480
 20
2.859560
  0
VERTEX
  8
0
  6
CONTINUOUS
 10
4.591840
 20
2.831840
  0
VERTEX
  8
0
  6
CONTINUOUS
 10
3.945920
 20
2.463120
  0
VERTEX
  8
0
  6
CONTINUOUS
 10
3.959560
 20
2.490840
  0
SEQEND
  8
0
  0
SOLID
  8
0
 62
    15
 10
3.945920
 20
2.463120
 11
4.591840
 21
2.831840
 12
3.928320
 22
2.433200
 13
4.573800
 23
2.802360
  0
POLYLINE
  8
0
  6
CONTINUOUS
 66
     1
 40
0.000000
 41
0.000000
  0
VERTEX
  8
0
  6
CONTINUOUS
 10
3.945920
 20
2.463120
  0
VERTEX
  8
0
  6
CONTINUOUS
 10
4.591840
 20
2.831840
  0
VERTEX
  8
0
  6
CONTINUOUS
 10
4.573800
 20
2.802360
  0
VERTEX
  8
0
  6
CONTINUOUS
 10
3.928320
 20
2.433200
  0
VERTEX
  8
0
  6
CONTINUOUS
 10
3.945920
 20
2.463120
  0
SEQEND
  8
0
  0
SOLID
  8
0
 62
    15
 10
3.928320
 20
2.433200
 11
4.573800
 21
2.802360
 12
3.906320
 22
2.402400
 13
4.552240
 23
2.771120
  0
POLYLINE
  8
0
  6
CONTINUOUS
 66
     1
 40
0.000000
 41
0.000000
  0
VERTEX
  8
0
  6
CONTINUOUS
 10
3.928320
 20
2.433200
  0
VERTEX
  8
0
  6
CONTINUOUS
 10
4.573800
 20
2.802360
  0
VERTEX
  8
0
  6
CONTINUOUS
 10
4.552240
 20
2.771120
  0
VERTEX
  8
0
  6
CONTINUOUS
 10
3.906320
 20
2.402400
  0
VERTEX
  8
0
  6
CONTINUOUS
 10
3.928320
 20
2.433200
  0
SEQEND
  8
0
  0
SOLID
  8
0
 62
    15
 10
3.906320
 20
2.402400
 11
4.552240
 21
2.771120
 12
3.880360
 22
2.368960
 13
4.525840
 23
2.738120
  0
POLYLINE
  8
0
  6
CONTINUOUS
 66
     1
 40
0.000000
 41
0.000000
  0
VERTEX
  8
0
  6
CONTINUOUS
 10
3.906320
 20
2.402400
  0
VERTEX
  8
0
  6
CONTINUOUS
 10
4.552240
 20
2.771120
  0
VERTEX
  8
0
  6
CONTINUOUS
 10
4.525840
 20
2.738120
  0
VERTEX
  8
0
  6
CONTINUOUS
 10
3.880360
 20
2.368960
  0
VERTEX
  8
0
  6
CONTINUOUS
 10
3.906320
 20
2.402400
  0
SEQEND
  8
0
  0
SOLID
  8
0
 62
    15
 10
3.931840
 20
3.064600
 11
4.577320
 21
3.433320
 12
3.931840
 22
3.042600
 13
4.577320
 23
3.411320
  0
POLYLINE
  8
0
  6
CONTINUOUS
 66
     1
 40
0.000000
 41
0.000000
  0
VERTEX
  8
0
  6
CONTINUOUS
 10
3.931840
 20
3.064600
  0
VERTEX
  8
0
  6
CONTINUOUS
 10
4.577320
 20
3.433320
  0
VERTEX
  8
0
  6
CONTINUOUS
 10
4.577320
 20
3.411320
  0
VERTEX
  8
0
  6
CONTINUOUS
 10
3.931840
 20
3.042600
  0
VERTEX
  8
0
  6
CONTINUOUS
 10
3.931840
 20
3.064600
  0
SEQEND
  8
0
  0
SOLID
  8
0
 62
    15
 10
3.853960
 20
2.334640
 11
4.499440
 21
2.703800
 12
3.831520
 22
2.299880
 13
4.477000
 23
2.668600
  0
POLYLINE
  8
0
  6
CONTINUOUS
 66
     1
 40
0.000000
 41
0.000000
  0
VERTEX
  8
0
  6
CONTINUOUS
 10
3.853960
 20
2.334640
  0
VERTEX
  8
0
  6
CONTINUOUS
 10
4.499440
 20
2.703800
  0
VERTEX
  8
0
  6
CONTINUOUS
 10
4.477000
 20
2.668600
  0
VERTEX
  8
0
  6
CONTINUOUS
 10
3.831520
 20
2.299880
  0
VERTEX
  8
0
  6
CONTINUOUS
 10
3.853960
 20
2.334640
  0
SEQEND
  8
0
  0
SOLID
  8
0
 62
    15
 10
3.831520
 20
2.299880
 11
4.477000
 21
2.668600
 12
3.797200
 22
2.229920
 13
4.442680
 23
2.598640
  0
POLYLINE
  8
0
  6
CONTINUOUS
 66
     1
 40
0.000000
 41
0.000000
  0
VERTEX
  8
0
  6
CONTINUOUS
 10
3.831520
 20
2.299880
  0
VERTEX
  8
0
  6
CONTINUOUS
 10
4.477000
 20
2.668600
  0
VERTEX
  8
0
  6
CONTINUOUS
 10
4.442680
 20
2.598640
  0
VERTEX
  8
0
  6
CONTINUOUS
 10
3.797200
 20
2.229920
  0
VERTEX
  8
0
  6
CONTINUOUS
 10
3.831520
 20
2.299880
  0
SEQEND
  8
0
  0
SOLID
  8
0
 62
    15
 10
3.797200
 20
2.229920
 11
4.442680
 21
2.598640
 12
3.775200
 22
2.161280
 13
4.421120
 23
2.530000
  0
POLYLINE
  8
0
  6
CONTINUOUS
 66
     1
 40
0.000000
 41
0.000000
  0
VERTEX
  8
0
  6
CONTINUOUS
 10
3.797200
 20
2.229920
  0
VERTEX
  8
0
  6
CONTINUOUS
 10
4.442680
 20
2.598640
  0
VERTEX
  8
0
  6
CONTINUOUS
 10
4.421120
 20
2.530000
  0
VERTEX
  8
0
  6
CONTINUOUS
 10
3.775200
 20
2.161280
  0
VERTEX
  8
0
  6
CONTINUOUS
 10
3.797200
 20
2.229920
  0
SEQEND
  8
0
  0
SOLID
  8
0
 62
    15
 10
3.775200
 20
2.161280
 11
4.421120
 21
2.530000
 12
3.762880
 22
2.096160
 13
4.408800
 23
2.464880
  0
POLYLINE
  8
0
  6
CONTINUOUS
 66
     1
 40
0.000000
 41
0.000000
  0
VERTEX
  8
0
  6
CONTINUOUS
 10
3.775200
 20
2.161280
  0
VERTEX
  8
0
  6
CONTINUOUS
 10
4.421120
 20
2.530000
  0
VERTEX
  8
0
  6
CONTINUOUS
 10
4.408800
 20
2.464880
  0
VERTEX
  8
0
  6
CONTINUOUS
 10
3.762880
 20
2.096160
  0
VERTEX
  8
0
  6
CONTINUOUS
 10
3.775200
 20
2.161280
  0
SEQEND
  8
0
  0
SOLID
  8
0
 62
    15
 10
3.762880
 20
2.096160
 11
4.408800
 21
2.464880
 12
3.758040
 22
2.036760
 13
4.403520
 23
2.405480
  0
POLYLINE
  8
0
  6
CONTINUOUS
 66
     1
 40
0.000000
 41
0.000000
  0
VERTEX
  8
0
  6
CONTINUOUS
 10
3.762880
 20
2.096160
  0
VERTEX
  8
0
  6
CONTINUOUS
 10
4.408800
 20
2.464880
  0
VERTEX
  8
0
  6
CONTINUOUS
 10
4.403520
 20
2.405480
  0
VERTEX
  8
0
  6
CONTINUOUS
 10
3.758040
 20
2.036760
  0
VERTEX
  8
0
  6
CONTINUOUS
 10
3.762880
 20
2.096160
  0
SEQEND
  8
0
  0
SOLID
  8
0
 62
    15
 10
3.758040
 20
2.036760
 11
4.403520
 21
2.405480
 12
3.757160
 22
1.985280
 13
4.403080
 23
2.354000
  0
POLYLINE
  8
0
  6
CONTINUOUS
 66
     1
 40
0.000000
 41
0.000000
  0
VERTEX
  8
0
  6
CONTINUOUS
 10
3.758040
 20
2.036760
  0
VERTEX
  8
0
  6
CONTINUOUS
 10
4.403520
 20
2.405480
  0
VERTEX
  8
0
  6
CONTINUOUS
 10
4.403080
 20
2.354000
  0
VERTEX
  8
0
  6
CONTINUOUS
 10
3.757160
 20
1.985280
  0
VERTEX
  8
0
  6
CONTINUOUS
 10
3.758040
 20
2.036760
  0
SEQEND
  8
0
  0
SOLID
  8
0
 62
    15
 10
3.757160
 20
1.985280
 11
4.403080
 21
2.354000
 12
3.759360
 22
1.935560
 13
4.404840
 23
2.304280
  0
POLYLINE
  8
0
  6
CONTINUOUS
 66
     1
 40
0.000000
 41
0.000000
  0
VERTEX
  8
0
  6
CONTINUOUS
 10
3.757160
 20
1.985280
  0
VERTEX
  8
0
  6
CONTINUOUS
 10
4.403080
 20
2.354000
  0
VERTEX
  8
0
  6
CONTINUOUS
 10
4.404840
 20
2.304280
  0
VERTEX
  8
0
  6
CONTINUOUS
 10
3.759360
 20
1.935560
  0
VERTEX
  8
0
  6
CONTINUOUS
 10
3.757160
 20
1.985280
  0
SEQEND
  8
0
  0
SOLID
  8
0
 62
    15
 10
3.759360
 20
1.935560
 11
4.404840
 21
2.304280
 12
3.759800
 22
1.927640
 13
4.405280
 23
2.296800
  0
POLYLINE
  8
0
  6
CONTINUOUS
 66
     1
 40
0.000000
 41
0.000000
  0
VERTEX
  8
0
  6
CONTINUOUS
 10
3.759360
 20
1.935560
  0
VERTEX
  8
0
  6
CONTINUOUS
 10
4.404840
 20
2.304280
  0
VERTEX
  8
0
  6
CONTINUOUS
 10
4.405280
 20
2.296800
  0
VERTEX
  8
0
  6
CONTINUOUS
 10
3.759800
 20
1.927640
  0
VERTEX
  8
0
  6
CONTINUOUS
 10
3.759360
 20
1.935560
  0
SEQEND
  8
0
  0
SOLID
  8
0
 62
    15
 10
3.628680
 20
1.410640
 11
4.274160
 21
1.779800
 12
3.617680
 22
1.380720
 13
4.263600
 23
1.749880
  0
POLYLINE
  8
0
  6
CONTINUOUS
 66
     1
 40
0.000000
 41
0.000000
  0
VERTEX
  8
0
  6
CONTINUOUS
 10
3.628680
 20
1.410640
  0
VERTEX
  8
0
  6
CONTINUOUS
 10
4.274160
 20
1.779800
  0
VERTEX
  8
0
  6
CONTINUOUS
 10
4.263600
 20
1.749880
  0
VERTEX
  8
0
  6
CONTINUOUS
 10
3.617680
 20
1.380720
  0
VERTEX
  8
0
  6
CONTINUOUS
 10
3.628680
 20
1.410640
  0
SEQEND
  8
0
  0
SOLID
  8
0
 62
    15
 10
3.617680
 20
1.380720
 11
4.263600
 21
1.749880
 12
3.602720
 22
1.352560
 13
4.248200
 23
1.721720
  0
POLYLINE
  8
0
  6
CONTINUOUS
 66
     1
 40
0.000000
 41
0.000000
  0
VERTEX
  8
0
  6
CONTINUOUS
 10
3.617680
 20
1.380720
  0
VERTEX
  8
0
  6
CONTINUOUS
 10
4.263600
 20
1.749880
  0
VERTEX
  8
0
  6
CONTINUOUS
 10
4.248200
 20
1.721720
  0
VERTEX
  8
0
  6
CONTINUOUS
 10
3.602720
 20
1.352560
  0
VERTEX
  8
0
  6
CONTINUOUS
 10
3.617680
 20
1.380720
  0
SEQEND
  8
0
  0
SOLID
  8
0
 62
    15
 10
3.602720
 20
1.352560
 11
4.248200
 21
1.721720
 12
3.564880
 22
1.303720
 13
4.210800
 23
1.672440
  0
POLYLINE
  8
0
  6
CONTINUOUS
 66
     1
 40
0.000000
 41
0.000000
  0
VERTEX
  8
0
  6
CONTINUOUS
 10
3.602720
 20
1.352560
  0
VERTEX
  8
0
  6
CONTINUOUS
 10
4.248200
 20
1.721720
  0
VERTEX
  8
0
  6
CONTINUOUS
 10
4.210800
 20
1.672440
  0
VERTEX
  8
0
  6
CONTINUOUS
 10
3.564880
 20
1.303720
  0
VERTEX
  8
0
  6
CONTINUOUS
 10
3.602720
 20
1.352560
  0
SEQEND
  8
0
  0
SOLID
  8
0
 62
    15
 10
3.707000
 20
1.894200
 11
4.352920
 21
2.262920
 12
3.707000
 22
1.410640
 13
4.352920
 23
1.779800
  0
POLYLINE
  8
0
  6
CONTINUOUS
 66
     1
 40
0.000000
 41
0.000000
  0
VERTEX
  8
0
  6
CONTINUOUS
 10
3.707000
 20
1.894200
  0
VERTEX
  8
0
  6
CONTINUOUS
 10
4.352920
 20
2.262920
  0
VERTEX
  8
0
  6
CONTINUOUS
 10
4.352920
 20
1.779800
  0
VERTEX
  8
0
  6
CONTINUOUS
 10
3.707000
 20
1.410640
  0
VERTEX
  8
0
  6
CONTINUOUS
 10
3.707000
 20
1.894200
  0
SEQEND
  8
0
  0
SOLID
  8
0
 62
    15
 10
3.759800
 20
1.927640
 11
4.405280
 21
2.296800
 12
3.759800
 22
1.914880
 13
4.405720
 23
2.284040
  0
POLYLINE
  8
0
  6
CONTINUOUS
 66
     1
 40
0.000000
 41
0.000000
  0
VERTEX
  8
0
  6
CONTINUOUS
 10
3.759800
 20
1.927640
  0
VERTEX
  8
0
  6
CONTINUOUS
 10
4.405280
 20
2.296800
  0
VERTEX
  8
0
  6
CONTINUOUS
 10
4.405720
 20
2.284040
  0
VERTEX
  8
0
  6
CONTINUOUS
 10
3.759800
 20
1.914880
  0
VERTEX
  8
0
  6
CONTINUOUS
 10
3.759800
 20
1.927640
  0
SEQEND
  8
0
  0
SOLID
  8
0
 62
    15
 10
3.564880
 20
1.303720
 11
4.210800
 21
1.672440
 12
3.545520
 22
1.283480
 13
4.191000
 23
1.652640
  0
POLYLINE
  8
0
  6
CONTINUOUS
 66
     1
 40
0.000000
 41
0.000000
  0
VERTEX
  8
0
  6
CONTINUOUS
 10
3.564880
 20
1.303720
  0
VERTEX
  8
0
  6
CONTINUOUS
 10
4.210800
 20
1.672440
  0
VERTEX
  8
0
  6
CONTINUOUS
 10
4.191000
 20
1.652640
  0
VERTEX
  8
0
  6
CONTINUOUS
 10
3.545520
 20
1.283480
  0
VERTEX
  8
0
  6
CONTINUOUS
 10
3.564880
 20
1.303720
  0
SEQEND
  8
0
  0
SOLID
  8
0
 62
    15
 10
3.545520
 20
1.283480
 11
4.191000
 21
1.652640
 12
3.527040
 22
1.267200
 13
4.172960
 23
1.636360
  0
POLYLINE
  8
0
  6
CONTINUOUS
 66
     1
 40
0.000000
 41
0.000000
  0
VERTEX
  8
0
  6
CONTINUOUS
 10
3.545520
 20
1.283480
  0
VERTEX
  8
0
  6
CONTINUOUS
 10
4.191000
 20
1.652640
  0
VERTEX
  8
0
  6
CONTINUOUS
 10
4.172960
 20
1.636360
  0
VERTEX
  8
0
  6
CONTINUOUS
 10
3.527040
 20
1.267200
  0
VERTEX
  8
0
  6
CONTINUOUS
 10
3.545520
 20
1.283480
  0
SEQEND
  8
0
  0
SOLID
  8
0
 62
    15
 10
3.501080
 20
1.248280
 11
4.146560
 21
1.617000
 12
3.491400
 22
1.240360
 13
4.136880
 23
1.609520
  0
POLYLINE
  8
0
  6
CONTINUOUS
 66
     1
 40
0.000000
 41
0.000000
  0
VERTEX
  8
0
  6
CONTINUOUS
 10
3.501080
 20
1.248280
  0
VERTEX
  8
0
  6
CONTINUOUS
 10
4.146560
 20
1.617000
  0
VERTEX
  8
0
  6
CONTINUOUS
 10
4.136880
 20
1.609520
  0
VERTEX
  8
0
  6
CONTINUOUS
 10
3.491400
 20
1.240360
  0
VERTEX
  8
0
  6
CONTINUOUS
 10
3.501080
 20
1.248280
  0
SEQEND
  8
0
  0
SOLID
  8
0
 62
    15
 10
3.512080
 20
1.255320
 11
4.157560
 21
1.624480
 12
3.501080
 22
1.248280
 13
4.146560
 23
1.617000
  0
POLYLINE
  8
0
  6
CONTINUOUS
 66
     1
 40
0.000000
 41
0.000000
  0
VERTEX
  8
0
  6
CONTINUOUS
 10
3.512080
 20
1.255320
  0
VERTEX
  8
0
  6
CONTINUOUS
 10
4.157560
 20
1.624480
  0
VERTEX
  8
0
  6
CONTINUOUS
 10
4.146560
 20
1.617000
  0
VERTEX
  8
0
  6
CONTINUOUS
 10
3.501080
 20
1.248280
  0
VERTEX
  8
0
  6
CONTINUOUS
 10
3.512080
 20
1.255320
  0
SEQEND
  8
0
  0
SOLID
  8
0
 62
    15
 10
3.527040
 20
1.267200
 11
4.172960
 21
1.636360
 12
3.512080
 22
1.255320
 13
4.157560
 23
1.624480
  0
POLYLINE
  8
0
  6
CONTINUOUS
 66
     1
 40
0.000000
 41
0.000000
  0
VERTEX
  8
0
  6
CONTINUOUS
 10
3.527040
 20
1.267200
  0
VERTEX
  8
0
  6
CONTINUOUS
 10
4.172960
 20
1.636360
  0
VERTEX
  8
0
  6
CONTINUOUS
 10
4.157560
 20
1.624480
  0
VERTEX
  8
0
  6
CONTINUOUS
 10
3.512080
 20
1.255320
  0
VERTEX
  8
0
  6
CONTINUOUS
 10
3.527040
 20
1.267200
  0
SEQEND
  8
0
  0
SOLID
  8
0
 62
    15
 10
3.491400
 20
1.240360
 11
4.136880
 21
1.609520
 12
3.479080
 22
1.228040
 13
4.124560
 23
1.596760
  0
POLYLINE
  8
0
  6
CONTINUOUS
 66
     1
 40
0.000000
 41
0.000000
  0
VERTEX
  8
0
  6
CONTINUOUS
 10
3.491400
 20
1.240360
  0
VERTEX
  8
0
  6
CONTINUOUS
 10
4.136880
 20
1.609520
  0
VERTEX
  8
0
  6
CONTINUOUS
 10
4.124560
 20
1.596760
  0
VERTEX
  8
0
  6
CONTINUOUS
 10
3.479080
 20
1.228040
  0
VERTEX
  8
0
  6
CONTINUOUS
 10
3.491400
 20
1.240360
  0
SEQEND
  8
0
  0
SOLID
  8
0
 62
    15
 10
3.479080
 20
1.228040
 11
4.124560
 21
1.596760
 12
3.452240
 22
1.192840
 13
4.097720
 23
1.561560
  0
POLYLINE
  8
0
  6
CONTINUOUS
 66
     1
 40
0.000000
 41
0.000000
  0
VERTEX
  8
0
  6
CONTINUOUS
 10
3.479080
 20
1.228040
  0
VERTEX
  8
0
  6
CONTINUOUS
 10
4.124560
 20
1.596760
  0
VERTEX
  8
0
  6
CONTINUOUS
 10
4.097720
 20
1.561560
  0
VERTEX
  8
0
  6
CONTINUOUS
 10
3.452240
 20
1.192840
  0
VERTEX
  8
0
  6
CONTINUOUS
 10
3.479080
 20
1.228040
  0
SEQEND
  8
0
  0
SOLID
  8
0
 62
    15
 10
3.452240
 20
1.192840
 11
4.097720
 21
1.561560
 12
3.429360
 22
1.151920
 13
4.075280
 23
1.521080
  0
POLYLINE
  8
0
  6
CONTINUOUS
 66
     1
 40
0.000000
 41
0.000000
  0
VERTEX
  8
0
  6
CONTINUOUS
 10
3.452240
 20
1.192840
  0
VERTEX
  8
0
  6
CONTINUOUS
 10
4.097720
 20
1.561560
  0
VERTEX
  8
0
  6
CONTINUOUS
 10
4.075280
 20
1.521080
  0
VERTEX
  8
0
  6
CONTINUOUS
 10
3.429360
 20
1.151920
  0
VERTEX
  8
0
  6
CONTINUOUS
 10
3.452240
 20
1.192840
  0
SEQEND
  8
0
  0
SOLID
  8
0
 62
    15
 10
3.429360
 20
1.151920
 11
4.075280
 21
1.521080
 12
3.422760
 22
1.132560
 13
4.068240
 23
1.501720
  0
POLYLINE
  8
0
  6
CONTINUOUS
 66
     1
 40
0.000000
 41
0.000000
  0
VERTEX
  8
0
  6
CONTINUOUS
 10
3.429360
 20
1.151920
  0
VERTEX
  8
0
  6
CONTINUOUS
 10
4.075280
 20
1.521080
  0
VERTEX
  8
0
  6
CONTINUOUS
 10
4.068240
 20
1.501720
  0
VERTEX
  8
0
  6
CONTINUOUS
 10
3.422760
 20
1.132560
  0
VERTEX
  8
0
  6
CONTINUOUS
 10
3.429360
 20
1.151920
  0
SEQEND
  8
0
  0
SOLID
  8
0
 62
    15
 10
3.422760
 20
1.132560
 11
4.068240
 21
1.501720
 12
3.420120
 22
1.115400
 13
4.065600
 23
1.484560
  0
POLYLINE
  8
0
  6
CONTINUOUS
 66
     1
 40
0.000000
 41
0.000000
  0
VERTEX
  8
0
  6
CONTINUOUS
 10
3.422760
 20
1.132560
  0
VERTEX
  8
0
  6
CONTINUOUS
 10
4.068240
 20
1.501720
  0
VERTEX
  8
0
  6
CONTINUOUS
 10
4.065600
 20
1.484560
  0
VERTEX
  8
0
  6
CONTINUOUS
 10
3.420120
 20
1.115400
  0
VERTEX
  8
0
  6
CONTINUOUS
 10
3.422760
 20
1.132560
  0
SEQEND
  8
0
  0
SOLID
  8
0
 62
    15
 10
3.302200
 20
3.609760
 11
3.947680
 21
3.978480
 12
4.058560
 22
3.609760
 13
4.704480
 23
3.978480
  0
POLYLINE
  8
0
  6
CONTINUOUS
 66
     1
 40
0.000000
 41
0.000000
  0
VERTEX
  8
0
  6
CONTINUOUS
 10
3.302200
 20
3.609760
  0
VERTEX
  8
0
  6
CONTINUOUS
 10
3.947680
 20
3.978480
  0
VERTEX
  8
0
  6
CONTINUOUS
 10
4.704480
 20
3.978480
  0
VERTEX
  8
0
  6
CONTINUOUS
 10
4.058560
 20
3.609760
  0
VERTEX
  8
0
  6
CONTINUOUS
 10
3.302200
 20
3.609760
  0
SEQEND
  8
0
  0
SOLID
  8
0
 62
    15
 10
4.058560
 20
3.609760
 11
4.704480
 21
3.978480
 12
4.058560
 22
3.064160
 13
4.704480
 23
3.432880
  0
POLYLINE
  8
0
  6
CONTINUOUS
 66
     1
 40
0.000000
 41
0.000000
  0
VERTEX
  8
0
  6
CONTINUOUS
 10
4.058560
 20
3.609760
  0
VERTEX
  8
0
  6
CONTINUOUS
 10
4.704480
 20
3.978480
  0
VERTEX
  8
0
  6
CONTINUOUS
 10
4.704480
 20
3.432880
  0
VERTEX
  8
0
  6
CONTINUOUS
 10
4.058560
 20
3.064160
  0
VERTEX
  8
0
  6
CONTINUOUS
 10
4.058560
 20
3.609760
  0
SEQEND
  8
0
  0
POLYLINE
  8
0
  6
CONTINUOUS
 66
     1
 40
0.000000
 41
0.000000
  0
VERTEX
  8
0
  6
CONTINUOUS
 10
4.056800
 20
3.064600
  0
VERTEX
  8
0
  6
CONTINUOUS
 10
3.931840
 20
3.064600
  0
VERTEX
  8
0
  6
CONTINUOUS
 10
3.931840
 20
3.042600
  0
VERTEX
  8
0
  6
CONTINUOUS
 10
3.953840
 20
3.033360
  0
VERTEX
  8
0
  6
CONTINUOUS
 10
3.973640
 20
3.020160
  0
VERTEX
  8
0
  6
CONTINUOUS
 10
3.989920
 20
3.003440
  0
VERTEX
  8
0
  6
CONTINUOUS
 10
4.004000
 20
2.984080
  0
VERTEX
  8
0
  6
CONTINUOUS
 10
4.014560
 20
2.962520
  0
VERTEX
  8
0
  6
CONTINUOUS
 10
4.022040
 20
2.938760
  0
VERTEX
  8
0
  6
CONTINUOUS
 10
4.026440
 20
2.888600
  0
VERTEX
  8
0
  6
CONTINUOUS
 10
4.023360
 20
2.863520
  0
VERTEX
  8
0
  6
CONTINUOUS
 10
4.016320
 20
2.838440
  0
VERTEX
  8
0
  6
CONTINUOUS
 10
4.005760
 20
2.815120
  0
VERTEX
  8
0
  6
CONTINUOUS
 10
3.990800
 20
2.793120
  0
VERTEX
  8
0
  6
CONTINUOUS
 10
3.971440
 20
2.773320
  0
VERTEX
  8
0
  6
CONTINUOUS
 10
3.948120
 20
2.756160
  0
VERTEX
  8
0
  6
CONTINUOUS
 10
3.919960
 20
2.742960
  0
VERTEX
  8
0
  6
CONTINUOUS
 10
3.887400
 20
2.733280
  0
VERTEX
  8
0
  6
CONTINUOUS
 10
3.922160
 20
2.700720
  0
VERTEX
  8
0
  6
CONTINUOUS
 10
3.950320
 20
2.666400
  0
VERTEX
  8
0
  6
CONTINUOUS
 10
3.969680
 20
2.629000
  0
VERTEX
  8
0
  6
CONTINUOUS
 10
3.978480
 20
2.587640
  0
VERTEX
  8
0
  6
CONTINUOUS
 10
3.975840
 20
2.541880
  0
VERTEX
  8
0
  6
CONTINUOUS
 10
3.969680
 20
2.517240
  0
VERTEX
  8
0
  6
CONTINUOUS
 10
3.959560
 20
2.490840
  0
VERTEX
  8
0
  6
CONTINUOUS
 10
3.945920
 20
2.463120
  0
VERTEX
  8
0
  6
CONTINUOUS
 10
3.928320
 20
2.433200
  0
VERTEX
  8
0
  6
CONTINUOUS
 10
3.880360
 20
2.368960
  0
VERTEX
  8
0
  6
CONTINUOUS
 10
3.853960
 20
2.334640
  0
VERTEX
  8
0
  6
CONTINUOUS
 10
3.831520
 20
2.299880
  0
VERTEX
  8
0
  6
CONTINUOUS
 10
3.797200
 20
2.229920
  0
VERTEX
  8
0
  6
CONTINUOUS
 10
3.775200
 20
2.161280
  0
VERTEX
  8
0
  6
CONTINUOUS
 10
3.762880
 20
2.096160
  0
VERTEX
  8
0
  6
CONTINUOUS
 10
3.758040
 20
2.036760
  0
VERTEX
  8
0
  6
CONTINUOUS
 10
3.757160
 20
1.985280
  0
VERTEX
  8
0
  6
CONTINUOUS
 10
3.759800
 20
1.914880
  0
VERTEX
  8
0
  6
CONTINUOUS
 10
3.707000
 20
1.894200
  0
VERTEX
  8
0
  6
CONTINUOUS
 10
3.707000
 20
1.410640
  0
VERTEX
  8
0
  6
CONTINUOUS
 10
3.628680
 20
1.410640
  0
VERTEX
  8
0
  6
CONTINUOUS
 10
3.617680
 20
1.380720
  0
VERTEX
  8
0
  6
CONTINUOUS
 10
3.602720
 20
1.352560
  0
VERTEX
  8
0
  6
CONTINUOUS
 10
3.564880
 20
1.303720
  0
VERTEX
  8
0
  6
CONTINUOUS
 10
3.545520
 20
1.283480
  0
VERTEX
  8
0
  6
CONTINUOUS
 10
3.512080
 20
1.255320
  0
VERTEX
  8
0
  6
CONTINUOUS
 10
3.491400
 20
1.240360
  0
VERTEX
  8
0
  6
CONTINUOUS
 10
3.479080
 20
1.228040
  0
VERTEX
  8
0
  6
CONTINUOUS
 10
3.452240
 20
1.192840
  0
VERTEX
  8
0
  6
CONTINUOUS
 10
3.429360
 20
1.151920
  0
VERTEX
  8
0
  6
CONTINUOUS
 10
3.422760
 20
1.132560
  0
VERTEX
  8
0
  6
CONTINUOUS
 10
3.420120
 20
1.115400
  0
VERTEX
  8
0
  6
CONTINUOUS
 10
3.302200
 20
1.115400
  0
VERTEX
  8
0
  6
CONTINUOUS
 10
3.302200
 20
3.609760
  0
VERTEX
  8
0
  6
CONTINUOUS
 10
4.058560
 20
3.609760
  0
VERTEX
  8
0
  6
CONTINUOUS
 10
4.058560
 20
3.064160
  0
VERTEX
  8
0
  6
CONTINUOUS
 10
4.056800
 20
3.064600
  0
SEQEND
  8
0
  0
TEXT
  8
0
 10
3.707000
 20
0.877360
 40
0.138265
  1
BA  906
 41
1.000000
  7
SN0
 71
     0
 72
     5
 11
4.296545
 21
0.877360
  0
TEXT
  8
0
 10
3.551240
 20
0.685960
 40
0.138265
  1
3/4" x 2-1/2"
 41
1.000000
  7
SN0
 71
     0
 72
     5
 11
4.450704
 21
0.685960
  0
POLYLINE
  8
0
  6
CONTINUOUS
 66
     1
 40
0.014080
 41
0.014080
  0
VERTEX
  8
0
  6
CONTINUOUS
 10
5.582280
 20
3.944160
  0
VERTEX
  8
0
  6
CONTINUOUS
 10
5.582280
 20
3.819200
  0
VERTEX
  8
0
  6
CONTINUOUS
 10
5.604280
 20
3.819200
  0
VERTEX
  8
0
  6
CONTINUOUS
 10
5.613520
 20
3.841200
  0
VERTEX
  8
0
  6
CONTINUOUS
 10
5.626720
 20
3.861000
  0
VERTEX
  8
0
  6
CONTINUOUS
 10
5.643000
 20
3.877280
  0
VERTEX
  8
0
  6
CONTINUOUS
 10
5.662800
 20
3.891360
  0
VERTEX
  8
0
  6
CONTINUOUS
 10
5.684360
 20
3.901920
  0
VERTEX
  8
0
  6
CONTINUOUS
 10
5.708120
 20
3.909400
  0
VERTEX
  8
0
  6
CONTINUOUS
 10
5.732760
 20
3.913360
  0
VERTEX
  8
0
  6
CONTINUOUS
 10
5.758280
 20
3.913800
  0
VERTEX
  8
0
  6
CONTINUOUS
 10
5.783360
 20
3.910720
  0
VERTEX
  8
0
  6
CONTINUOUS
 10
5.808440
 20
3.903680
  0
VERTEX
  8
0
  6
CONTINUOUS
 10
5.831760
 20
3.893120
  0
VERTEX
  8
0
  6
CONTINUOUS
 10
5.853760
 20
3.878160
  0
VERTEX
  8
0
  6
CONTINUOUS
 10
5.864320
 20
3.869360
  0
VERTEX
  8
0
  6
CONTINUOUS
 10
5.882360
 20
3.847800
  0
VERTEX
  8
0
  6
CONTINUOUS
 10
5.897760
 20
3.822280
  0
VERTEX
  8
0
  6
CONTINUOUS
 10
5.909200
 20
3.791920
  0
VERTEX
  8
0
  6
CONTINUOUS
 10
5.913600
 20
3.775200
  0
VERTEX
  8
0
  6
CONTINUOUS
 10
5.946160
 20
3.809960
  0
VERTEX
  8
0
  6
CONTINUOUS
 10
5.962880
 20
3.824920
  0
VERTEX
  8
0
  6
CONTINUOUS
 10
5.980480
 20
3.837680
  0
VERTEX
  8
0
  6
CONTINUOUS
 10
6.008200
 20
3.853080
  0
VERTEX
  8
0
  6
CONTINUOUS
 10
6.038120
 20
3.863200
  0
VERTEX
  8
0
  6
CONTINUOUS
 10
6.059240
 20
3.866280
  0
VERTEX
  8
0
  6
CONTINUOUS
 10
6.081680
 20
3.866280
  0
VERTEX
  8
0
  6
CONTINUOUS
 10
6.105000
 20
3.863640
  0
VERTEX
  8
0
  6
CONTINUOUS
 10
6.142840
 20
3.852640
  0
VERTEX
  8
0
  6
CONTINUOUS
 10
6.184200
 20
3.833720
  0
VERTEX
  8
0
  6
CONTINUOUS
 10
6.229080
 20
3.805560
  0
VERTEX
  8
0
  6
CONTINUOUS
 10
6.312240
 20
3.741320
  0
VERTEX
  8
0
  6
CONTINUOUS
 10
6.347000
 20
3.718880
  0
VERTEX
  8
0
  6
CONTINUOUS
 10
6.382200
 20
3.699960
  0
VERTEX
  8
0
  6
CONTINUOUS
 10
6.417400
 20
3.684560
  0
VERTEX
  8
0
  6
CONTINUOUS
 10
6.468880
 20
3.667400
  0
VERTEX
  8
0
  6
CONTINUOUS
 10
6.519040
 20
3.655520
  0
VERTEX
  8
0
  6
CONTINUOUS
 10
6.581520
 20
3.647160
  0
VERTEX
  8
0
  6
CONTINUOUS
 10
6.636960
 20
3.644960
  0
VERTEX
  8
0
  6
CONTINUOUS
 10
6.719240
 20
3.647160
  0
VERTEX
  8
0
  6
CONTINUOUS
 10
6.732000
 20
3.647600
  0
VERTEX
  8
0
  6
CONTINUOUS
 10
6.752680
 20
3.594800
  0
VERTEX
  8
0
  6
CONTINUOUS
 10
7.236240
 20
3.594800
  0
VERTEX
  8
0
  6
CONTINUOUS
 10
7.236240
 20
3.516040
  0
VERTEX
  8
0
  6
CONTINUOUS
 10
7.266160
 20
3.505040
  0
VERTEX
  8
0
  6
CONTINUOUS
 10
7.294320
 20
3.490080
  0
VERTEX
  8
0
  6
CONTINUOUS
 10
7.332160
 20
3.461920
  0
VERTEX
  8
0
  6
CONTINUOUS
 10
7.363400
 20
3.432880
  0
VERTEX
  8
0
  6
CONTINUOUS
 10
7.391560
 20
3.399440
  0
VERTEX
  8
0
  6
CONTINUOUS
 10
7.406080
 20
3.378760
  0
VERTEX
  8
0
  6
CONTINUOUS
 10
7.435120
 20
3.353240
  0
VERTEX
  8
0
  6
CONTINUOUS
 10
7.474280
 20
3.327280
  0
VERTEX
  8
0
  6
CONTINUOUS
 10
7.504640
 20
3.313200
  0
VERTEX
  8
0
  6
CONTINUOUS
 10
7.523120
 20
3.308360
  0
VERTEX
  8
0
  6
CONTINUOUS
 10
7.531480
 20
3.307480
  0
VERTEX
  8
0
  6
CONTINUOUS
 10
7.531480
 20
3.189560
  0
VERTEX
  8
0
  6
CONTINUOUS
 10
5.037120
 20
3.189560
  0
VERTEX
  8
0
  6
CONTINUOUS
 10
5.037120
 20
3.945920
  0
VERTEX
  8
0
  6
CONTINUOUS
 10
5.582720
 20
3.945920
  0
VERTEX
  8
0
  6
CONTINUOUS
 10
5.582280
 20
3.944160
  0
SEQEND
  8
0
  0
ENDSEC
  0
EOF
