  0
SECTION
  2
HEADER
  9
$ACADVER
  1
AC1006
  9
$EXTMIN
 10
4.375800
 20
2.241800
  9
$EXTMAX
 10
7.362960
 20
4.078360
  9
$LTSCALE
 40
0.044000
  9
$PDMODE
 70
    35
  9
$PDSIZE
 40
0.035200
  0
ENDSEC
  0
SECTION
  2
TABLES
  0
TABLE
  2
LTYPE
 70
     9
  0
LTYPE
  2
CONTINUOUS
 70
    64
  3
Solid line
 72
    65
 73
     0
 40
0.000000
  0
LTYPE
  2
DASHED
 70
    64
  3
__ __ __ __ __ __ __ __ __ __ __ __ __ __ __
 72
    65
 73
     2
 40
0.000330
 49
0.000220
 49
-0.000110
  0
LTYPE
  2
HIDDEN
 70
    64
  3
 _ _ _ _ _ _ _ _ _ _ _ _ _ _ _ _ _ _ _ _ _ _
 72
    65
 73
     2
 40
0.000165
 49
0.000110
 49
-0.000055
  0
LTYPE
  2
CENTER
 70
    64
  3
____ _ ____ _ ____ _ ____ _ ____ _ ____ _ ____
 72
    65
 73
     4
 40
0.000880
 49
0.000550
 49
-0.000110
 49
0.000110
 49
-0.000110
  0
LTYPE
  2
PHANTOM
 70
    64
  3
_____ _ _ _____ _ _ _____ _ _ _____ _ _ ____
 72
    65
 73
     6
 40
0.001100
 49
0.000550
 49
-0.000110
 49
0.000110
 49
-0.000110
 49
0.000110
 49
-0.000110
  0
LTYPE
  2
DOT
 70
    64
  3
...............................................
 72
    65
 73
     2
 40
0.000110
 49
0.000000
 49
-0.000110
  0
LTYPE
  2
DASHDOT
 70
    64
  3
__ . __ . __ . __ . __ . __ . __ . __ . __ . __
 72
    65
 73
     4
 40
0.000440
 49
0.000220
 49
-0.000110
 49
0.000000
 49
-0.000110
  0
LTYPE
  2
BORDER
 70
    64
  3
__ __ . __ __ . __ __ . __ __ . __ __ . __ __
 72
    65
 73
     6
 40
0.000770
 49
0.000220
 49
-0.000110
 49
0.000220
 49
-0.000110
 49
0.000000
 49
-0.000110
  0
LTYPE
  2
DIVIDE
 70
    64
  3
__ . . __ . . __ . . __ . . __ . . __ . . __
 72
    65
 73
     6
 40
0.000550
 49
0.000220
 49
-0.000110
 49
0.000000
 49
-0.000110
 49
0.000000
 49
-0.000110
  0
LTYPE
  2
DOTDOT
 70
    64
  3
 . .  . .  . .  . .  . .  . . 
 72
    65
 73
     5
 40
0.000242
 49
-0.000110
 49
0.000000
 49
-0.000110
 49
0.000000
 49
-0.000110
  0
ENDTAB
  0
TABLE
  2
STYLE
 70
     2
  0
STYLE
 70
     0
  2
SN0
 40
0.000000
 41
0.000440
 50
0.000000
 71
     0
 42
0.000000
  3
ROMAND
  0
STYLE
 70
    68
  2
SV0
 40
0.000000
 41
0.000440
 50
0.000000
 71
     0
 42
0.000000
  3
ROMAND
  0
ENDTAB
  0
TABLE
  2
LAYER
 70
     3
  0
LAYER
  2
FOREGROUND
 70
    64
 62
     7
  6
CONTINUOUS
  0
LAYER
  2
BACKGROUND
 70
    65
 62
    -7
  6
CONTINUOUS
  0
LAYER
  2
0
 70
    64
 62
     7
  6
CONTINUOUS
  0
ENDTAB
  0
ENDSEC
  0
SECTION
  2
ENTITIES
  0
POLYLINE
  8
FOREGROUND
  6
CONTINUOUS
 66
     1
 40
0.000000
 41
0.000000
  0
VERTEX
  8
FOREGROUND
  6
CONTINUOUS
 10
0.000000
 20
6.320160
  0
VERTEX
  8
FOREGROUND
  6
CONTINUOUS
 10
8.499920
 20
6.320160
  0
VERTEX
  8
FOREGROUND
  6
CONTINUOUS
 10
8.499920
 20
-4.679840
  0
VERTEX
  8
FOREGROUND
  6
CONTINUOUS
 10
0.000000
 20
-4.679840
  0
VERTEX
  8
FOREGROUND
  6
CONTINUOUS
 10
0.000000
 20
6.320160
  0
SEQEND
  8
0
  0
POLYLINE
  8
FOREGROUND
  6
CONTINUOUS
 66
     1
 40
0.000000
 41
0.000000
  0
VERTEX
  8
FOREGROUND
  6
CONTINUOUS
 10
0.000000
 20
6.320160
  0
VERTEX
  8
FOREGROUND
  6
CONTINUOUS
 10
8.499920
 20
6.320160
  0
VERTEX
  8
FOREGROUND
  6
CONTINUOUS
 10
8.499920
 20
-4.679840
  0
VERTEX
  8
FOREGROUND
  6
CONTINUOUS
 10
0.000000
 20
-4.679840
  0
VERTEX
  8
FOREGROUND
  6
CONTINUOUS
 10
0.000000
 20
6.320160
  0
SEQEND
  8
0
  0
POLYLINE
  8
0
  6
CONTINUOUS
 66
     1
 40
0.014080
 41
0.014080
  0
VERTEX
  8
0
  6
CONTINUOUS
 10
7.356360
 20
3.003880
  0
VERTEX
  8
0
  6
CONTINUOUS
 10
6.356240
 20
3.003880
  0
VERTEX
  8
0
  6
CONTINUOUS
 10
6.356240
 20
4.002240
  0
VERTEX
  8
0
  6
CONTINUOUS
 10
6.382200
 20
4.001800
  0
VERTEX
  8
0
  6
CONTINUOUS
 10
6.407720
 20
4.000920
  0
VERTEX
  8
0
  6
CONTINUOUS
 10
6.433240
 20
3.999160
  0
VERTEX
  8
0
  6
CONTINUOUS
 10
6.458320
 20
3.996960
  0
VERTEX
  8
0
  6
CONTINUOUS
 10
6.483400
 20
3.994320
  0
VERTEX
  8
0
  6
CONTINUOUS
 10
6.508480
 20
3.990800
  0
VERTEX
  8
0
  6
CONTINUOUS
 10
6.557760
 20
3.982000
  0
VERTEX
  8
0
  6
CONTINUOUS
 10
6.581960
 20
3.976720
  0
VERTEX
  8
0
  6
CONTINUOUS
 10
6.606160
 20
3.970560
  0
VERTEX
  8
0
  6
CONTINUOUS
 10
6.629920
 20
3.964400
  0
VERTEX
  8
0
  6
CONTINUOUS
 10
6.653240
 20
3.957360
  0
VERTEX
  8
0
  6
CONTINUOUS
 10
6.676560
 20
3.949880
  0
VERTEX
  8
0
  6
CONTINUOUS
 10
6.699880
 20
3.941520
  0
VERTEX
  8
0
  6
CONTINUOUS
 10
6.745200
 20
3.923480
  0
VERTEX
  8
0
  6
CONTINUOUS
 10
6.789640
 20
3.903680
  0
VERTEX
  8
0
  6
CONTINUOUS
 10
6.832760
 20
3.881680
  0
VERTEX
  8
0
  6
CONTINUOUS
 10
6.874560
 20
3.857480
  0
VERTEX
  8
0
  6
CONTINUOUS
 10
6.915040
 20
3.831520
  0
VERTEX
  8
0
  6
CONTINUOUS
 10
6.954200
 20
3.803360
  0
VERTEX
  8
0
  6
CONTINUOUS
 10
6.992040
 20
3.773880
  0
VERTEX
  8
0
  6
CONTINUOUS
 10
7.028120
 20
3.742200
  0
VERTEX
  8
0
  6
CONTINUOUS
 10
7.062880
 20
3.709200
  0
VERTEX
  8
0
  6
CONTINUOUS
 10
7.095880
 20
3.674440
  0
VERTEX
  8
0
  6
CONTINUOUS
 10
7.127560
 20
3.638360
  0
VERTEX
  8
0
  6
CONTINUOUS
 10
7.157040
 20
3.600520
  0
VERTEX
  8
0
  6
CONTINUOUS
 10
7.185200
 20
3.561360
  0
VERTEX
  8
0
  6
CONTINUOUS
 10
7.211160
 20
3.520880
  0
VERTEX
  8
0
  6
CONTINUOUS
 10
7.235360
 20
3.479080
  0
VERTEX
  8
0
  6
CONTINUOUS
 10
7.257360
 20
3.435960
  0
VERTEX
  8
0
  6
CONTINUOUS
 10
7.277160
 20
3.391520
  0
VERTEX
  8
0
  6
CONTINUOUS
 10
7.295200
 20
3.346200
  0
VERTEX
  8
0
  6
CONTINUOUS
 10
7.303560
 20
3.322880
  0
VERTEX
  8
0
  6
CONTINUOUS
 10
7.311040
 20
3.299560
  0
VERTEX
  8
0
  6
CONTINUOUS
 10
7.318080
 20
3.276240
  0
VERTEX
  8
0
  6
CONTINUOUS
 10
7.324240
 20
3.252480
  0
VERTEX
  8
0
  6
CONTINUOUS
 10
7.330400
 20
3.228280
  0
VERTEX
  8
0
  6
CONTINUOUS
 10
7.335680
 20
3.204080
  0
VERTEX
  8
0
  6
CONTINUOUS
 10
7.344480
 20
3.154800
  0
VERTEX
  8
0
  6
CONTINUOUS
 10
7.348000
 20
3.129720
  0
VERTEX
  8
0
  6
CONTINUOUS
 10
7.350640
 20
3.104640
  0
VERTEX
  8
0
  6
CONTINUOUS
 10
7.352840
 20
3.079560
  0
VERTEX
  8
0
  6
CONTINUOUS
 10
7.354600
 20
3.054040
  0
VERTEX
  8
0
  6
CONTINUOUS
 10
7.355480
 20
3.028520
  0
VERTEX
  8
0
  6
CONTINUOUS
 10
7.355920
 20
3.002560
  0
VERTEX
  8
0
  6
CONTINUOUS
 10
7.356360
 20
3.003880
  0
SEQEND
  8
0
  0
TEXT
  8
0
 10
6.661600
 20
2.760560
 40
0.138012
  1
905
 41
1.000000
  7
SN0
 71
     0
 72
     5
 11
6.938808
 21
2.760560
  0
TEXT
  8
0
 10
6.724520
 20
2.568720
 40
0.138012
  1
1" 
 41
1.000000
  7
SN0
 71
     0
 72
     5
 11
6.921822
 21
2.568720
  0
SOLID
  8
0
 62
    15
 10
5.083760
 20
3.407800
 11
5.732320
 21
3.784880
 12
5.148000
 22
3.336520
 13
5.797000
 23
3.713600
  0
POLYLINE
  8
0
  6
CONTINUOUS
 66
     1
 40
0.000000
 41
0.000000
  0
VERTEX
  8
0
  6
CONTINUOUS
 10
5.083760
 20
3.407800
  0
VERTEX
  8
0
  6
CONTINUOUS
 10
5.732320
 20
3.784880
  0
VERTEX
  8
0
  6
CONTINUOUS
 10
5.797000
 20
3.713600
  0
VERTEX
  8
0
  6
CONTINUOUS
 10
5.148000
 20
3.336520
  0
VERTEX
  8
0
  6
CONTINUOUS
 10
5.083760
 20
3.407800
  0
SEQEND
  8
0
  0
SOLID
  8
0
 62
    15
 10
4.478760
 20
3.695560
 11
5.127320
 21
4.072640
 12
4.578200
 22
3.680160
 13
5.226760
 23
4.057240
  0
POLYLINE
  8
0
  6
CONTINUOUS
 66
     1
 40
0.000000
 41
0.000000
  0
VERTEX
  8
0
  6
CONTINUOUS
 10
4.478760
 20
3.695560
  0
VERTEX
  8
0
  6
CONTINUOUS
 10
5.127320
 20
4.072640
  0
VERTEX
  8
0
  6
CONTINUOUS
 10
5.226760
 20
4.057240
  0
VERTEX
  8
0
  6
CONTINUOUS
 10
4.578200
 20
3.680160
  0
VERTEX
  8
0
  6
CONTINUOUS
 10
4.478760
 20
3.695560
  0
SEQEND
  8
0
  0
SOLID
  8
0
 62
    15
 10
4.578200
 20
3.680160
 11
5.226760
 21
4.057240
 12
4.674120
 22
3.655520
 13
5.322680
 23
4.032600
  0
POLYLINE
  8
0
  6
CONTINUOUS
 66
     1
 40
0.000000
 41
0.000000
  0
VERTEX
  8
0
  6
CONTINUOUS
 10
4.578200
 20
3.680160
  0
VERTEX
  8
0
  6
CONTINUOUS
 10
5.226760
 20
4.057240
  0
VERTEX
  8
0
  6
CONTINUOUS
 10
5.322680
 20
4.032600
  0
VERTEX
  8
0
  6
CONTINUOUS
 10
4.674120
 20
3.655520
  0
VERTEX
  8
0
  6
CONTINUOUS
 10
4.578200
 20
3.680160
  0
SEQEND
  8
0
  0
SOLID
  8
0
 62
    15
 10
4.674120
 20
3.655520
 11
5.322680
 21
4.032600
 12
4.765640
 22
3.622080
 13
5.414640
 23
3.999160
  0
POLYLINE
  8
0
  6
CONTINUOUS
 66
     1
 40
0.000000
 41
0.000000
  0
VERTEX
  8
0
  6
CONTINUOUS
 10
4.674120
 20
3.655520
  0
VERTEX
  8
0
  6
CONTINUOUS
 10
5.322680
 20
4.032600
  0
VERTEX
  8
0
  6
CONTINUOUS
 10
5.414640
 20
3.999160
  0
VERTEX
  8
0
  6
CONTINUOUS
 10
4.765640
 20
3.622080
  0
VERTEX
  8
0
  6
CONTINUOUS
 10
4.674120
 20
3.655520
  0
SEQEND
  8
0
  0
SOLID
  8
0
 62
    15
 10
4.765640
 20
3.622080
 11
5.414640
 21
3.999160
 12
4.853200
 22
3.579840
 13
5.501760
 23
3.956920
  0
POLYLINE
  8
0
  6
CONTINUOUS
 66
     1
 40
0.000000
 41
0.000000
  0
VERTEX
  8
0
  6
CONTINUOUS
 10
4.765640
 20
3.622080
  0
VERTEX
  8
0
  6
CONTINUOUS
 10
5.414640
 20
3.999160
  0
VERTEX
  8
0
  6
CONTINUOUS
 10
5.501760
 20
3.956920
  0
VERTEX
  8
0
  6
CONTINUOUS
 10
4.853200
 20
3.579840
  0
VERTEX
  8
0
  6
CONTINUOUS
 10
4.765640
 20
3.622080
  0
SEQEND
  8
0
  0
SOLID
  8
0
 62
    15
 10
4.853200
 20
3.579840
 11
5.501760
 21
3.956920
 12
4.935480
 22
3.529680
 13
5.584480
 23
3.906760
  0
POLYLINE
  8
0
  6
CONTINUOUS
 66
     1
 40
0.000000
 41
0.000000
  0
VERTEX
  8
0
  6
CONTINUOUS
 10
4.853200
 20
3.579840
  0
VERTEX
  8
0
  6
CONTINUOUS
 10
5.501760
 20
3.956920
  0
VERTEX
  8
0
  6
CONTINUOUS
 10
5.584480
 20
3.906760
  0
VERTEX
  8
0
  6
CONTINUOUS
 10
4.935480
 20
3.529680
  0
VERTEX
  8
0
  6
CONTINUOUS
 10
4.853200
 20
3.579840
  0
SEQEND
  8
0
  0
SOLID
  8
0
 62
    15
 10
4.935480
 20
3.529680
 11
5.584480
 21
3.906760
 12
5.012480
 22
3.472480
 13
5.661040
 23
3.849120
  0
POLYLINE
  8
0
  6
CONTINUOUS
 66
     1
 40
0.000000
 41
0.000000
  0
VERTEX
  8
0
  6
CONTINUOUS
 10
4.935480
 20
3.529680
  0
VERTEX
  8
0
  6
CONTINUOUS
 10
5.584480
 20
3.906760
  0
VERTEX
  8
0
  6
CONTINUOUS
 10
5.661040
 20
3.849120
  0
VERTEX
  8
0
  6
CONTINUOUS
 10
5.012480
 20
3.472480
  0
VERTEX
  8
0
  6
CONTINUOUS
 10
4.935480
 20
3.529680
  0
SEQEND
  8
0
  0
SOLID
  8
0
 62
    15
 10
5.012480
 20
3.472480
 11
5.661040
 21
3.849120
 12
5.083760
 22
3.407800
 13
5.732320
 23
3.784880
  0
POLYLINE
  8
0
  6
CONTINUOUS
 66
     1
 40
0.000000
 41
0.000000
  0
VERTEX
  8
0
  6
CONTINUOUS
 10
5.012480
 20
3.472480
  0
VERTEX
  8
0
  6
CONTINUOUS
 10
5.661040
 20
3.849120
  0
VERTEX
  8
0
  6
CONTINUOUS
 10
5.732320
 20
3.784880
  0
VERTEX
  8
0
  6
CONTINUOUS
 10
5.083760
 20
3.407800
  0
VERTEX
  8
0
  6
CONTINUOUS
 10
5.012480
 20
3.472480
  0
SEQEND
  8
0
  0
SOLID
  8
0
 62
    15
 10
4.376680
 20
3.700400
 11
5.025240
 21
4.077480
 12
4.478760
 22
3.695560
 13
5.127320
 23
4.072640
  0
POLYLINE
  8
0
  6
CONTINUOUS
 66
     1
 40
0.000000
 41
0.000000
  0
VERTEX
  8
0
  6
CONTINUOUS
 10
4.376680
 20
3.700400
  0
VERTEX
  8
0
  6
CONTINUOUS
 10
5.025240
 20
4.077480
  0
VERTEX
  8
0
  6
CONTINUOUS
 10
5.127320
 20
4.072640
  0
VERTEX
  8
0
  6
CONTINUOUS
 10
4.478760
 20
3.695560
  0
VERTEX
  8
0
  6
CONTINUOUS
 10
4.376680
 20
3.700400
  0
SEQEND
  8
0
  0
SOLID
  8
0
 62
    15
 10
5.148000
 20
3.336520
 11
5.797000
 21
3.713600
 12
5.205640
 22
3.259960
 13
5.854200
 23
3.636600
  0
POLYLINE
  8
0
  6
CONTINUOUS
 66
     1
 40
0.000000
 41
0.000000
  0
VERTEX
  8
0
  6
CONTINUOUS
 10
5.148000
 20
3.336520
  0
VERTEX
  8
0
  6
CONTINUOUS
 10
5.797000
 20
3.713600
  0
VERTEX
  8
0
  6
CONTINUOUS
 10
5.854200
 20
3.636600
  0
VERTEX
  8
0
  6
CONTINUOUS
 10
5.205640
 20
3.259960
  0
VERTEX
  8
0
  6
CONTINUOUS
 10
5.148000
 20
3.336520
  0
SEQEND
  8
0
  0
SOLID
  8
0
 62
    15
 10
5.205640
 20
3.259960
 11
5.854200
 21
3.636600
 12
5.255800
 22
3.177240
 13
5.904360
 23
3.554320
  0
POLYLINE
  8
0
  6
CONTINUOUS
 66
     1
 40
0.000000
 41
0.000000
  0
VERTEX
  8
0
  6
CONTINUOUS
 10
5.205640
 20
3.259960
  0
VERTEX
  8
0
  6
CONTINUOUS
 10
5.854200
 20
3.636600
  0
VERTEX
  8
0
  6
CONTINUOUS
 10
5.904360
 20
3.554320
  0
VERTEX
  8
0
  6
CONTINUOUS
 10
5.255800
 20
3.177240
  0
VERTEX
  8
0
  6
CONTINUOUS
 10
5.205640
 20
3.259960
  0
SEQEND
  8
0
  0
SOLID
  8
0
 62
    15
 10
5.255800
 20
3.177240
 11
5.904360
 21
3.554320
 12
5.298040
 22
3.090120
 13
5.946600
 23
3.466760
  0
POLYLINE
  8
0
  6
CONTINUOUS
 66
     1
 40
0.000000
 41
0.000000
  0
VERTEX
  8
0
  6
CONTINUOUS
 10
5.255800
 20
3.177240
  0
VERTEX
  8
0
  6
CONTINUOUS
 10
5.904360
 20
3.554320
  0
VERTEX
  8
0
  6
CONTINUOUS
 10
5.946600
 20
3.466760
  0
VERTEX
  8
0
  6
CONTINUOUS
 10
5.298040
 20
3.090120
  0
VERTEX
  8
0
  6
CONTINUOUS
 10
5.255800
 20
3.177240
  0
SEQEND
  8
0
  0
SOLID
  8
0
 62
    15
 10
5.298040
 20
3.090120
 11
5.946600
 21
3.466760
 12
5.331480
 22
2.998160
 13
5.980040
 23
3.375240
  0
POLYLINE
  8
0
  6
CONTINUOUS
 66
     1
 40
0.000000
 41
0.000000
  0
VERTEX
  8
0
  6
CONTINUOUS
 10
5.298040
 20
3.090120
  0
VERTEX
  8
0
  6
CONTINUOUS
 10
5.946600
 20
3.466760
  0
VERTEX
  8
0
  6
CONTINUOUS
 10
5.980040
 20
3.375240
  0
VERTEX
  8
0
  6
CONTINUOUS
 10
5.331480
 20
2.998160
  0
VERTEX
  8
0
  6
CONTINUOUS
 10
5.298040
 20
3.090120
  0
SEQEND
  8
0
  0
SOLID
  8
0
 62
    15
 10
5.331480
 20
2.998160
 11
5.980040
 21
3.375240
 12
5.356120
 22
2.902240
 13
6.004680
 23
3.279320
  0
POLYLINE
  8
0
  6
CONTINUOUS
 66
     1
 40
0.000000
 41
0.000000
  0
VERTEX
  8
0
  6
CONTINUOUS
 10
5.331480
 20
2.998160
  0
VERTEX
  8
0
  6
CONTINUOUS
 10
5.980040
 20
3.375240
  0
VERTEX
  8
0
  6
CONTINUOUS
 10
6.004680
 20
3.279320
  0
VERTEX
  8
0
  6
CONTINUOUS
 10
5.356120
 20
2.902240
  0
VERTEX
  8
0
  6
CONTINUOUS
 10
5.331480
 20
2.998160
  0
SEQEND
  8
0
  0
SOLID
  8
0
 62
    15
 10
5.356120
 20
2.902240
 11
6.004680
 21
3.279320
 12
5.371520
 22
2.802800
 13
6.020080
 23
3.179880
  0
POLYLINE
  8
0
  6
CONTINUOUS
 66
     1
 40
0.000000
 41
0.000000
  0
VERTEX
  8
0
  6
CONTINUOUS
 10
5.356120
 20
2.902240
  0
VERTEX
  8
0
  6
CONTINUOUS
 10
6.004680
 20
3.279320
  0
VERTEX
  8
0
  6
CONTINUOUS
 10
6.020080
 20
3.179880
  0
VERTEX
  8
0
  6
CONTINUOUS
 10
5.371520
 20
2.802800
  0
VERTEX
  8
0
  6
CONTINUOUS
 10
5.356120
 20
2.902240
  0
SEQEND
  8
0
  0
SOLID
  8
0
 62
    15
 10
5.371520
 20
2.802800
 11
6.020080
 21
3.179880
 12
5.376360
 22
2.700720
 13
6.024920
 23
3.077800
  0
POLYLINE
  8
0
  6
CONTINUOUS
 66
     1
 40
0.000000
 41
0.000000
  0
VERTEX
  8
0
  6
CONTINUOUS
 10
5.371520
 20
2.802800
  0
VERTEX
  8
0
  6
CONTINUOUS
 10
6.020080
 20
3.179880
  0
VERTEX
  8
0
  6
CONTINUOUS
 10
6.024920
 20
3.077800
  0
VERTEX
  8
0
  6
CONTINUOUS
 10
5.376360
 20
2.700720
  0
VERTEX
  8
0
  6
CONTINUOUS
 10
5.371520
 20
2.802800
  0
SEQEND
  8
0
  0
POLYLINE
  8
0
  6
CONTINUOUS
 66
     1
 40
0.000000
 41
0.000000
  0
VERTEX
  8
0
  6
CONTINUOUS
 10
5.376800
 20
2.702040
  0
VERTEX
  8
0
  6
CONTINUOUS
 10
4.376680
 20
2.702040
  0
VERTEX
  8
0
  6
CONTINUOUS
 10
4.376680
 20
3.700400
  0
VERTEX
  8
0
  6
CONTINUOUS
 10
4.478760
 20
3.695560
  0
VERTEX
  8
0
  6
CONTINUOUS
 10
4.578200
 20
3.680160
  0
VERTEX
  8
0
  6
CONTINUOUS
 10
4.674120
 20
3.655520
  0
VERTEX
  8
0
  6
CONTINUOUS
 10
4.765640
 20
3.622080
  0
VERTEX
  8
0
  6
CONTINUOUS
 10
4.853200
 20
3.579840
  0
VERTEX
  8
0
  6
CONTINUOUS
 10
4.935480
 20
3.529680
  0
VERTEX
  8
0
  6
CONTINUOUS
 10
5.012480
 20
3.472480
  0
VERTEX
  8
0
  6
CONTINUOUS
 10
5.083760
 20
3.407800
  0
VERTEX
  8
0
  6
CONTINUOUS
 10
5.148000
 20
3.336520
  0
VERTEX
  8
0
  6
CONTINUOUS
 10
5.205640
 20
3.259960
  0
VERTEX
  8
0
  6
CONTINUOUS
 10
5.255800
 20
3.177240
  0
VERTEX
  8
0
  6
CONTINUOUS
 10
5.298040
 20
3.090120
  0
VERTEX
  8
0
  6
CONTINUOUS
 10
5.331480
 20
2.998160
  0
VERTEX
  8
0
  6
CONTINUOUS
 10
5.356120
 20
2.902240
  0
VERTEX
  8
0
  6
CONTINUOUS
 10
5.371520
 20
2.802800
  0
VERTEX
  8
0
  6
CONTINUOUS
 10
5.376360
 20
2.700720
  0
VERTEX
  8
0
  6
CONTINUOUS
 10
5.376800
 20
2.702040
  0
SEQEND
  8
0
  0
TEXT
  8
0
 10
4.904680
 20
2.477640
 40
0.138012
  1
BA  905
 41
1.000000
  7
SN0
 71
     0
 72
     5
 11
5.495242
 21
2.477640
  0
TEXT
  8
0
 10
5.124240
 20
2.285800
 40
0.138012
  1
1" 
 41
1.000000
  7
SN0
 71
     0
 72
     5
 11
5.321542
 21
2.285800
  0
ENDSEC
  0
EOF
